  0
SECTION
  2
HEADER
  9
$ACADVER
  1
AC1014
  9
$ACADMAINTVER
 70
         0
  9
$DWGCODEPAGE
  3
ANSI_1252
  9
$INSBASE
 10
0.0
 20
0.0
 30
0.0
  9
$EXTMIN
 10
0.0
 20
0.0
 30
0.0
  9
$EXTMAX
 10
93.053006
 20
149.59
 30
0.0
  9
$LIMMIN
 10
0.0
 20
0.0
  9
$LIMMAX
 10
0.0
 20
0.0
  9
$ORTHOMODE
 70
         0
  9
$REGENMODE
 70
         1
  9
$FILLMODE
 70
         1
  9
$QTEXTMODE
 70
         0
  9
$MIRRTEXT
 70
         1
  9
$DRAGMODE
 70
         2
  9
$LTSCALE
 40
1.0
  9
$OSMODE
 70
         0
  9
$ATTMODE
 70
         1
  9
$TEXTSIZE
 40
0.2
  9
$TRACEWID
 40
0.05
  9
$TEXTSTYLE
  7
STANDARD
  9
$CLAYER
  8
0
  9
$CELTYPE
  6
CONTINUOUS
  9
$CECOLOR
 62
       256
  9
$CELTSCALE
 40
1.0
  9
$DELOBJ
 70
         1
  9
$DISPSILH
 70
         0
  9
$DIMSCALE
 40
1.0
  9
$DIMASZ
 40
0.18
  9
$DIMEXO
 40
0.0625
  9
$DIMDLI
 40
0.38
  9
$DIMRND
 40
0.0
  9
$DIMDLE
 40
0.0
  9
$DIMEXE
 40
0.18
  9
$DIMTP
 40
0.0
  9
$DIMTM
 40
0.0
  9
$DIMTXT
 40
0.18
  9
$DIMCEN
 40
0.09
  9
$DIMTSZ
 40
0.0
  9
$DIMTOL
 70
         0
  9
$DIMLIM
 70
         0
  9
$DIMTIH
 70
         1
  9
$DIMTOH
 70
         1
  9
$DIMSE1
 70
         0
  9
$DIMSE2
 70
         0
  9
$DIMTAD
 70
         0
  9
$DIMZIN
 70
         0
  9
$DIMBLK
  1

  9
$DIMASO
 70
         1
  9
$DIMSHO
 70
         1
  9
$DIMPOST
  1

  9
$DIMAPOST
  1

  9
$DIMALT
 70
         0
  9
$DIMALTD
 70
         2
  9
$DIMALTF
 40
25.4
  9
$DIMLFAC
 40
1.0
  9
$DIMTOFL
 70
         0
  9
$DIMTVP
 40
0.0
  9
$DIMTIX
 70
         0
  9
$DIMSOXD
 70
         0
  9
$DIMSAH
 70
         0
  9
$DIMBLK1
  1

  9
$DIMBLK2
  1

  9
$DIMSTYLE
  2
STANDARD
  9
$DIMCLRD
 70
         0
  9
$DIMCLRE
 70
         0
  9
$DIMCLRT
 70
         0
  9
$DIMTFAC
 40
1.0
  9
$DIMGAP
 40
0.09
  9
$DIMJUST
 70
         0
  9
$DIMSD1
 70
         0
  9
$DIMSD2
 70
         0
  9
$DIMTOLJ
 70
         1
  9
$DIMTZIN
 70
         0
  9
$DIMALTZ
 70
         0
  9
$DIMALTTZ
 70
         0
  9
$DIMFIT
 70
         3
  9
$DIMUPT
 70
         0
  9
$DIMUNIT
 70
         2
  9
$DIMDEC
 70
         4
  9
$DIMTDEC
 70
         4
  9
$DIMALTU
 70
         2
  9
$DIMALTTD
 70
         2
  9
$DIMTXSTY
  7
STANDARD
  9
$DIMAUNIT
 70
         0
  9
$LUNITS
 70
         2
  9
$LUPREC
 70
         4
  9
$SKETCHINC
 40
0.1
  9
$FILLETRAD
 40
0.0
  9
$AUNITS
 70
         0
  9
$AUPREC
 70
         0
  9
$MENU
  1
acad
  9
$ELEVATION
 40
0.0
  9
$PELEVATION
 40
0.0
  9
$THICKNESS
 40
0.0
  9
$LIMCHECK
 70
         0
  9
$BLIPMODE
 70
         1
  9
$CHAMFERA
 40
0.0
  9
$CHAMFERB
 40
0.0
  9
$CHAMFERC
 40
0.0
  9
$CHAMFERD
 40
0.0
  9
$SKPOLY
 70
         0
  9
$TDCREATE
 40
20221117.114142
  9
$TDUPDATE
 40
0.0
  9
$TDINDWG
 40
0.0
  9
$TDUSRTIMER
 40
0.0
  9
$USRTIMER
 70
         1
  9
$ANGBASE
 50
0.0
  9
$ANGDIR
 70
         0
  9
$PDMODE
 70
         0
  9
$PDSIZE
 40
0.0
  9
$PLINEWID
 40
0.0
  9
$COORDS
 70
         0
  9
$SPLFRAME
 70
         0
  9
$SPLINETYPE
 70
         6
  9
$SPLINESEGS
 70
         8
  9
$ATTDIA
 70
         0
  9
$ATTREQ
 70
         1
  9
$HANDLING
 70
         1
  9
$HANDSEED
  5
17D
  9
$SURFTAB1
 70
         6
  9
$SURFTAB2
 70
         6
  9
$SURFTYPE
 70
         6
  9
$SURFU
 70
         6
  9
$SURFV
 70
         6
  9
$UCSNAME
  2

  9
$UCSORG
 10
0.0
 20
0.0
 30
0.0
  9
$UCSXDIR
 10
1.0
 20
0.0
 30
0.0
  9
$UCSYDIR
 10
0.0
 20
1.0
 30
0.0
  9
$PUCSNAME
  2

  9
$PUCSORG
 10
0.0
 20
0.0
 30
0.0
  9
$PUCSXDIR
 10
1.0
 20
0.0
 30
0.0
  9
$PUCSYDIR
 10
0.0
 20
1.0
 30
0.0
  9
$USERI1
 70
         -3
  9
$USERI2
 70
         0
  9
$USERI3
 70
         0
  9
$USERI4
 70
         0
  9
$USERI5
 70
         0
  9
$USERR1
 40
0.0
  9
$USERR2
 40
0.0
  9
$USERR3
 40
0.0
  9
$USERR4
 40
0.0
  9
$USERR5
 40
0.0
  9
$WORLDVIEW
 70
         1
  9
$SHADEDGE
 70
         3
  9
$SHADEDIF
 70
        70
  9
$TILEMODE
 70
         1
  9
$MAXACTVP
 70
         16
  9
$PINSBASE
 10
0.0
 20
0.0
 30
0.0
  9
$PLIMCHECK
 70
         0
  9
$PEXTMIN
 10
100000000000000000000.0
 20
100000000000000000000.0
 30
100000000000000000000.0
  9
$PEXTMAX
 10
-100000000000000000000.0
 20
-100000000000000000000.0
 30
-100000000000000000000.0
  9
$PLIMMIN
 10
0.0
 20
0.0
  9
$PLIMMAX
 10
12.0
 20
9.0
  9
$UNITMODE
 70
         0
  9
$VISRETAIN
 70
         0
  9
$PLINEGEN
 70
         1
  9
$PSLTSCALE
 70
         0
  9
$TREEDEPTH
 70
      3020
  9
$PICKSTYLE
 70
         1
  9
$CMLSTYLE
  2
STANDARD
  9
$CMLJUST
 70
         0
  9
$CMLSCALE
 40
1.0
  9
$PROXYGRAPHICS
 70
         0
  9
$MEASUREMENT
 70
         0
  0
ENDSEC
  0
SECTION
  2
CLASSES
  0
CLASS
  1
LWPOLYLINE
  2
AcDbPolyline
  3
"AutoCAD"
 90
        0
280
         0
281
         1
  0
CLASS
  1
IMAGE
  2
AcDbRasterImage
  3
ISM
 90
      127
280
         0
281
         1
  0
CLASS
  1
OLE2FRAME
  2
AcDbOle2Frame
  3
""
 90
        0
280
         0
281
         1
  0
CLASS
  1
HATCH
  2
AcDbHatch
  3
"ACAD_SEDONA"
 90
        0
280
         0
281
         1
  0
CLASS
  1
DICTIONARYVAR
  2
AcDbDictionaryVar
  3
"AutoCAD"
 90
        0
280
         0
281
         0
  0
CLASS
  1
RASTERVARIABLES
  2
AcDbRasterVariables
  3
ISM
 90
        0
280
         0
281
         0
  0
CLASS
  1
IMAGEDEF
  2
AcDbRasterImageDef
  3
ISM
 90
        0
280
         0
281
         0
  0
CLASS
  1
IMAGEDEF_REACTOR
  2
AcDbRasterImageDefReactor
  3
ISM
 90
        1
280
         0
281
         0
  0
CLASS
  1
IDBUFFER
  2
AcDbIdBuffer
  3
"Acad"
 90
        0
280
         0
281
         0
  0
CLASS
  1
SPATIAL_FILTER
  2
AcDbSpatialFilter
  3
"Acad"
 90
        0
280
         0
281
         0
  0
CLASS
  1
XRECORD
  2
AcDbXrecord
  3
"<Built In>"
 90
        0
280
         0
281
         0
  0
CLASS
  1
SORTENTSTABLE
  2
AcDbSortentsTable
  3
"AutoCAD"
 90
        0
280
         0
281
         0
  0
CLASS
  1
LAYER_INDEX
  2
AcDbLayerIndex
  3
"Acad"
 90
        0
280
         0
281
         0
  0
CLASS
  1
SPATIAL_INDEX
  2
AcDbSpatialIndex
  3
"Acad"
 90
        0
280
         0
281
         0
  0
CLASS
  1
OBJECT_PTR
  2
CAseDLPNTableRecord
  3
"ASE-LPNTableRecord"
 90
        1
280
         0
281
         0
  0
CLASS
  1
LAYOUT
  2
AcDbLayout
  3
"AutoCAD 2000"
 90
        0
280
         0
281
         0
  0
CLASS
  1
PLOTSETTINGS
  2
AcDbPlotSettings
  3
"AutoCAD 2000"
 90
        0
280
         0
281
         0
  0
CLASS
  1
ACDBDICTIONARYWDFLT
  2
AcDbDictionaryWithDefault
  3
"AutoCAD 2000"
 90
        0
280
         0
281
         0
  0
CLASS
  1
ACDBPLACEHOLDER
  2
AcDbPlaceHolder
  3
"AutoCAD 2000"
 90
        0
280
         0
281
         0
  0
CLASS
  1
VBA_PROJECT
  2
AcDbVbaProject
  3
"acadvba"
 90
        0
280
         0
281
         0
  0
CLASS
  1
WIPEOUT
  2
AcDbWipeout
  3
WipeOut|AutoCAD Express Tool|expresstools@autodesk.com
 90
      127
280
         0
281
         1
  0
CLASS
  1
WIPEOUTVARIABLES
  2
AcDbWipeoutVariables
  3
WipeOut|AutoCAD Express Tool|expresstools@autodesk.com
 90
        0
280
         0
281
         0
  0
CLASS
  1
RTEXT
  2
RText
  3
RText|AutoCAD Express Tool|expresstools@autodesk.com
 90
        0
280
         0
281
         1
  0
CLASS
  1
ARCALIGNEDTEXT
  2
AcDbArcAlignedText
  3
ATEXT|AutoCAD Express Tool|expresstools@autodesk.com
 90
        0
280
         0
281
         1
  0
ENDSEC
  0
SECTION
  2
TABLES
  0
TABLE
  2
VPORT
  5
7
100
AcDbSymbolTable
70
    1
  0
VPORT
  5
13
100
AcDbSymbolTableRecord
100
AcDbViewportTableRecord
  2
*ACTIVE
 70
         0
 10
0.0
 20
0.0
 11
1.0
 21
1.0
 12
6.591288
 22
4.579184
 13
0.0
 23
0.0
 14
1.0
 24
1.0
 15
0.0
 25
0.0
 16
0.0
 26
0.0
 36
1.0
 17
0.0
 27
0.0
 37
0.0
  40
9.158369
  41
0.688564
  42
50.0
  43
0.0
  44
0.0
  50
0.0
  51
0.0
 71
    0
 72
    100
 73
    1
 74
    1
 75
    0
 76
    0
 77
    0
 78
    0
  0
ENDTAB
  0
TABLE
  2
LTYPE
  5
4
100
AcDbSymbolTable
70
    3
  0
LTYPE
  5
10
100
AcDbSymbolTableRecord
100
AcDbLinetypeTableRecord
  2
BYBLOCK
 70
         64
  3

 72
       65
 73
       0
  40
0.0
  0
LTYPE
  5
11
100
AcDbSymbolTableRecord
100
AcDbLinetypeTableRecord
  2
BYLAYER
 70
         64
  3

 72
       65
 73
       0
  40
0.0
  0
LTYPE
  5
12
100
AcDbSymbolTableRecord
100
AcDbLinetypeTableRecord
  2
CONTINUOUS
 70
         64
  3
Solid Line
 72
       65
 73
       0
  40
0.0
  0
ENDTAB
  0
TABLE
  2
LAYER
  5
2
100
AcDbSymbolTable
 70
         6
  0
LAYER
  5
172
100
AcDbSymbolTableRecord
100
AcDbLayerTableRecord
  2
0
 70
         0
 62
         7
  6
CONTINUOUS
  0
LAYER
  5
173
100
AcDbSymbolTableRecord
100
AcDbLayerTableRecord
  2
ASSEMBLY_OUTLINES_TOP
 70
         0
 62
         102
  6
CONTINUOUS
  0
LAYER
  5
174
100
AcDbSymbolTableRecord
100
AcDbLayerTableRecord
  2
ASSEMBLY_REF_DES_TOP
 70
         0
 62
         102
  6
CONTINUOUS
  0
LAYER
  5
175
100
AcDbSymbolTableRecord
100
AcDbLayerTableRecord
  2
BOARD_OUTLINE
 70
         0
 62
         10
  6
CONTINUOUS
  0
LAYER
  5
176
100
AcDbSymbolTableRecord
100
AcDbLayerTableRecord
  2
MOUNTING_HOLES_LAYER_TOP
 70
         0
 62
         42
  6
CONTINUOUS
  0
LAYER
  5
177
100
AcDbSymbolTableRecord
100
AcDbLayerTableRecord
  2
PART_HOLES_LAYER_TOP
 70
         0
 62
         30
  6
CONTINUOUS
  0
ENDTAB
  0
TABLE
  2
STYLE
  5
3
100
AcDbSymbolTable
 70
         5
  0
STYLE
  5
178
100
AcDbSymbolTableRecord
100
AcDbTextStyleTableRecord
  2
STANDARD
 70
         0
 40
0.0
 41
1.0
 50
0.0
 71
         0
 42
0.0
  3
txt
  4

  0
STYLE
  5
179
100
AcDbSymbolTableRecord
100
AcDbTextStyleTableRecord
  2
VERIBEST_GERBER_1
 70
         0
 40
0.0
 41
1.0
 50
0.0
 71
         0
 42
0.0
  3
VBest1.ttf
  4

  0
STYLE
  5
17A
100
AcDbSymbolTableRecord
100
AcDbTextStyleTableRecord
  2
VERIBEST_GERBER_0
 70
         0
 40
0.0
 41
1.0
 50
0.0
 71
         0
 42
0.0
  3
VBest0.ttf
  4

  0
STYLE
  5
17B
100
AcDbSymbolTableRecord
100
AcDbTextStyleTableRecord
  2
ISOCPEUR
 70
         0
 40
0.0
 41
1.0
 50
0.0
 71
         0
 42
0.0
  3
ISOCPEUR.ttf
  4

  0
STYLE
  5
17C
100
AcDbSymbolTableRecord
100
AcDbTextStyleTableRecord
  2
GOST_TYPE_B
 70
         0
 40
0.0
 41
1.0
 50
0.0
 71
         0
 42
0.0
  3
gost_1.ttf
  4

  0
ENDTAB
  0
TABLE
  2
VIEW
  5
5
100
AcDbSymbolTable
 70
         0
  0
ENDTAB
  0
TABLE
  2
UCS
  5
6
100
AcDbSymbolTable
 70
         0
  0
ENDTAB
  0
TABLE
  2
APPID
  5
8
100
AcDbSymbolTable
 70
         1
  0
APPID
  5
14
100
AcDbSymbolTableRecord
100
AcDbRegAppTableRecord
  2
ACAD
 70
         0
  0
ENDTAB
  0
TABLE
  2
DIMSTYLE
  5
9
100
AcDbSymbolTable
 70
         1
  0
DIMSTYLE
105
15
100
AcDbSymbolTableRecord
100
AcDbDimStyleTableRecord
  2
STANDARD
 70
         0
  3

  4

  5

  6

 7

 40
1.0
 41
0.18
 42
0.0625
 43
0.38
 44
0.18
 45
0.0
 46
0.0
 47
0.0
 48
0.0
 71
         0
 72
         0
 73
         1
 74
         1
 75
         0
 76
         0
 77
         0
 78
         0
140
0.18
141
0.09
142
0.0
143
25.4
144
1.0
145
0.0
146
1.0
147
0.09
170
         0
171
         2
172
         0
173
         0
174
         0
175
         0
176
         0
177
         0
178
         0
270
         2
271
         4
272
         4
273
         2
274
         2
275
         0
280
         0
281
         0
282
         0
283
         1
284
         0
285
         0
286
         0
287
         3
288
         0
340
17
  0
ENDTAB
  0
TABLE
  2
BLOCK_RECORD
  5
1
100
AcDbSymbolTable
 70
         0
  0
BLOCK_RECORD
  5
A
100
AcDbSymbolTableRecord
100
AcDbBlockTableRecord
  2
*MODEL_SPACE
  0
BLOCK_RECORD
  5
B
100
AcDbSymbolTableRecord
100
AcDbBlockTableRecord
  2
*PAPER_SPACE
  0
ENDTAB
  0
ENDSEC
  0
SECTION
  2
BLOCKS
  0
BLOCK
  5
C
100
AcDbEntity
  8
0
100
AcDbBlockBegin
  2
*MODEL_SPACE
 70
         0
 10
0.0
 20
0.0
 30
0.0
  3
*MODEL_SPACE
  1

  0
ENDBLK
  5
D
100
AcDbEntity
  8
0
100
AcDbBlockEnd
  0
BLOCK
  5
E
100
AcDbEntity
 67
        1
  8
0
100
AcDbBlockBegin
  2
*PAPER_SPACE
 70
         0
 10
0.0
 20
0.0
 30
0.0
  3
*PAPER_SPACE
  1

  0
ENDBLK
  5
F
100
AcDbEntity
 67
        1
  8
0
100
AcDbBlockEnd
  0
ENDSEC
  0
SECTION
  2
ENTITIES
  0
LWPOLYLINE
  5
1B
100
AcDbEntity
  8
ASSEMBLY_OUTLINES_TOP
100
AcDbPolyline
 90
        4
 70
         1
 43
0.0
 10
63.7
 20
112.5
 10
63.7
 20
129.9
 10
81.1
 20
129.9
 10
81.1
 20
112.5
  0
CIRCLE
  5
1C
100
AcDbEntity
  8
ASSEMBLY_OUTLINES_TOP
100
AcDbCircle
 10
86.5
 20
101.48
 30
0.0
 40
2.5
  0
CIRCLE
  5
1D
100
AcDbEntity
  8
ASSEMBLY_OUTLINES_TOP
100
AcDbCircle
 10
62.3
 20
101.48
 30
0.0
 40
2.5
  0
LWPOLYLINE
  5
1E
100
AcDbEntity
  8
ASSEMBLY_OUTLINES_TOP
100
AcDbPolyline
 90
        2
 70
         0
 43
0.2
 10
59.399739
 20
97.98
 10
59.399739
 20
95.119595
  0
LWPOLYLINE
  5
1F
100
AcDbEntity
  8
ASSEMBLY_OUTLINES_TOP
100
AcDbPolyline
 90
        2
 70
         0
 43
0.2
 10
89.4
 20
97.98
 10
89.4
 20
95.119595
  0
LWPOLYLINE
  5
20
100
AcDbEntity
  8
ASSEMBLY_OUTLINES_TOP
100
AcDbPolyline
 90
        2
 70
         0
 43
0.2
 10
59.969739
 20
95.629595
 10
71.650971
 20
95.629595
  0
LWPOLYLINE
  5
21
100
AcDbEntity
  8
ASSEMBLY_OUTLINES_TOP
100
AcDbPolyline
 90
        2
 70
         0
 43
0.2
 10
77.148767
 20
95.629595
 10
88.83
 20
95.629595
  0
LWPOLYLINE
  5
22
100
AcDbEntity
  8
ASSEMBLY_OUTLINES_TOP
100
AcDbPolyline
 90
        3
 70
         1
 43
0.0
 10
59.399739
 20
95.629595
 10
60.539739
 20
96.199595
 10
60.539739
 20
95.059595
  0
HATCH
  5
23
100
AcDbEntity
  8
ASSEMBLY_OUTLINES_TOP
100
AcDbHatch
 10
0.0
 20
0.0
 30
0.0
 210
0.0
 220
0.0
 230
1.0
  2
SOLID
 70
         1
 71
        1
 91
        1
  92
     2
 72
     0
 73
     1
  93
     3
 10
59.399739
 20
95.629595
 10
60.539739
 20
96.199595
 10
60.539739
 20
95.059595
  97
     1
  330
    34
 75
     0
 76
     1
  98
     1
 10
0.0
 20
0.0
  0
LWPOLYLINE
  5
24
100
AcDbEntity
  8
ASSEMBLY_OUTLINES_TOP
100
AcDbPolyline
 90
        3
 70
         1
 43
0.0
 10
89.4
 20
95.629595
 10
88.26
 20
95.059595
 10
88.26
 20
96.199595
  0
HATCH
  5
25
100
AcDbEntity
  8
ASSEMBLY_OUTLINES_TOP
100
AcDbHatch
 10
0.0
 20
0.0
 30
0.0
 210
0.0
 220
0.0
 230
1.0
  2
SOLID
 70
         1
 71
        1
 91
        1
  92
     2
 72
     0
 73
     1
  93
     3
 10
89.4
 20
95.629595
 10
88.26
 20
95.059595
 10
88.26
 20
96.199595
  97
     1
  330
    36
 75
     0
 76
     1
  98
     1
 10
0.0
 20
0.0
  0
LWPOLYLINE
  5
26
100
AcDbEntity
  8
ASSEMBLY_OUTLINES_TOP
100
AcDbPolyline
 90
        2
 70
         0
 43
0.2
 10
87.76
 20
149.49
 10
92.953006
 20
149.49
  0
LWPOLYLINE
  5
27
100
AcDbEntity
  8
ASSEMBLY_OUTLINES_TOP
100
AcDbPolyline
 90
        2
 70
         0
 43
0.2
 10
89.909999
 20
98.49
 10
92.953006
 20
98.49
  0
LWPOLYLINE
  5
28
100
AcDbEntity
  8
ASSEMBLY_OUTLINES_TOP
100
AcDbPolyline
 90
        2
 70
         0
 43
0.2
 10
92.443006
 20
148.92
 10
92.443006
 20
126.665555
  0
LWPOLYLINE
  5
29
100
AcDbEntity
  8
ASSEMBLY_OUTLINES_TOP
100
AcDbPolyline
 90
        2
 70
         0
 43
0.2
 10
92.443006
 20
121.314445
 10
92.443006
 20
99.06
  0
LWPOLYLINE
  5
2A
100
AcDbEntity
  8
ASSEMBLY_OUTLINES_TOP
100
AcDbPolyline
 90
        3
 70
         1
 43
0.0
 10
92.443006
 20
149.49
 10
93.013005
 20
148.35
 10
91.873006
 20
148.35
  0
HATCH
  5
2B
100
AcDbEntity
  8
ASSEMBLY_OUTLINES_TOP
100
AcDbHatch
 10
0.0
 20
0.0
 30
0.0
 210
0.0
 220
0.0
 230
1.0
  2
SOLID
 70
         1
 71
        1
 91
        1
  92
     2
 72
     0
 73
     1
  93
     3
 10
92.443006
 20
149.49
 10
93.013005
 20
148.35
 10
91.873006
 20
148.35
  97
     1
  330
    42
 75
     0
 76
     1
  98
     1
 10
0.0
 20
0.0
  0
LWPOLYLINE
  5
2C
100
AcDbEntity
  8
ASSEMBLY_OUTLINES_TOP
100
AcDbPolyline
 90
        3
 70
         1
 43
0.0
 10
92.443006
 20
98.49
 10
91.873006
 20
99.63
 10
93.013006
 20
99.63
  0
HATCH
  5
2D
100
AcDbEntity
  8
ASSEMBLY_OUTLINES_TOP
100
AcDbHatch
 10
0.0
 20
0.0
 30
0.0
 210
0.0
 220
0.0
 230
1.0
  2
SOLID
 70
         1
 71
        1
 91
        1
  92
     2
 72
     0
 73
     1
  93
     3
 10
92.443006
 20
98.49
 10
91.873006
 20
99.63
 10
93.013006
 20
99.63
  97
     1
  330
    44
 75
     0
 76
     1
  98
     1
 10
0.0
 20
0.0
  0
TEXT
  5
2E
100
AcDbEntity
  8
ASSEMBLY_OUTLINES_TOP
100
AcDbText
 10
72.002109
 20
94.994594
 30
0.0
 40
1.270000
 41
1.000000
  1
30mm
  7
VERIBEST_GERBER_1
 72
 1
 11
74.399869
 21
95.629594
 31
0.0
100
AcDbText
 73
 2
  0
TEXT
  5
2F
100
AcDbEntity
  8
ASSEMBLY_OUTLINES_TOP
100
AcDbText
 10
93.078006
 20
121.66209
 30
0.0
 40
1.270000
 41
1.000000
  1
51mm
  50
90.0
  7
VERIBEST_GERBER_1
 72
 1
 11
92.443006
 21
123.99
 31
0.0
100
AcDbText
 73
 2
  0
LWPOLYLINE
  5
30
100
AcDbEntity
  8
ASSEMBLY_OUTLINES_TOP
100
AcDbPolyline
 90
        4
 70
         1
 43
0.1
 10
82.4
 20
137.3
 10
82.4
 20
140.3
 10
85.4
 20
140.3
 10
85.4
 20
137.3
  0
LWPOLYLINE
  5
31
100
AcDbEntity
  8
ASSEMBLY_OUTLINES_TOP
100
AcDbPolyline
 90
        2
 70
         0
 43
0.1
 10
85.3
 20
137.3
 10
85.4
 20
137.4
  0
LWPOLYLINE
  5
32
100
AcDbEntity
  8
ASSEMBLY_OUTLINES_TOP
100
AcDbPolyline
 90
        2
 70
         0
 43
0.1
 10
85.2
 20
137.3
 10
85.4
 20
137.5
  0
LWPOLYLINE
  5
33
100
AcDbEntity
  8
ASSEMBLY_OUTLINES_TOP
100
AcDbPolyline
 90
        2
 70
         0
 43
0.1
 10
85.1
 20
137.3
 10
85.4
 20
137.6
  0
LWPOLYLINE
  5
34
100
AcDbEntity
  8
ASSEMBLY_OUTLINES_TOP
100
AcDbPolyline
 90
        2
 70
         0
 43
0.1
 10
85.0
 20
137.3
 10
85.4
 20
137.7
  0
LWPOLYLINE
  5
35
100
AcDbEntity
  8
ASSEMBLY_OUTLINES_TOP
100
AcDbPolyline
 90
        2
 70
         0
 43
0.1
 10
84.9
 20
137.3
 10
85.4
 20
137.8
  0
LWPOLYLINE
  5
36
100
AcDbEntity
  8
ASSEMBLY_OUTLINES_TOP
100
AcDbPolyline
 90
        2
 70
         0
 43
0.1
 10
84.8
 20
137.3
 10
85.4
 20
137.9
  0
LWPOLYLINE
  5
37
100
AcDbEntity
  8
ASSEMBLY_OUTLINES_TOP
100
AcDbPolyline
 90
        2
 70
         0
 43
0.1
 10
84.7
 20
137.3
 10
85.4
 20
138.0
  0
LWPOLYLINE
  5
38
100
AcDbEntity
  8
ASSEMBLY_OUTLINES_TOP
100
AcDbPolyline
 90
        2
 70
         0
 43
0.1
 10
84.6
 20
137.3
 10
85.4
 20
138.1
  0
LWPOLYLINE
  5
39
100
AcDbEntity
  8
ASSEMBLY_OUTLINES_TOP
100
AcDbPolyline
 90
        2
 70
         0
 43
0.1
 10
84.5
 20
137.3
 10
85.4
 20
138.2
  0
LWPOLYLINE
  5
3A
100
AcDbEntity
  8
ASSEMBLY_OUTLINES_TOP
100
AcDbPolyline
 90
        2
 70
         0
 43
0.1
 10
84.4
 20
137.3
 10
85.4
 20
138.3
  0
LWPOLYLINE
  5
3B
100
AcDbEntity
  8
ASSEMBLY_OUTLINES_TOP
100
AcDbPolyline
 90
        4
 70
         1
 43
0.1
 10
65.864185
 20
135.373675
 10
65.864185
 20
139.373675
 10
69.864185
 20
139.373675
 10
69.864185
 20
135.373675
  0
LWPOLYLINE
  5
3C
100
AcDbEntity
  8
ASSEMBLY_OUTLINES_TOP
100
AcDbPolyline
 90
        2
 70
         0
 43
0.1
 10
65.964185
 20
139.373675
 10
65.864185
 20
139.273675
  0
LWPOLYLINE
  5
3D
100
AcDbEntity
  8
ASSEMBLY_OUTLINES_TOP
100
AcDbPolyline
 90
        2
 70
         0
 43
0.1
 10
66.064185
 20
139.373675
 10
65.864185
 20
139.173675
  0
LWPOLYLINE
  5
3E
100
AcDbEntity
  8
ASSEMBLY_OUTLINES_TOP
100
AcDbPolyline
 90
        2
 70
         0
 43
0.1
 10
66.164185
 20
139.373675
 10
65.864185
 20
139.073675
  0
LWPOLYLINE
  5
3F
100
AcDbEntity
  8
ASSEMBLY_OUTLINES_TOP
100
AcDbPolyline
 90
        2
 70
         0
 43
0.1
 10
66.264185
 20
139.373675
 10
65.864185
 20
138.973675
  0
LWPOLYLINE
  5
40
100
AcDbEntity
  8
ASSEMBLY_OUTLINES_TOP
100
AcDbPolyline
 90
        2
 70
         0
 43
0.1
 10
66.364185
 20
139.373675
 10
65.864185
 20
138.873675
  0
LWPOLYLINE
  5
41
100
AcDbEntity
  8
ASSEMBLY_OUTLINES_TOP
100
AcDbPolyline
 90
        2
 70
         0
 43
0.1
 10
66.464185
 20
139.373675
 10
65.864185
 20
138.773675
  0
LWPOLYLINE
  5
42
100
AcDbEntity
  8
ASSEMBLY_OUTLINES_TOP
100
AcDbPolyline
 90
        2
 70
         0
 43
0.1
 10
66.564185
 20
139.373675
 10
65.864185
 20
138.673675
  0
LWPOLYLINE
  5
43
100
AcDbEntity
  8
ASSEMBLY_OUTLINES_TOP
100
AcDbPolyline
 90
        2
 70
         0
 43
0.1
 10
66.664185
 20
139.373675
 10
65.864185
 20
138.573675
  0
LWPOLYLINE
  5
44
100
AcDbEntity
  8
ASSEMBLY_OUTLINES_TOP
100
AcDbPolyline
 90
        2
 70
         0
 43
0.1
 10
66.764185
 20
139.373675
 10
65.864185
 20
138.473675
  0
LWPOLYLINE
  5
45
100
AcDbEntity
  8
ASSEMBLY_OUTLINES_TOP
100
AcDbPolyline
 90
        2
 70
         0
 43
0.1
 10
66.864185
 20
139.373675
 10
65.864185
 20
138.373675
  0
LWPOLYLINE
  5
46
100
AcDbEntity
  8
ASSEMBLY_OUTLINES_TOP
100
AcDbPolyline
 90
        4
 70
         1
 43
0.1
 10
65.4
 20
114.2
 10
65.4
 20
128.2
 10
79.4
 20
128.2
 10
79.4
 20
114.2
  0
LWPOLYLINE
  5
47
100
AcDbEntity
  8
ASSEMBLY_OUTLINES_TOP
100
AcDbPolyline
 90
        2
 70
         1
 43
0.1
 10
77.9
 20
115.2
 42
-1.000000
 10
78.9
 20
115.2
 42
-1.000000
  0
LWPOLYLINE
  5
48
100
AcDbEntity
  8
ASSEMBLY_OUTLINES_TOP
100
AcDbPolyline
 90
        4
 70
         1
 43
0.1
 10
82.9
 20
106.7
 10
82.9
 20
112.1
 10
88.3
 20
112.1
 10
88.3
 20
106.7
  0
LWPOLYLINE
  5
49
100
AcDbEntity
  8
ASSEMBLY_OUTLINES_TOP
100
AcDbPolyline
 90
        2
 70
         1
 43
0.1
 10
83.4
 20
107.7
 42
-1.000000
 10
84.4
 20
107.7
 42
-1.000000
  0
LWPOLYLINE
  5
4A
100
AcDbEntity
  8
ASSEMBLY_OUTLINES_TOP
100
AcDbPolyline
 90
        2
 70
         0
 43
0.1
 10
79.3
 20
110.45
 10
79.2
 20
110.55
  0
LWPOLYLINE
  5
4B
100
AcDbEntity
  8
ASSEMBLY_OUTLINES_TOP
100
AcDbPolyline
 90
        2
 70
         0
 43
0.1
 10
79.3
 20
110.35
 10
79.1
 20
110.55
  0
LWPOLYLINE
  5
4C
100
AcDbEntity
  8
ASSEMBLY_OUTLINES_TOP
100
AcDbPolyline
 90
        2
 70
         0
 43
0.1
 10
79.3
 20
110.25
 10
79.0
 20
110.55
  0
LWPOLYLINE
  5
4D
100
AcDbEntity
  8
ASSEMBLY_OUTLINES_TOP
100
AcDbPolyline
 90
        2
 70
         0
 43
0.1
 10
79.3
 20
110.15
 10
78.9
 20
110.55
  0
LWPOLYLINE
  5
4E
100
AcDbEntity
  8
ASSEMBLY_OUTLINES_TOP
100
AcDbPolyline
 90
        2
 70
         0
 43
0.1
 10
79.3
 20
110.05
 10
78.8
 20
110.55
  0
LWPOLYLINE
  5
4F
100
AcDbEntity
  8
ASSEMBLY_OUTLINES_TOP
100
AcDbPolyline
 90
        2
 70
         0
 43
0.1
 10
79.3
 20
109.95
 10
78.7
 20
110.55
  0
LWPOLYLINE
  5
50
100
AcDbEntity
  8
ASSEMBLY_OUTLINES_TOP
100
AcDbPolyline
 90
        2
 70
         0
 43
0.1
 10
79.3
 20
109.85
 10
78.6
 20
110.55
  0
LWPOLYLINE
  5
51
100
AcDbEntity
  8
ASSEMBLY_OUTLINES_TOP
100
AcDbPolyline
 90
        2
 70
         0
 43
0.1
 10
79.3
 20
109.75
 10
78.5
 20
110.55
  0
LWPOLYLINE
  5
52
100
AcDbEntity
  8
ASSEMBLY_OUTLINES_TOP
100
AcDbPolyline
 90
        2
 70
         0
 43
0.1
 10
79.3
 20
109.65
 10
78.4
 20
110.55
  0
LWPOLYLINE
  5
53
100
AcDbEntity
  8
ASSEMBLY_OUTLINES_TOP
100
AcDbPolyline
 90
        2
 70
         0
 43
0.1
 10
79.3
 20
109.55
 10
78.3
 20
110.55
  0
LWPOLYLINE
  5
54
100
AcDbEntity
  8
ASSEMBLY_OUTLINES_TOP
100
AcDbPolyline
 90
        4
 70
         1
 43
0.1
 10
67.8
 20
99.3
 10
67.8
 20
110.3
 10
77.8
 20
110.3
 10
77.8
 20
99.3
  0
LWPOLYLINE
  5
55
100
AcDbEntity
  8
ASSEMBLY_OUTLINES_TOP
100
AcDbPolyline
 90
        4
 70
         1
 43
0.1
 10
66.35
 20
99.05
 10
66.35
 20
110.55
 10
79.35
 20
110.55
 10
79.35
 20
99.05
  0
LWPOLYLINE
  5
56
100
AcDbEntity
  8
ASSEMBLY_OUTLINES_TOP
100
AcDbPolyline
 90
        4
 70
         1
 43
0.1
 10
85.5
 20
145.3
 10
85.5
 20
146.1
 10
86.7
 20
146.1
 10
86.7
 20
145.3
  0
LWPOLYLINE
  5
57
100
AcDbEntity
  8
ASSEMBLY_OUTLINES_TOP
100
AcDbPolyline
 90
        2
 70
         0
 43
0.1
 10
85.5
 20
145.3
 10
85.5
 20
146.1
  0
LWPOLYLINE
  5
58
100
AcDbEntity
  8
ASSEMBLY_OUTLINES_TOP
100
AcDbPolyline
 90
        2
 70
         0
 43
0.1
 10
85.6
 20
145.3
 10
85.6
 20
146.1
  0
LWPOLYLINE
  5
59
100
AcDbEntity
  8
ASSEMBLY_OUTLINES_TOP
100
AcDbPolyline
 90
        2
 70
         0
 43
0.1
 10
85.7
 20
145.3
 10
85.7
 20
146.1
  0
LWPOLYLINE
  5
5A
100
AcDbEntity
  8
ASSEMBLY_OUTLINES_TOP
100
AcDbPolyline
 90
        2
 70
         0
 43
0.1
 10
85.8
 20
145.3
 10
85.8
 20
146.1
  0
LWPOLYLINE
  5
5B
100
AcDbEntity
  8
ASSEMBLY_OUTLINES_TOP
100
AcDbPolyline
 90
        2
 70
         0
 43
0.1
 10
85.9
 20
145.3
 10
85.9
 20
146.1
  0
LWPOLYLINE
  5
5C
100
AcDbEntity
  8
ASSEMBLY_OUTLINES_TOP
100
AcDbPolyline
 90
        2
 70
         0
 43
0.1
 10
86.0
 20
145.3
 10
86.0
 20
146.1
  0
LWPOLYLINE
  5
5D
100
AcDbEntity
  8
ASSEMBLY_OUTLINES_TOP
100
AcDbPolyline
 90
        4
 70
         1
 43
0.1
 10
81.4
 20
128.8
 10
81.4
 20
131.8
 10
82.8
 20
131.8
 10
82.8
 20
128.8
  0
LWPOLYLINE
  5
5E
100
AcDbEntity
  8
ASSEMBLY_OUTLINES_TOP
100
AcDbPolyline
 90
        2
 70
         0
 43
0.1
 10
82.8
 20
128.9
 10
82.7
 20
128.8
  0
LWPOLYLINE
  5
5F
100
AcDbEntity
  8
ASSEMBLY_OUTLINES_TOP
100
AcDbPolyline
 90
        2
 70
         0
 43
0.1
 10
82.8
 20
129.0
 10
82.6
 20
128.8
  0
LWPOLYLINE
  5
60
100
AcDbEntity
  8
ASSEMBLY_OUTLINES_TOP
100
AcDbPolyline
 90
        2
 70
         0
 43
0.1
 10
82.8
 20
129.1
 10
82.5
 20
128.8
  0
LWPOLYLINE
  5
61
100
AcDbEntity
  8
ASSEMBLY_OUTLINES_TOP
100
AcDbPolyline
 90
        2
 70
         0
 43
0.1
 10
82.8
 20
129.2
 10
82.4
 20
128.8
  0
LWPOLYLINE
  5
62
100
AcDbEntity
  8
ASSEMBLY_OUTLINES_TOP
100
AcDbPolyline
 90
        2
 70
         0
 43
0.1
 10
82.8
 20
129.3
 10
82.3
 20
128.8
  0
LWPOLYLINE
  5
63
100
AcDbEntity
  8
ASSEMBLY_OUTLINES_TOP
100
AcDbPolyline
 90
        2
 70
         0
 43
0.1
 10
82.8
 20
129.4
 10
82.2
 20
128.8
  0
LWPOLYLINE
  5
64
100
AcDbEntity
  8
ASSEMBLY_OUTLINES_TOP
100
AcDbPolyline
 90
        4
 70
         1
 43
0.0
 10
66.35
 20
144.9
 10
66.35
 20
145.7
 10
67.85
 20
145.7
 10
67.85
 20
144.9
  0
LWPOLYLINE
  5
65
100
AcDbEntity
  8
ASSEMBLY_OUTLINES_TOP
100
AcDbPolyline
 90
        4
 70
         1
 43
0.0
 10
66.6
 20
145.05
 10
66.6
 20
145.55
 10
67.6
 20
145.55
 10
67.6
 20
145.05
  0
LWPOLYLINE
  5
66
100
AcDbEntity
  8
ASSEMBLY_OUTLINES_TOP
100
AcDbPolyline
 90
        4
 70
         1
 43
0.1
 10
84.48
 20
142.1
 10
84.48
 20
144.1
 10
85.73
 20
144.1
 10
85.73
 20
142.1
  0
LWPOLYLINE
  5
67
100
AcDbEntity
  8
ASSEMBLY_OUTLINES_TOP
100
AcDbPolyline
 90
        4
 70
         1
 43
0.1
 10
87.45
 20
141.65
 10
87.45
 20
144.55
 10
88.75
 20
144.55
 10
88.75
 20
141.65
  0
LWPOLYLINE
  5
68
100
AcDbEntity
  8
ASSEMBLY_OUTLINES_TOP
100
AcDbPolyline
 90
        2
 70
         0
 43
0.0
 10
78.25
 20
146.77
 10
78.25
 20
147.26
  0
LWPOLYLINE
  5
69
100
AcDbEntity
  8
ASSEMBLY_OUTLINES_TOP
100
AcDbPolyline
 90
        16
 70
         1
 43
0.0
 10
89.4
 20
98.49
 10
89.399999
 20
146.29
 10
87.949828
 20
146.29
 42
-0.414214
 10
87.25
 20
146.989828
 10
87.25
 20
149.49
 10
79.0
 20
149.49
 10
79.0
 20
146.223974
 42
-0.414214
 10
78.266026
 20
145.49
 10
78.233974
 20
145.49
 42
-0.414214
 10
77.5
 20
146.223974
 10
77.5
 20
149.49
 10
61.55
 20
149.49
 10
61.55
 20
146.989828
 42
-0.414214
 10
60.850172
 20
146.29
 10
59.397695
 20
146.29
 10
59.4
 20
98.49
  0
CIRCLE
  5
6A
100
AcDbEntity
  8
ASSEMBLY_OUTLINES_TOP
100
AcDbCircle
 10
86.5
 20
101.48
 30
0.0
 40
1.3
  0
HATCH
  5
6B
100
AcDbEntity
  8
ASSEMBLY_OUTLINES_TOP
100
AcDbHatch
 10
0.0
 20
0.0
 30
0.0
 210
0.0
 220
0.0
 230
1.0
  2
SOLID
 70
         1
 71
        1
 91
        1
  92
     1
  93
     1
 72
     2
 10
86.5
 20
101.48
  40
1.3
  50
     0.0
  51
     360.0
 73
     0
  97
     1
  330
    106
 75
     0
 76
     1
  98
     1
 10
0.0
 20
0.0
  0
CIRCLE
  5
6C
100
AcDbEntity
  8
ASSEMBLY_OUTLINES_TOP
100
AcDbCircle
 10
62.3
 20
101.48
 30
0.0
 40
1.3
  0
HATCH
  5
6D
100
AcDbEntity
  8
ASSEMBLY_OUTLINES_TOP
100
AcDbHatch
 10
0.0
 20
0.0
 30
0.0
 210
0.0
 220
0.0
 230
1.0
  2
SOLID
 70
         1
 71
        1
 91
        1
  92
     1
  93
     1
 72
     2
 10
62.3
 20
101.48
  40
1.3
  50
     0.0
  51
     360.0
 73
     0
  97
     1
  330
    108
 75
     0
 76
     1
  98
     1
 10
0.0
 20
0.0
  0
LWPOLYLINE
  5
6E
100
AcDbEntity
  8
ASSEMBLY_OUTLINES_TOP
100
AcDbPolyline
 90
        4
 70
         1
 43
0.0
 10
87.15
 20
144.8
 10
87.15
 20
145.6
 10
88.65
 20
145.6
 10
88.65
 20
144.8
  0
LWPOLYLINE
  5
6F
100
AcDbEntity
  8
ASSEMBLY_OUTLINES_TOP
100
AcDbPolyline
 90
        4
 70
         1
 43
0.0
 10
87.4
 20
144.95
 10
87.4
 20
145.45
 10
88.4
 20
145.45
 10
88.4
 20
144.95
  0
LWPOLYLINE
  5
70
100
AcDbEntity
  8
ASSEMBLY_OUTLINES_TOP
100
AcDbPolyline
 90
        4
 70
         1
 43
0.1
 10
79.3
 20
139.88
 10
79.3
 20
141.13
 10
81.3
 20
141.13
 10
81.3
 20
139.88
  0
LWPOLYLINE
  5
71
100
AcDbEntity
  8
ASSEMBLY_OUTLINES_TOP
100
AcDbPolyline
 90
        4
 70
         1
 43
0.1
 10
69.25
 20
140.15
 10
69.25
 20
143.05
 10
70.55
 20
143.05
 10
70.55
 20
140.15
  0
LWPOLYLINE
  5
72
100
AcDbEntity
  8
ASSEMBLY_OUTLINES_TOP
100
AcDbPolyline
 90
        4
 70
         1
 43
0.1
 10
81.45
 20
141.3
 10
81.45
 20
144.1
 10
82.75
 20
144.1
 10
82.75
 20
141.3
  0
LWPOLYLINE
  5
73
100
AcDbEntity
  8
ASSEMBLY_OUTLINES_TOP
100
AcDbPolyline
 90
        4
 70
         1
 43
0.1
 10
84.416199
 20
133.664637
 10
84.416199
 20
135.664637
 10
85.666199
 20
135.664637
 10
85.666199
 20
133.664637
  0
LWPOLYLINE
  5
74
100
AcDbEntity
  8
ASSEMBLY_OUTLINES_TOP
100
AcDbPolyline
 90
        4
 70
         1
 43
0.1
 10
70.65
 20
140.15
 10
70.65
 20
143.05
 10
71.95
 20
143.05
 10
71.95
 20
140.15
  0
LWPOLYLINE
  5
75
100
AcDbEntity
  8
ASSEMBLY_OUTLINES_TOP
100
AcDbPolyline
 90
        4
 70
         1
 43
0.1
 10
82.85
 20
141.3
 10
82.85
 20
144.1
 10
84.15
 20
144.1
 10
84.15
 20
141.3
  0
LWPOLYLINE
  5
76
100
AcDbEntity
  8
ASSEMBLY_OUTLINES_TOP
100
AcDbPolyline
 90
        4
 70
         1
 43
0.1
 10
71.15
 20
138.65
 10
71.15
 20
139.95
 10
74.05
 20
139.95
 10
74.05
 20
138.65
  0
LWPOLYLINE
  5
77
100
AcDbEntity
  8
ASSEMBLY_OUTLINES_TOP
100
AcDbPolyline
 90
        4
 70
         1
 43
0.1
 10
86.05
 20
141.7
 10
86.05
 20
144.5
 10
87.35
 20
144.5
 10
87.35
 20
141.7
  0
LWPOLYLINE
  5
78
100
AcDbEntity
  8
ASSEMBLY_OUTLINES_TOP
100
AcDbPolyline
 90
        4
 70
         1
 43
0.1
 10
86.05
 20
138.75
 10
86.05
 20
141.65
 10
87.35
 20
141.65
 10
87.35
 20
138.75
  0
LWPOLYLINE
  5
79
100
AcDbEntity
  8
ASSEMBLY_OUTLINES_TOP
100
AcDbPolyline
 90
        4
 70
         1
 43
0.1
 10
65.85
 20
140.3
 10
65.85
 20
143.1
 10
67.15
 20
143.1
 10
67.15
 20
140.3
  0
LWPOLYLINE
  5
7A
100
AcDbEntity
  8
ASSEMBLY_OUTLINES_TOP
100
AcDbPolyline
 90
        4
 70
         1
 43
0.1
 10
87.45
 20
138.85
 10
87.45
 20
141.75
 10
88.75
 20
141.75
 10
88.75
 20
138.85
  0
LWPOLYLINE
  5
7B
100
AcDbEntity
  8
ASSEMBLY_OUTLINES_TOP
100
AcDbPolyline
 90
        4
 70
         1
 43
0.1
 10
82.75
 20
133.4
 10
82.75
 20
136.2
 10
84.05
 20
136.2
 10
84.05
 20
133.4
  0
LWPOLYLINE
  5
7C
100
AcDbEntity
  8
ASSEMBLY_OUTLINES_TOP
100
AcDbPolyline
 90
        4
 70
         1
 43
0.1
 10
67.45
 20
140.3
 10
67.45
 20
143.1
 10
68.75
 20
143.1
 10
68.75
 20
140.3
  0
LWPOLYLINE
  5
7D
100
AcDbEntity
  8
ASSEMBLY_OUTLINES_TOP
100
AcDbPolyline
 90
        4
 70
         1
 43
0.0
 10
68.2
 20
132.45
 10
68.2
 20
133.95
 10
69.0
 20
133.95
 10
69.0
 20
132.45
  0
LWPOLYLINE
  5
7E
100
AcDbEntity
  8
ASSEMBLY_OUTLINES_TOP
100
AcDbPolyline
 90
        4
 70
         1
 43
0.0
 10
68.35
 20
132.7
 10
68.35
 20
133.7
 10
68.85
 20
133.7
 10
68.85
 20
132.7
  0
LWPOLYLINE
  5
7F
100
AcDbEntity
  8
ASSEMBLY_OUTLINES_TOP
100
AcDbPolyline
 90
        4
 70
         1
 43
0.1
 10
86.05
 20
132.9
 10
86.05
 20
135.7
 10
87.35
 20
135.7
 10
87.35
 20
132.9
  0
LWPOLYLINE
  5
80
100
AcDbEntity
  8
ASSEMBLY_OUTLINES_TOP
100
AcDbPolyline
 90
        4
 70
         1
 43
0.0
 10
70.4
 20
129.95
 10
70.4
 20
131.45
 10
71.2
 20
131.45
 10
71.2
 20
129.95
  0
LWPOLYLINE
  5
81
100
AcDbEntity
  8
ASSEMBLY_OUTLINES_TOP
100
AcDbPolyline
 90
        4
 70
         1
 43
0.0
 10
70.55
 20
130.2
 10
70.55
 20
131.2
 10
71.05
 20
131.2
 10
71.05
 20
130.2
  0
LWPOLYLINE
  5
82
100
AcDbEntity
  8
ASSEMBLY_OUTLINES_TOP
100
AcDbPolyline
 90
        4
 70
         1
 43
0.1
 10
79.05
 20
135.15
 10
79.05
 20
138.05
 10
80.35
 20
138.05
 10
80.35
 20
135.15
  0
LWPOLYLINE
  5
83
100
AcDbEntity
  8
ASSEMBLY_OUTLINES_TOP
100
AcDbPolyline
 90
        4
 70
         1
 43
0.1
 10
71.15
 20
137.25
 10
71.15
 20
138.55
 10
74.05
 20
138.55
 10
74.05
 20
137.25
  0
LWPOLYLINE
  5
84
100
AcDbEntity
  8
ASSEMBLY_OUTLINES_TOP
100
AcDbPolyline
 90
        4
 70
         1
 43
0.0
 10
71.3
 20
129.95
 10
71.3
 20
131.45
 10
72.1
 20
131.45
 10
72.1
 20
129.95
  0
LWPOLYLINE
  5
85
100
AcDbEntity
  8
ASSEMBLY_OUTLINES_TOP
100
AcDbPolyline
 90
        4
 70
         1
 43
0.0
 10
71.45
 20
130.2
 10
71.45
 20
131.2
 10
71.95
 20
131.2
 10
71.95
 20
130.2
  0
LWPOLYLINE
  5
86
100
AcDbEntity
  8
ASSEMBLY_OUTLINES_TOP
100
AcDbPolyline
 90
        4
 70
         1
 43
0.1
 10
80.45
 20
135.15
 10
80.45
 20
138.05
 10
81.75
 20
138.05
 10
81.75
 20
135.15
  0
LWPOLYLINE
  5
87
100
AcDbEntity
  8
ASSEMBLY_OUTLINES_TOP
100
AcDbPolyline
 90
        4
 70
         1
 43
0.0
 10
72.2
 20
129.95
 10
72.2
 20
131.45
 10
73.0
 20
131.45
 10
73.0
 20
129.95
  0
LWPOLYLINE
  5
88
100
AcDbEntity
  8
ASSEMBLY_OUTLINES_TOP
100
AcDbPolyline
 90
        4
 70
         1
 43
0.0
 10
72.35
 20
130.2
 10
72.35
 20
131.2
 10
72.85
 20
131.2
 10
72.85
 20
130.2
  0
LWPOLYLINE
  5
89
100
AcDbEntity
  8
ASSEMBLY_OUTLINES_TOP
100
AcDbPolyline
 90
        4
 70
         1
 43
0.1
 10
86.05
 20
135.85
 10
86.05
 20
138.75
 10
87.35
 20
138.75
 10
87.35
 20
135.85
  0
LWPOLYLINE
  5
8A
100
AcDbEntity
  8
ASSEMBLY_OUTLINES_TOP
100
AcDbPolyline
 90
        4
 70
         1
 43
0.0
 10
73.2
 20
129.95
 10
73.2
 20
131.45
 10
74.0
 20
131.45
 10
74.0
 20
129.95
  0
LWPOLYLINE
  5
8B
100
AcDbEntity
  8
ASSEMBLY_OUTLINES_TOP
100
AcDbPolyline
 90
        4
 70
         1
 43
0.0
 10
73.35
 20
130.2
 10
73.35
 20
131.2
 10
73.85
 20
131.2
 10
73.85
 20
130.2
  0
LWPOLYLINE
  5
8C
100
AcDbEntity
  8
ASSEMBLY_OUTLINES_TOP
100
AcDbPolyline
 90
        4
 70
         1
 43
0.1
 10
87.45
 20
135.85
 10
87.45
 20
138.75
 10
88.75
 20
138.75
 10
88.75
 20
135.85
  0
LWPOLYLINE
  5
8D
100
AcDbEntity
  8
ASSEMBLY_OUTLINES_TOP
100
AcDbPolyline
 90
        4
 70
         1
 43
0.0
 10
77.8
 20
130.25
 10
77.8
 20
131.75
 10
78.6
 20
131.75
 10
78.6
 20
130.25
  0
LWPOLYLINE
  5
8E
100
AcDbEntity
  8
ASSEMBLY_OUTLINES_TOP
100
AcDbPolyline
 90
        4
 70
         1
 43
0.0
 10
77.95
 20
130.5
 10
77.95
 20
131.5
 10
78.45
 20
131.5
 10
78.45
 20
130.5
  0
LWPOLYLINE
  5
8F
100
AcDbEntity
  8
ASSEMBLY_OUTLINES_TOP
100
AcDbPolyline
 90
        4
 70
         1
 43
0.1
 10
63.05
 20
134.35
 10
63.05
 20
137.25
 10
64.35
 20
137.25
 10
64.35
 20
134.35
  0
LWPOLYLINE
  5
90
100
AcDbEntity
  8
ASSEMBLY_OUTLINES_TOP
100
AcDbPolyline
 90
        4
 70
         1
 43
0.0
 10
77.7
 20
138.35
 10
77.7
 20
139.85
 10
78.5
 20
139.85
 10
78.5
 20
138.35
  0
LWPOLYLINE
  5
91
100
AcDbEntity
  8
ASSEMBLY_OUTLINES_TOP
100
AcDbPolyline
 90
        4
 70
         1
 43
0.0
 10
77.85
 20
138.6
 10
77.85
 20
139.6
 10
78.35
 20
139.6
 10
78.35
 20
138.6
  0
LWPOLYLINE
  5
92
100
AcDbEntity
  8
ASSEMBLY_OUTLINES_TOP
100
AcDbPolyline
 90
        4
 70
         1
 43
0.0
 10
85.4
 20
131.25
 10
85.4
 20
132.75
 10
86.2
 20
132.75
 10
86.2
 20
131.25
  0
LWPOLYLINE
  5
93
100
AcDbEntity
  8
ASSEMBLY_OUTLINES_TOP
100
AcDbPolyline
 90
        4
 70
         1
 43
0.0
 10
85.55
 20
131.5
 10
85.55
 20
132.5
 10
86.05
 20
132.5
 10
86.05
 20
131.5
  0
LWPOLYLINE
  5
94
100
AcDbEntity
  8
ASSEMBLY_OUTLINES_TOP
100
AcDbPolyline
 90
        4
 70
         1
 43
0.0
 10
87.25
 20
128.9
 10
87.25
 20
129.7
 10
88.75
 20
129.7
 10
88.75
 20
128.9
  0
LWPOLYLINE
  5
95
100
AcDbEntity
  8
ASSEMBLY_OUTLINES_TOP
100
AcDbPolyline
 90
        4
 70
         1
 43
0.0
 10
87.5
 20
129.05
 10
87.5
 20
129.55
 10
88.5
 20
129.55
 10
88.5
 20
129.05
  0
LWPOLYLINE
  5
96
100
AcDbEntity
  8
ASSEMBLY_OUTLINES_TOP
100
AcDbPolyline
 90
        4
 70
         1
 43
0.1
 10
65.45
 20
131.45
 10
65.45
 20
134.35
 10
66.75
 20
134.35
 10
66.75
 20
131.45
  0
LWPOLYLINE
  5
97
100
AcDbEntity
  8
ASSEMBLY_OUTLINES_TOP
100
AcDbPolyline
 90
        4
 70
         1
 43
0.0
 10
61.85
 20
126.6
 10
61.85
 20
127.4
 10
63.35
 20
127.4
 10
63.35
 20
126.6
  0
LWPOLYLINE
  5
98
100
AcDbEntity
  8
ASSEMBLY_OUTLINES_TOP
100
AcDbPolyline
 90
        4
 70
         1
 43
0.0
 10
62.1
 20
126.75
 10
62.1
 20
127.25
 10
63.1
 20
127.25
 10
63.1
 20
126.75
  0
LWPOLYLINE
  5
99
100
AcDbEntity
  8
ASSEMBLY_OUTLINES_TOP
100
AcDbPolyline
 90
        4
 70
         1
 43
0.0
 10
86.55
 20
131.9
 10
86.55
 20
132.7
 10
88.05
 20
132.7
 10
88.05
 20
131.9
  0
LWPOLYLINE
  5
9A
100
AcDbEntity
  8
ASSEMBLY_OUTLINES_TOP
100
AcDbPolyline
 90
        4
 70
         1
 43
0.0
 10
86.8
 20
132.05
 10
86.8
 20
132.55
 10
87.8
 20
132.55
 10
87.8
 20
132.05
  0
LWPOLYLINE
  5
9B
100
AcDbEntity
  8
ASSEMBLY_OUTLINES_TOP
100
AcDbPolyline
 90
        4
 70
         1
 43
0.1
 10
66.85
 20
131.45
 10
66.85
 20
134.35
 10
68.15
 20
134.35
 10
68.15
 20
131.45
  0
LWPOLYLINE
  5
9C
100
AcDbEntity
  8
ASSEMBLY_OUTLINES_TOP
100
AcDbPolyline
 90
        4
 70
         1
 43
0.0
 10
62.15
 20
127.5
 10
62.15
 20
128.3
 10
63.65
 20
128.3
 10
63.65
 20
127.5
  0
LWPOLYLINE
  5
9D
100
AcDbEntity
  8
ASSEMBLY_OUTLINES_TOP
100
AcDbPolyline
 90
        4
 70
         1
 43
0.0
 10
62.4
 20
127.65
 10
62.4
 20
128.15
 10
63.4
 20
128.15
 10
63.4
 20
127.65
  0
LWPOLYLINE
  5
9E
100
AcDbEntity
  8
ASSEMBLY_OUTLINES_TOP
100
AcDbPolyline
 90
        4
 70
         1
 43
0.1
 10
87.45
 20
132.85
 10
87.45
 20
135.75
 10
88.75
 20
135.75
 10
88.75
 20
132.85
  0
LWPOLYLINE
  5
9F
100
AcDbEntity
  8
ASSEMBLY_OUTLINES_TOP
100
AcDbPolyline
 90
        4
 70
         1
 43
0.0
 10
81.15
 20
126.8
 10
81.15
 20
127.6
 10
82.65
 20
127.6
 10
82.65
 20
126.8
  0
LWPOLYLINE
  5
A0
100
AcDbEntity
  8
ASSEMBLY_OUTLINES_TOP
100
AcDbPolyline
 90
        4
 70
         1
 43
0.0
 10
81.4
 20
126.95
 10
81.4
 20
127.45
 10
82.4
 20
127.45
 10
82.4
 20
126.95
  0
LWPOLYLINE
  5
A1
100
AcDbEntity
  8
ASSEMBLY_OUTLINES_TOP
100
AcDbPolyline
 90
        4
 70
         1
 43
0.1
 10
70.45
 20
131.55
 10
70.45
 20
132.85
 10
73.35
 20
132.85
 10
73.35
 20
131.55
  0
LWPOLYLINE
  5
A2
100
AcDbEntity
  8
ASSEMBLY_OUTLINES_TOP
100
AcDbPolyline
 90
        4
 70
         1
 43
0.1
 10
83.85
 20
128.95
 10
83.85
 20
131.85
 10
85.15
 20
131.85
 10
85.15
 20
128.95
  0
LWPOLYLINE
  5
A3
100
AcDbEntity
  8
ASSEMBLY_OUTLINES_TOP
100
AcDbPolyline
 90
        4
 70
         1
 43
0.1
 10
71.15
 20
135.85
 10
71.15
 20
137.15
 10
74.05
 20
137.15
 10
74.05
 20
135.85
  0
LWPOLYLINE
  5
A4
100
AcDbEntity
  8
ASSEMBLY_OUTLINES_TOP
100
AcDbPolyline
 90
        4
 70
         1
 43
0.0
 10
81.15
 20
125.0
 10
81.15
 20
125.8
 10
82.65
 20
125.8
 10
82.65
 20
125.0
  0
LWPOLYLINE
  5
A5
100
AcDbEntity
  8
ASSEMBLY_OUTLINES_TOP
100
AcDbPolyline
 90
        4
 70
         1
 43
0.0
 10
81.4
 20
125.15
 10
81.4
 20
125.65
 10
82.4
 20
125.65
 10
82.4
 20
125.15
  0
LWPOLYLINE
  5
A6
100
AcDbEntity
  8
ASSEMBLY_OUTLINES_TOP
100
AcDbPolyline
 90
        4
 70
         1
 43
0.1
 10
84.525
 20
127.475
 10
84.525
 20
128.525
 10
87.675
 20
128.525
 10
87.675
 20
127.475
  0
LWPOLYLINE
  5
A7
100
AcDbEntity
  8
ASSEMBLY_OUTLINES_TOP
100
AcDbPolyline
 90
        2
 70
         0
 43
0.1
 10
87.675
 20
128.525
 10
87.675
 20
127.475
  0
LWPOLYLINE
  5
A8
100
AcDbEntity
  8
ASSEMBLY_OUTLINES_TOP
100
AcDbPolyline
 90
        2
 70
         0
 43
0.1
 10
87.575
 20
128.525
 10
87.575
 20
127.475
  0
LWPOLYLINE
  5
A9
100
AcDbEntity
  8
ASSEMBLY_OUTLINES_TOP
100
AcDbPolyline
 90
        2
 70
         0
 43
0.1
 10
87.475
 20
128.525
 10
87.475
 20
127.475
  0
LWPOLYLINE
  5
AA
100
AcDbEntity
  8
ASSEMBLY_OUTLINES_TOP
100
AcDbPolyline
 90
        2
 70
         0
 43
0.1
 10
87.375
 20
128.525
 10
87.375
 20
127.475
  0
LWPOLYLINE
  5
AB
100
AcDbEntity
  8
ASSEMBLY_OUTLINES_TOP
100
AcDbPolyline
 90
        2
 70
         0
 43
0.1
 10
87.275
 20
128.525
 10
87.275
 20
127.475
  0
LWPOLYLINE
  5
AC
100
AcDbEntity
  8
ASSEMBLY_OUTLINES_TOP
100
AcDbPolyline
 90
        2
 70
         0
 43
0.1
 10
87.175
 20
128.525
 10
87.175
 20
127.475
  0
LWPOLYLINE
  5
AD
100
AcDbEntity
  8
ASSEMBLY_OUTLINES_TOP
100
AcDbPolyline
 90
        2
 70
         0
 43
0.1
 10
87.075
 20
128.525
 10
87.075
 20
127.475
  0
LWPOLYLINE
  5
AE
100
AcDbEntity
  8
ASSEMBLY_OUTLINES_TOP
100
AcDbPolyline
 90
        2
 70
         0
 43
0.1
 10
86.975
 20
128.525
 10
86.975
 20
127.475
  0
LWPOLYLINE
  5
AF
100
AcDbEntity
  8
ASSEMBLY_OUTLINES_TOP
100
AcDbPolyline
 90
        4
 70
         1
 43
0.1
 10
85.55
 20
129.85
 10
85.55
 20
131.15
 10
88.45
 20
131.15
 10
88.45
 20
129.85
  0
LWPOLYLINE
  5
B0
100
AcDbEntity
  8
ASSEMBLY_OUTLINES_TOP
100
AcDbPolyline
 90
        4
 70
         1
 43
0.0
 10
85.6
 20
129.05
 10
85.6
 20
129.55
 10
86.6
 20
129.55
 10
86.6
 20
129.05
  0
LWPOLYLINE
  5
B1
100
AcDbEntity
  8
ASSEMBLY_OUTLINES_TOP
100
AcDbPolyline
 90
        4
 70
         1
 43
0.0
 10
85.35
 20
128.9
 10
85.35
 20
129.7
 10
86.85
 20
129.7
 10
86.85
 20
128.9
  0
LWPOLYLINE
  5
B2
100
AcDbEntity
  8
ASSEMBLY_OUTLINES_TOP
100
AcDbPolyline
 90
        4
 70
         1
 43
0.0
 10
81.35
 20
125.9
 10
81.35
 20
126.7
 10
82.85
 20
126.7
 10
82.85
 20
125.9
  0
LWPOLYLINE
  5
B3
100
AcDbEntity
  8
ASSEMBLY_OUTLINES_TOP
100
AcDbPolyline
 90
        4
 70
         1
 43
0.0
 10
81.6
 20
126.05
 10
81.6
 20
126.55
 10
82.6
 20
126.55
 10
82.6
 20
126.05
  0
LWPOLYLINE
  5
B4
100
AcDbEntity
  8
ASSEMBLY_OUTLINES_TOP
100
AcDbPolyline
 90
        4
 70
         1
 43
0.1
 10
84.2
 20
122.35
 10
84.2
 20
124.85
 10
87.4
 20
124.85
 10
87.4
 20
122.35
  0
LWPOLYLINE
  5
B5
100
AcDbEntity
  8
ASSEMBLY_OUTLINES_TOP
100
AcDbPolyline
 90
        2
 70
         0
 43
0.1
 10
84.2
 20
122.45
 10
84.3
 20
122.35
  0
LWPOLYLINE
  5
B6
100
AcDbEntity
  8
ASSEMBLY_OUTLINES_TOP
100
AcDbPolyline
 90
        2
 70
         0
 43
0.1
 10
84.2
 20
122.55
 10
84.4
 20
122.35
  0
LWPOLYLINE
  5
B7
100
AcDbEntity
  8
ASSEMBLY_OUTLINES_TOP
100
AcDbPolyline
 90
        2
 70
         0
 43
0.1
 10
84.2
 20
122.65
 10
84.5
 20
122.35
  0
LWPOLYLINE
  5
B8
100
AcDbEntity
  8
ASSEMBLY_OUTLINES_TOP
100
AcDbPolyline
 90
        2
 70
         0
 43
0.1
 10
84.2
 20
122.75
 10
84.6
 20
122.35
  0
LWPOLYLINE
  5
B9
100
AcDbEntity
  8
ASSEMBLY_OUTLINES_TOP
100
AcDbPolyline
 90
        2
 70
         0
 43
0.1
 10
84.2
 20
122.85
 10
84.7
 20
122.35
  0
LWPOLYLINE
  5
BA
100
AcDbEntity
  8
ASSEMBLY_OUTLINES_TOP
100
AcDbPolyline
 90
        2
 70
         0
 43
0.1
 10
84.2
 20
122.95
 10
84.8
 20
122.35
  0
LWPOLYLINE
  5
BB
100
AcDbEntity
  8
ASSEMBLY_OUTLINES_TOP
100
AcDbPolyline
 90
        2
 70
         0
 43
0.1
 10
84.2
 20
123.05
 10
84.9
 20
122.35
  0
LWPOLYLINE
  5
BC
100
AcDbEntity
  8
ASSEMBLY_OUTLINES_TOP
100
AcDbPolyline
 90
        2
 70
         0
 43
0.1
 10
84.2
 20
123.15
 10
85.0
 20
122.35
  0
LWPOLYLINE
  5
BD
100
AcDbEntity
  8
ASSEMBLY_OUTLINES_TOP
100
AcDbPolyline
 90
        2
 70
         0
 43
0.1
 10
84.2
 20
123.25
 10
85.1
 20
122.35
  0
LWPOLYLINE
  5
BE
100
AcDbEntity
  8
ASSEMBLY_OUTLINES_TOP
100
AcDbPolyline
 90
        2
 70
         0
 43
0.1
 10
84.2
 20
123.35
 10
85.2
 20
122.35
  0
LWPOLYLINE
  5
BF
100
AcDbEntity
  8
ASSEMBLY_OUTLINES_TOP
100
AcDbPolyline
 90
        4
 70
         1
 43
0.1
 10
59.95
 20
124.05
 10
59.95
 20
126.95
 10
61.25
 20
126.95
 10
61.25
 20
124.05
  0
LWPOLYLINE
  5
C0
100
AcDbEntity
  8
ASSEMBLY_OUTLINES_TOP
100
AcDbPolyline
 90
        4
 70
         1
 43
0.1
 10
83.1
 20
125.75
 10
83.1
 20
127.05
 10
85.9
 20
127.05
 10
85.9
 20
125.75
  0
LWPOLYLINE
  5
C1
100
AcDbEntity
  8
ASSEMBLY_OUTLINES_TOP
100
AcDbPolyline
 90
        4
 70
         1
 43
0.1
 10
59.95
 20
121.05
 10
59.95
 20
123.95
 10
61.25
 20
123.95
 10
61.25
 20
121.05
  0
LWPOLYLINE
  5
C2
100
AcDbEntity
  8
ASSEMBLY_OUTLINES_TOP
100
AcDbPolyline
 90
        4
 70
         1
 43
0.1
 10
85.9
 20
125.75
 10
85.9
 20
127.05
 10
88.7
 20
127.05
 10
88.7
 20
125.75
  0
LWPOLYLINE
  5
C3
100
AcDbEntity
  8
ASSEMBLY_OUTLINES_TOP
100
AcDbPolyline
 90
        4
 70
         1
 43
0.1
 10
86.25
 20
120.6
 10
86.25
 20
121.9
 10
89.15
 20
121.9
 10
89.15
 20
120.6
  0
LWPOLYLINE
  5
C4
100
AcDbEntity
  8
ASSEMBLY_OUTLINES_TOP
100
AcDbPolyline
 90
        4
 70
         1
 43
0.0
 10
61.85
 20
122.2
 10
61.85
 20
123.0
 10
63.35
 20
123.0
 10
63.35
 20
122.2
  0
LWPOLYLINE
  5
C5
100
AcDbEntity
  8
ASSEMBLY_OUTLINES_TOP
100
AcDbPolyline
 90
        4
 70
         1
 43
0.0
 10
62.1
 20
122.35
 10
62.1
 20
122.85
 10
63.1
 20
122.85
 10
63.1
 20
122.35
  0
LWPOLYLINE
  5
C6
100
AcDbEntity
  8
ASSEMBLY_OUTLINES_TOP
100
AcDbPolyline
 90
        4
 70
         1
 43
0.1
 10
87.9
 20
122.25
 10
87.9
 20
125.05
 10
89.2
 20
125.05
 10
89.2
 20
122.25
  0
LWPOLYLINE
  5
C7
100
AcDbEntity
  8
ASSEMBLY_OUTLINES_TOP
100
AcDbPolyline
 90
        4
 70
         1
 43
0.1
 10
78.6
 20
138.25
 10
78.6
 20
139.55
 10
81.4
 20
139.55
 10
81.4
 20
138.25
  0
LWPOLYLINE
  5
C8
100
AcDbEntity
  8
ASSEMBLY_OUTLINES_TOP
100
AcDbPolyline
 90
        4
 70
         1
 43
0.1
 10
87.05
 20
115.25
 10
87.05
 20
118.15
 10
88.35
 20
118.15
 10
88.35
 20
115.25
  0
LWPOLYLINE
  5
C9
100
AcDbEntity
  8
ASSEMBLY_OUTLINES_TOP
100
AcDbPolyline
 90
        4
 70
         1
 43
0.0
 10
81.15
 20
122.2
 10
81.15
 20
123.0
 10
82.65
 20
123.0
 10
82.65
 20
122.2
  0
LWPOLYLINE
  5
CA
100
AcDbEntity
  8
ASSEMBLY_OUTLINES_TOP
100
AcDbPolyline
 90
        4
 70
         1
 43
0.0
 10
81.4
 20
122.35
 10
81.4
 20
122.85
 10
82.4
 20
122.85
 10
82.4
 20
122.35
  0
LWPOLYLINE
  5
CB
100
AcDbEntity
  8
ASSEMBLY_OUTLINES_TOP
100
AcDbPolyline
 90
        4
 70
         1
 43
0.0
 10
62.15
 20
121.0
 10
62.15
 20
121.8
 10
63.65
 20
121.8
 10
63.65
 20
121.0
  0
LWPOLYLINE
  5
CC
100
AcDbEntity
  8
ASSEMBLY_OUTLINES_TOP
100
AcDbPolyline
 90
        4
 70
         1
 43
0.0
 10
62.4
 20
121.15
 10
62.4
 20
121.65
 10
63.4
 20
121.65
 10
63.4
 20
121.15
  0
LWPOLYLINE
  5
CD
100
AcDbEntity
  8
ASSEMBLY_OUTLINES_TOP
100
AcDbPolyline
 90
        4
 70
         1
 43
0.1
 10
60.65
 20
114.65
 10
60.65
 20
117.55
 10
61.95
 20
117.55
 10
61.95
 20
114.65
  0
LWPOLYLINE
  5
CE
100
AcDbEntity
  8
ASSEMBLY_OUTLINES_TOP
100
AcDbPolyline
 90
        4
 70
         1
 43
0.1
 10
83.3
 20
120.6
 10
83.3
 20
121.9
 10
86.1
 20
121.9
 10
86.1
 20
120.6
  0
LWPOLYLINE
  5
CF
100
AcDbEntity
  8
ASSEMBLY_OUTLINES_TOP
100
AcDbPolyline
 90
        4
 70
         1
 43
0.1
 10
60.65
 20
112.85
 10
60.65
 20
114.15
 10
63.55
 20
114.15
 10
63.55
 20
112.85
  0
LWPOLYLINE
  5
D0
100
AcDbEntity
  8
ASSEMBLY_OUTLINES_TOP
100
AcDbPolyline
 90
        4
 70
         1
 43
0.0
 10
61.85
 20
119.7
 10
61.85
 20
120.5
 10
63.35
 20
120.5
 10
63.35
 20
119.7
  0
LWPOLYLINE
  5
D1
100
AcDbEntity
  8
ASSEMBLY_OUTLINES_TOP
100
AcDbPolyline
 90
        4
 70
         1
 43
0.0
 10
62.1
 20
119.85
 10
62.1
 20
120.35
 10
63.1
 20
120.35
 10
63.1
 20
119.85
  0
LWPOLYLINE
  5
D2
100
AcDbEntity
  8
ASSEMBLY_OUTLINES_TOP
100
AcDbPolyline
 90
        4
 70
         1
 43
0.1
 10
77.65
 20
135.15
 10
77.65
 20
138.05
 10
78.95
 20
138.05
 10
78.95
 20
135.15
  0
LWPOLYLINE
  5
D3
100
AcDbEntity
  8
ASSEMBLY_OUTLINES_TOP
100
AcDbPolyline
 90
        4
 70
         1
 43
0.1
 10
60.45
 20
109.65
 10
60.45
 20
112.55
 10
61.75
 20
112.55
 10
61.75
 20
109.65
  0
LWPOLYLINE
  5
D4
100
AcDbEntity
  8
ASSEMBLY_OUTLINES_TOP
100
AcDbPolyline
 90
        4
 70
         1
 43
0.1
 10
81.25
 20
108.95
 10
81.25
 20
111.85
 10
82.55
 20
111.85
 10
82.55
 20
108.95
  0
LWPOLYLINE
  5
D5
100
AcDbEntity
  8
ASSEMBLY_OUTLINES_TOP
100
AcDbPolyline
 90
        4
 70
         1
 43
0.0
 10
87.3
 20
118.45
 10
87.3
 20
119.95
 10
88.1
 20
119.95
 10
88.1
 20
118.45
  0
LWPOLYLINE
  5
D6
100
AcDbEntity
  8
ASSEMBLY_OUTLINES_TOP
100
AcDbPolyline
 90
        4
 70
         1
 43
0.0
 10
87.45
 20
118.7
 10
87.45
 20
119.7
 10
87.95
 20
119.7
 10
87.95
 20
118.7
  0
LWPOLYLINE
  5
D7
100
AcDbEntity
  8
ASSEMBLY_OUTLINES_TOP
100
AcDbPolyline
 90
        4
 70
         1
 43
0.1
 10
79.75
 20
106.25
 10
79.75
 20
109.15
 10
81.05
 20
109.15
 10
81.05
 20
106.25
  0
LWPOLYLINE
  5
D8
100
AcDbEntity
  8
ASSEMBLY_OUTLINES_TOP
100
AcDbPolyline
 90
        4
 70
         1
 43
0.1
 10
79.75
 20
109.15
 10
79.75
 20
112.05
 10
81.05
 20
112.05
 10
81.05
 20
109.15
  0
LWPOLYLINE
  5
D9
100
AcDbEntity
  8
ASSEMBLY_OUTLINES_TOP
100
AcDbPolyline
 90
        4
 70
         1
 43
0.0
 10
62.15
 20
117.4
 10
62.15
 20
118.2
 10
63.65
 20
118.2
 10
63.65
 20
117.4
  0
LWPOLYLINE
  5
DA
100
AcDbEntity
  8
ASSEMBLY_OUTLINES_TOP
100
AcDbPolyline
 90
        4
 70
         1
 43
0.0
 10
62.4
 20
117.55
 10
62.4
 20
118.05
 10
63.4
 20
118.05
 10
63.4
 20
117.55
  0
LWPOLYLINE
  5
DB
100
AcDbEntity
  8
ASSEMBLY_OUTLINES_TOP
100
AcDbPolyline
 90
        4
 70
         1
 43
0.1
 10
59.65
 20
104.65
 10
59.65
 20
105.95
 10
62.55
 20
105.95
 10
62.55
 20
104.65
  0
LWPOLYLINE
  5
DC
100
AcDbEntity
  8
ASSEMBLY_OUTLINES_TOP
100
AcDbPolyline
 90
        4
 70
         1
 43
0.0
 10
62.15
 20
116.5
 10
62.15
 20
117.3
 10
63.65
 20
117.3
 10
63.65
 20
116.5
  0
LWPOLYLINE
  5
DD
100
AcDbEntity
  8
ASSEMBLY_OUTLINES_TOP
100
AcDbPolyline
 90
        4
 70
         1
 43
0.0
 10
62.4
 20
116.65
 10
62.4
 20
117.15
 10
63.4
 20
117.15
 10
63.4
 20
116.65
  0
LWPOLYLINE
  5
DE
100
AcDbEntity
  8
ASSEMBLY_OUTLINES_TOP
100
AcDbPolyline
 90
        4
 70
         1
 43
0.1
 10
79.75
 20
103.15
 10
79.75
 20
106.05
 10
81.05
 20
106.05
 10
81.05
 20
103.15
  0
LWPOLYLINE
  5
DF
100
AcDbEntity
  8
ASSEMBLY_OUTLINES_TOP
100
AcDbPolyline
 90
        4
 70
         1
 43
0.0
 10
62.15
 20
115.5
 10
62.15
 20
116.3
 10
63.65
 20
116.3
 10
63.65
 20
115.5
  0
LWPOLYLINE
  5
E0
100
AcDbEntity
  8
ASSEMBLY_OUTLINES_TOP
100
AcDbPolyline
 90
        4
 70
         1
 43
0.0
 10
62.4
 20
115.65
 10
62.4
 20
116.15
 10
63.4
 20
116.15
 10
63.4
 20
115.65
  0
LWPOLYLINE
  5
E1
100
AcDbEntity
  8
ASSEMBLY_OUTLINES_TOP
100
AcDbPolyline
 90
        4
 70
         1
 43
0.1
 10
81.25
 20
102.65
 10
81.25
 20
105.55
 10
82.55
 20
105.55
 10
82.55
 20
102.65
  0
LWPOLYLINE
  5
E2
100
AcDbEntity
  8
ASSEMBLY_OUTLINES_TOP
100
AcDbPolyline
 90
        4
 70
         1
 43
0.0
 10
62.05
 20
111.0
 10
62.05
 20
111.8
 10
63.55
 20
111.8
 10
63.55
 20
111.0
  0
LWPOLYLINE
  5
E3
100
AcDbEntity
  8
ASSEMBLY_OUTLINES_TOP
100
AcDbPolyline
 90
        4
 70
         1
 43
0.0
 10
62.3
 20
111.15
 10
62.3
 20
111.65
 10
63.3
 20
111.65
 10
63.3
 20
111.15
  0
LWPOLYLINE
  5
E4
100
AcDbEntity
  8
ASSEMBLY_OUTLINES_TOP
100
AcDbPolyline
 90
        4
 70
         1
 43
0.0
 10
83.55
 20
114.3
 10
83.55
 20
115.1
 10
85.05
 20
115.1
 10
85.05
 20
114.3
  0
LWPOLYLINE
  5
E5
100
AcDbEntity
  8
ASSEMBLY_OUTLINES_TOP
100
AcDbPolyline
 90
        4
 70
         1
 43
0.0
 10
83.8
 20
114.45
 10
83.8
 20
114.95
 10
84.8
 20
114.95
 10
84.8
 20
114.45
  0
LWPOLYLINE
  5
E6
100
AcDbEntity
  8
ASSEMBLY_OUTLINES_TOP
100
AcDbPolyline
 90
        4
 70
         1
 43
0.1
 10
82.75
 20
101.45
 10
82.75
 20
104.35
 10
84.05
 20
104.35
 10
84.05
 20
101.45
  0
LWPOLYLINE
  5
E7
100
AcDbEntity
  8
ASSEMBLY_OUTLINES_TOP
100
AcDbPolyline
 90
        4
 70
         1
 43
0.0
 10
62.05
 20
110.1
 10
62.05
 20
110.9
 10
63.55
 20
110.9
 10
63.55
 20
110.1
  0
LWPOLYLINE
  5
E8
100
AcDbEntity
  8
ASSEMBLY_OUTLINES_TOP
100
AcDbPolyline
 90
        4
 70
         1
 43
0.0
 10
62.3
 20
110.25
 10
62.3
 20
110.75
 10
63.3
 20
110.75
 10
63.3
 20
110.25
  0
LWPOLYLINE
  5
E9
100
AcDbEntity
  8
ASSEMBLY_OUTLINES_TOP
100
AcDbPolyline
 90
        4
 70
         1
 43
0.0
 10
62.05
 20
111.9
 10
62.05
 20
112.7
 10
63.55
 20
112.7
 10
63.55
 20
111.9
  0
LWPOLYLINE
  5
EA
100
AcDbEntity
  8
ASSEMBLY_OUTLINES_TOP
100
AcDbPolyline
 90
        4
 70
         1
 43
0.0
 10
62.3
 20
112.05
 10
62.3
 20
112.55
 10
63.3
 20
112.55
 10
63.3
 20
112.05
  0
LWPOLYLINE
  5
EB
100
AcDbEntity
  8
ASSEMBLY_OUTLINES_TOP
100
AcDbPolyline
 90
        4
 70
         1
 43
0.1
 10
79.85
 20
98.65
 10
79.85
 20
101.55
 10
81.15
 20
101.55
 10
81.15
 20
98.65
  0
LWPOLYLINE
  5
EC
100
AcDbEntity
  8
ASSEMBLY_OUTLINES_TOP
100
AcDbPolyline
 90
        4
 70
         1
 43
0.0
 10
64.95
 20
111.7
 10
64.95
 20
112.5
 10
66.45
 20
112.5
 10
66.45
 20
111.7
  0
LWPOLYLINE
  5
ED
100
AcDbEntity
  8
ASSEMBLY_OUTLINES_TOP
100
AcDbPolyline
 90
        4
 70
         1
 43
0.0
 10
65.2
 20
111.85
 10
65.2
 20
112.35
 10
66.2
 20
112.35
 10
66.2
 20
111.85
  0
LWPOLYLINE
  5
EE
100
AcDbEntity
  8
ASSEMBLY_OUTLINES_TOP
100
AcDbPolyline
 90
        4
 70
         1
 43
0.1
 10
82.75
 20
98.55
 10
82.75
 20
101.45
 10
84.05
 20
101.45
 10
84.05
 20
98.55
  0
LWPOLYLINE
  5
EF
100
AcDbEntity
  8
ASSEMBLY_OUTLINES_TOP
100
AcDbPolyline
 90
        4
 70
         1
 43
0.0
 10
69.8
 20
110.95
 10
69.8
 20
112.45
 10
70.6
 20
112.45
 10
70.6
 20
110.95
  0
LWPOLYLINE
  5
F0
100
AcDbEntity
  8
ASSEMBLY_OUTLINES_TOP
100
AcDbPolyline
 90
        4
 70
         1
 43
0.0
 10
69.95
 20
111.2
 10
69.95
 20
112.2
 10
70.45
 20
112.2
 10
70.45
 20
111.2
  0
LWPOLYLINE
  5
F1
100
AcDbEntity
  8
ASSEMBLY_OUTLINES_TOP
100
AcDbPolyline
 90
        4
 70
         1
 43
0.1
 10
81.25
 20
105.65
 10
81.25
 20
108.55
 10
82.55
 20
108.55
 10
82.55
 20
105.65
  0
LWPOLYLINE
  5
F2
100
AcDbEntity
  8
ASSEMBLY_OUTLINES_TOP
100
AcDbPolyline
 90
        4
 70
         1
 43
0.0
 10
73.0
 20
110.95
 10
73.0
 20
112.45
 10
73.8
 20
112.45
 10
73.8
 20
110.95
  0
LWPOLYLINE
  5
F3
100
AcDbEntity
  8
ASSEMBLY_OUTLINES_TOP
100
AcDbPolyline
 90
        4
 70
         1
 43
0.0
 10
73.15
 20
111.2
 10
73.15
 20
112.2
 10
73.65
 20
112.2
 10
73.65
 20
111.2
  0
LWPOLYLINE
  5
F4
100
AcDbEntity
  8
ASSEMBLY_OUTLINES_TOP
100
AcDbPolyline
 90
        4
 70
         1
 43
0.0
 10
73.9
 20
110.95
 10
73.9
 20
112.45
 10
74.7
 20
112.45
 10
74.7
 20
110.95
  0
LWPOLYLINE
  5
F5
100
AcDbEntity
  8
ASSEMBLY_OUTLINES_TOP
100
AcDbPolyline
 90
        4
 70
         1
 43
0.0
 10
74.05
 20
111.2
 10
74.05
 20
112.2
 10
74.55
 20
112.2
 10
74.55
 20
111.2
  0
LWPOLYLINE
  5
F6
100
AcDbEntity
  8
ASSEMBLY_OUTLINES_TOP
100
AcDbPolyline
 90
        4
 70
         1
 43
0.0
 10
75.3
 20
110.95
 10
75.3
 20
112.45
 10
76.1
 20
112.45
 10
76.1
 20
110.95
  0
LWPOLYLINE
  5
F7
100
AcDbEntity
  8
ASSEMBLY_OUTLINES_TOP
100
AcDbPolyline
 90
        4
 70
         1
 43
0.0
 10
75.45
 20
111.2
 10
75.45
 20
112.2
 10
75.95
 20
112.2
 10
75.95
 20
111.2
  0
LWPOLYLINE
  5
F8
100
AcDbEntity
  8
ASSEMBLY_OUTLINES_TOP
100
AcDbPolyline
 90
        4
 70
         1
 43
0.0
 10
76.2
 20
110.95
 10
76.2
 20
112.45
 10
77.0
 20
112.45
 10
77.0
 20
110.95
  0
LWPOLYLINE
  5
F9
100
AcDbEntity
  8
ASSEMBLY_OUTLINES_TOP
100
AcDbPolyline
 90
        4
 70
         1
 43
0.0
 10
76.35
 20
111.2
 10
76.35
 20
112.2
 10
76.85
 20
112.2
 10
76.85
 20
111.2
  0
LWPOLYLINE
  5
FA
100
AcDbEntity
  8
ASSEMBLY_OUTLINES_TOP
100
AcDbPolyline
 90
        4
 70
         1
 43
0.0
 10
78.2
 20
110.95
 10
78.2
 20
112.45
 10
79.0
 20
112.45
 10
79.0
 20
110.95
  0
LWPOLYLINE
  5
FB
100
AcDbEntity
  8
ASSEMBLY_OUTLINES_TOP
100
AcDbPolyline
 90
        4
 70
         1
 43
0.0
 10
78.35
 20
111.2
 10
78.35
 20
112.2
 10
78.85
 20
112.2
 10
78.85
 20
111.2
  0
LWPOLYLINE
  5
FC
100
AcDbEntity
  8
ASSEMBLY_OUTLINES_TOP
100
AcDbPolyline
 90
        4
 70
         1
 43
0.0
 10
64.45
 20
105.7
 10
64.45
 20
106.5
 10
65.95
 20
106.5
 10
65.95
 20
105.7
  0
LWPOLYLINE
  5
FD
100
AcDbEntity
  8
ASSEMBLY_OUTLINES_TOP
100
AcDbPolyline
 90
        4
 70
         1
 43
0.0
 10
64.7
 20
105.85
 10
64.7
 20
106.35
 10
65.7
 20
106.35
 10
65.7
 20
105.85
  0
LWPOLYLINE
  5
FE
100
AcDbEntity
  8
ASSEMBLY_OUTLINES_TOP
100
AcDbPolyline
 90
        4
 70
         1
 43
0.0
 10
79.8
 20
101.55
 10
79.8
 20
103.05
 10
80.6
 20
103.05
 10
80.6
 20
101.55
  0
LWPOLYLINE
  5
FF
100
AcDbEntity
  8
ASSEMBLY_OUTLINES_TOP
100
AcDbPolyline
 90
        4
 70
         1
 43
0.0
 10
79.95
 20
101.8
 10
79.95
 20
102.8
 10
80.45
 20
102.8
 10
80.45
 20
101.8
  0
LWPOLYLINE
  5
100
100
AcDbEntity
  8
ASSEMBLY_OUTLINES_TOP
100
AcDbPolyline
 90
        4
 70
         1
 43
0.0
 10
64.45
 20
106.6
 10
64.45
 20
107.4
 10
65.95
 20
107.4
 10
65.95
 20
106.6
  0
LWPOLYLINE
  5
101
100
AcDbEntity
  8
ASSEMBLY_OUTLINES_TOP
100
AcDbPolyline
 90
        4
 70
         1
 43
0.0
 10
64.7
 20
106.75
 10
64.7
 20
107.25
 10
65.7
 20
107.25
 10
65.7
 20
106.75
  0
TEXT
  5
102
100
AcDbEntity
  8
ASSEMBLY_REF_DES_TOP
100
AcDbText
 10
81.7985
 20
138.05
 30
0.0
 40
1.500000
 41
1.000000
  1
DA1
  7
VERIBEST_GERBER_0
 72
 1
 11
83.9
 21
138.8
 31
0.0
100
AcDbText
 73
 2
  0
TEXT
  5
103
100
AcDbEntity
  8
ASSEMBLY_REF_DES_TOP
100
AcDbText
 10
66.896685
 20
136.913175
 30
0.0
 40
1.000000
 41
1.000000
  1
DD1
  7
ISOCPEUR
 72
 1
 11
67.864185
 21
137.373675
 31
0.0
100
AcDbText
 73
 2
  0
TEXT
  5
104
100
AcDbEntity
  8
ASSEMBLY_REF_DES_TOP
100
AcDbText
 10
71.277
 20
120.7065
 30
0.0
 40
1.000000
 41
1.000000
  1
DD2
  7
GOST_TYPE_B
 72
 1
 11
72.4
 21
121.2
 31
0.0
100
AcDbText
 73
 2
  0
TEXT
  5
105
100
AcDbEntity
  8
ASSEMBLY_REF_DES_TOP
100
AcDbText
 10
83.47375
 20
108.65
 30
0.0
 40
1.500000
 41
1.000000
  1
DD3
  7
VERIBEST_GERBER_0
 72
 1
 11
85.6
 21
109.4
 31
0.0
100
AcDbText
 73
 2
  0
TEXT
  5
106
100
AcDbEntity
  8
ASSEMBLY_REF_DES_TOP
100
AcDbText
 10
72.5365
 20
105.743
 30
0.0
 40
1.000000
 41
1.000000
  1
DD4
  50
270.0
  7
GOST_TYPE_B
 72
 1
 11
73.03
 21
104.57
 31
0.0
100
AcDbText
 73
 2
  0
TEXT
  5
107
100
AcDbEntity
  8
ASSEMBLY_REF_DES_TOP
100
AcDbText
 10
85.3482
 20
146.35455
 30
0.0
 40
0.700000
 41
1.000000
  1
VD1
  7
GOST_TYPE_B
 72
 1
 11
86.1
 21
146.7
 31
0.0
100
AcDbText
 73
 2
  0
TEXT
  5
108
100
AcDbEntity
  8
ASSEMBLY_REF_DES_TOP
100
AcDbText
 10
81.75455
 20
131.12075
 30
0.0
 40
0.700000
 41
1.000000
  1
VD2
  50
270.0
  7
GOST_TYPE_B
 72
 1
 11
82.1
 21
130.3
 31
0.0
100
AcDbText
 73
 2
  0
TEXT
  5
109
100
AcDbEntity
  8
ASSEMBLY_REF_DES_TOP
100
AcDbText
 10
66.6898
 20
144.95455
 30
0.0
 40
0.700000
 41
1.000000
  1
C1
  7
GOST_TYPE_B
 72
 1
 11
67.1
 21
145.3
 31
0.0
100
AcDbText
 73
 2
  0
TEXT
  5
10A
100
AcDbEntity
  8
ASSEMBLY_REF_DES_TOP
100
AcDbText
 10
81.4
 20
103.95
 30
0.0
 40
1.000000
 41
1.000000
  1
J1
  50
270.0
  7
VERIBEST_GERBER_0
 11
82.4
 21
103.95
 31
0.0
100
AcDbText
 73
 3
  0
TEXT
  5
10B
100
AcDbEntity
  8
ASSEMBLY_REF_DES_TOP
100
AcDbText
 10
84.6065
 20
143.686
 30
0.0
 40
1.000000
 41
1.000000
  1
L1
  50
270.0
  7
GOST_TYPE_B
 72
 1
 11
85.1
 21
143.1
 31
0.0
100
AcDbText
 73
 2
  0
TEXT
  5
10C
100
AcDbEntity
  8
ASSEMBLY_REF_DES_TOP
100
AcDbText
 10
87.80455
 20
143.4945
 30
0.0
 40
0.700000
 41
1.000000
  1
R1
  50
270.0
  7
GOST_TYPE_B
 72
 1
 11
88.15
 21
143.05
 31
0.0
100
AcDbText
 73
 2
  0
TEXT
  5
10D
100
AcDbEntity
  8
ASSEMBLY_REF_DES_TOP
100
AcDbText
 10
72.4665
 20
147.4065
 30
0.0
 40
1.000000
 41
1.000000
  1
X1
  7
GOST_TYPE_B
 72
 1
 11
73.15
 21
147.9
 31
0.0
100
AcDbText
 73
 2
  0
TEXT
  5
10E
100
AcDbEntity
  8
ASSEMBLY_REF_DES_TOP
100
AcDbText
 10
87.528
 20
144.93725
 30
0.0
 40
0.500000
 41
1.000000
  1
C2
  7
GOST_TYPE_B
 72
 1
 11
87.87
 21
145.184
 31
0.0
100
AcDbText
 73
 2
  0
TEXT
  5
10F
100
AcDbEntity
  8
ASSEMBLY_REF_DES_TOP
100
AcDbText
 10
79.616
 20
140.0065
 30
0.0
 40
1.000000
 41
1.000000
  1
L2
  7
GOST_TYPE_B
 72
 1
 11
80.3
 21
140.5
 31
0.0
100
AcDbText
 73
 2
  0
TEXT
  5
110
100
AcDbEntity
  8
ASSEMBLY_REF_DES_TOP
100
AcDbText
 10
69.50455
 20
142.1631
 30
0.0
 40
0.700000
 41
1.000000
  1
R2
  50
270.0
  7
GOST_TYPE_B
 72
 1
 11
69.85
 21
141.65
 31
0.0
100
AcDbText
 73
 2
  0
TEXT
  5
111
100
AcDbEntity
  8
ASSEMBLY_REF_DES_TOP
100
AcDbText
 10
81.75455
 20
143.1788
 30
0.0
 40
0.700000
 41
1.000000
  1
C3
  50
270.0
  7
GOST_TYPE_B
 72
 1
 11
82.1
 21
142.7
 31
0.0
100
AcDbText
 73
 2
  0
TEXT
  5
112
100
AcDbEntity
  8
ASSEMBLY_REF_DES_TOP
100
AcDbText
 10
84.552699
 20
135.348637
 30
0.0
 40
1.000000
 41
1.000000
  1
L3
  50
270.0
  7
GOST_TYPE_B
 72
 1
 11
85.046199
 21
134.664637
 31
0.0
100
AcDbText
 73
 2
  0
TEXT
  5
113
100
AcDbEntity
  8
ASSEMBLY_REF_DES_TOP
100
AcDbText
 10
70.90455
 20
142.1631
 30
0.0
 40
0.700000
 41
1.000000
  1
R3
  50
270.0
  7
GOST_TYPE_B
 72
 1
 11
71.25
 21
141.65
 31
0.0
100
AcDbText
 73
 2
  0
TEXT
  5
114
100
AcDbEntity
  8
ASSEMBLY_REF_DES_TOP
100
AcDbText
 10
83.15455
 20
143.2131
 30
0.0
 40
0.700000
 41
1.000000
  1
C4
  50
270.0
  7
GOST_TYPE_B
 72
 1
 11
83.5
 21
142.7
 31
0.0
100
AcDbText
 73
 2
  0
TEXT
  5
115
100
AcDbEntity
  8
ASSEMBLY_REF_DES_TOP
100
AcDbText
 10
72.0033
 20
138.90455
 30
0.0
 40
0.700000
 41
1.000000
  1
R4
  7
GOST_TYPE_B
 72
 1
 11
72.55
 21
139.25
 31
0.0
100
AcDbText
 73
 2
  0
TEXT
  5
116
100
AcDbEntity
  8
ASSEMBLY_REF_DES_TOP
100
AcDbText
 10
86.35455
 20
143.5788
 30
0.0
 40
0.700000
 41
1.000000
  1
C5
  50
270.0
  7
GOST_TYPE_B
 72
 1
 11
86.7
 21
143.1
 31
0.0
100
AcDbText
 73
 2
  0
TEXT
  5
117
100
AcDbEntity
  8
ASSEMBLY_REF_DES_TOP
100
AcDbText
 10
86.30455
 20
140.7631
 30
0.0
 40
0.700000
 41
1.000000
  1
R5
  50
270.0
  7
GOST_TYPE_B
 72
 1
 11
86.65
 21
140.25
 31
0.0
100
AcDbText
 73
 2
  0
TEXT
  5
118
100
AcDbEntity
  8
ASSEMBLY_REF_DES_TOP
100
AcDbText
 10
66.15455
 20
142.1788
 30
0.0
 40
0.700000
 41
1.000000
  1
C6
  50
270.0
  7
GOST_TYPE_B
 72
 1
 11
66.5
 21
141.7
 31
0.0
100
AcDbText
 73
 2
  0
TEXT
  5
119
100
AcDbEntity
  8
ASSEMBLY_REF_DES_TOP
100
AcDbText
 10
87.70455
 20
140.8631
 30
0.0
 40
0.700000
 41
1.000000
  1
R6
  50
270.0
  7
GOST_TYPE_B
 72
 1
 11
88.05
 21
140.35
 31
0.0
100
AcDbText
 73
 2
  0
TEXT
  5
11A
100
AcDbEntity
  8
ASSEMBLY_REF_DES_TOP
100
AcDbText
 10
83.05455
 20
135.4496
 30
0.0
 40
0.700000
 41
1.000000
  1
C10
  50
270.0
  7
GOST_TYPE_B
 72
 1
 11
83.4
 21
134.8
 31
0.0
100
AcDbText
 73
 2
  0
TEXT
  5
11B
100
AcDbEntity
  8
ASSEMBLY_REF_DES_TOP
100
AcDbText
 10
67.75455
 20
142.1788
 30
0.0
 40
0.700000
 41
1.000000
  1
C7
  50
270.0
  7
GOST_TYPE_B
 72
 1
 11
68.1
 21
141.7
 31
0.0
100
AcDbText
 73
 2
  0
TEXT
  5
11C
100
AcDbEntity
  8
ASSEMBLY_REF_DES_TOP
100
AcDbText
 10
68.33725
 20
133.645
 30
0.0
 40
0.500000
 41
1.000000
  1
C11
  50
270.0
  7
GOST_TYPE_B
 72
 1
 11
68.584
 21
133.23
 31
0.0
100
AcDbText
 73
 2
  0
TEXT
  5
11D
100
AcDbEntity
  8
ASSEMBLY_REF_DES_TOP
100
AcDbText
 10
86.35455
 20
134.9496
 30
0.0
 40
0.700000
 41
1.000000
  1
C12
  50
270.0
  7
GOST_TYPE_B
 72
 1
 11
86.7
 21
134.3
 31
0.0
100
AcDbText
 73
 2
  0
TEXT
  5
11E
100
AcDbEntity
  8
ASSEMBLY_REF_DES_TOP
100
AcDbText
 10
70.56925
 20
131.134
 30
0.0
 40
0.500000
 41
1.000000
  1
C13
  50
270.0
  7
GOST_TYPE_B
 72
 1
 11
70.816
 21
130.67
 31
0.0
100
AcDbText
 73
 2
  0
TEXT
  5
11F
100
AcDbEntity
  8
ASSEMBLY_REF_DES_TOP
100
AcDbText
 10
79.40455
 20
137.2339
 30
0.0
 40
0.700000
 41
1.000000
  1
R10
  50
270.0
  7
GOST_TYPE_B
 72
 1
 11
79.75
 21
136.55
 31
0.0
100
AcDbText
 73
 2
  0
TEXT
  5
120
100
AcDbEntity
  8
ASSEMBLY_REF_DES_TOP
100
AcDbText
 10
72.03725
 20
137.50455
 30
0.0
 40
0.700000
 41
1.000000
  1
R7
  7
GOST_TYPE_B
 72
 1
 11
72.55
 21
137.85
 31
0.0
100
AcDbText
 73
 2
  0
TEXT
  5
121
100
AcDbEntity
  8
ASSEMBLY_REF_DES_TOP
100
AcDbText
 10
71.46925
 20
131.1585
 30
0.0
 40
0.500000
 41
1.000000
  1
C14
  50
270.0
  7
GOST_TYPE_B
 72
 1
 11
71.716
 21
130.67
 31
0.0
100
AcDbText
 73
 2
  0
TEXT
  5
122
100
AcDbEntity
  8
ASSEMBLY_REF_DES_TOP
100
AcDbText
 10
80.70455
 20
137.2653
 30
0.0
 40
0.700000
 41
1.000000
  1
R11
  50
270.0
  7
GOST_TYPE_B
 72
 1
 11
81.05
 21
136.65
 31
0.0
100
AcDbText
 73
 2
  0
TEXT
  5
123
100
AcDbEntity
  8
ASSEMBLY_REF_DES_TOP
100
AcDbText
 10
72.36925
 20
131.134
 30
0.0
 40
0.500000
 41
1.000000
  1
C15
  50
270.0
  7
GOST_TYPE_B
 72
 1
 11
72.616
 21
130.67
 31
0.0
100
AcDbText
 73
 2
  0
TEXT
  5
124
100
AcDbEntity
  8
ASSEMBLY_REF_DES_TOP
100
AcDbText
 10
86.40455
 20
137.9339
 30
0.0
 40
0.700000
 41
1.000000
  1
R12
  50
270.0
  7
GOST_TYPE_B
 72
 1
 11
86.75
 21
137.25
 31
0.0
100
AcDbText
 73
 2
  0
TEXT
  5
125
100
AcDbEntity
  8
ASSEMBLY_REF_DES_TOP
100
AcDbText
 10
73.36925
 20
131.134
 30
0.0
 40
0.500000
 41
1.000000
  1
C16
  50
270.0
  7
GOST_TYPE_B
 72
 1
 11
73.616
 21
130.67
 31
0.0
100
AcDbText
 73
 2
  0
TEXT
  5
126
100
AcDbEntity
  8
ASSEMBLY_REF_DES_TOP
100
AcDbText
 10
87.70455
 20
138.0339
 30
0.0
 40
0.700000
 41
1.000000
  1
R13
  50
270.0
  7
GOST_TYPE_B
 72
 1
 11
88.05
 21
137.35
 31
0.0
100
AcDbText
 73
 2
  0
TEXT
  5
127
100
AcDbEntity
  8
ASSEMBLY_REF_DES_TOP
100
AcDbText
 10
77.96925
 20
131.434
 30
0.0
 40
0.500000
 41
1.000000
  1
C17
  50
270.0
  7
GOST_TYPE_B
 72
 1
 11
78.216
 21
130.97
 31
0.0
100
AcDbText
 73
 2
  0
TEXT
  5
128
100
AcDbEntity
  8
ASSEMBLY_REF_DES_TOP
100
AcDbText
 10
63.30455
 20
136.5682
 30
0.0
 40
0.700000
 41
1.000000
  1
R14
  50
270.0
  7
GOST_TYPE_B
 72
 1
 11
63.65
 21
135.85
 31
0.0
100
AcDbText
 73
 2
  0
TEXT
  5
129
100
AcDbEntity
  8
ASSEMBLY_REF_DES_TOP
100
AcDbText
 10
77.83725
 20
139.4965
 30
0.0
 40
0.500000
 41
1.000000
  1
C8
  50
270.0
  7
GOST_TYPE_B
 72
 1
 11
78.084
 21
139.13
 31
0.0
100
AcDbText
 73
 2
  0
TEXT
  5
12A
100
AcDbEntity
  8
ASSEMBLY_REF_DES_TOP
100
AcDbText
 10
85.45455
 20
132.6839
 30
0.0
 40
0.700000
 41
1.000000
  1
C18
  50
270.0
  7
GOST_TYPE_B
 72
 1
 11
85.8
 21
132.0
 31
0.0
100
AcDbText
 73
 2
  0
TEXT
  5
12B
100
AcDbEntity
  8
ASSEMBLY_REF_DES_TOP
100
AcDbText
 10
87.2818
 20
128.95455
 30
0.0
 40
0.700000
 41
1.000000
  1
C20
  7
GOST_TYPE_B
 72
 1
 11
88.0
 21
129.3
 31
0.0
100
AcDbText
 73
 2
  0
TEXT
  5
12C
100
AcDbEntity
  8
ASSEMBLY_REF_DES_TOP
100
AcDbText
 10
65.70455
 20
133.6339
 30
0.0
 40
0.700000
 41
1.000000
  1
R15
  50
270.0
  7
GOST_TYPE_B
 72
 1
 11
66.05
 21
132.95
 31
0.0
100
AcDbText
 73
 2
  0
TEXT
  5
12D
100
AcDbEntity
  8
ASSEMBLY_REF_DES_TOP
100
AcDbText
 10
62.166
 20
126.76925
 30
0.0
 40
0.500000
 41
1.000000
  1
C21
  7
GOST_TYPE_B
 72
 1
 11
62.63
 21
127.016
 31
0.0
100
AcDbText
 73
 2
  0
TEXT
  5
12E
100
AcDbEntity
  8
ASSEMBLY_REF_DES_TOP
100
AcDbText
 10
86.806
 20
132.03725
 30
0.0
 40
0.500000
 41
1.000000
  1
C19
  7
GOST_TYPE_B
 72
 1
 11
87.27
 21
132.284
 31
0.0
100
AcDbText
 73
 2
  0
TEXT
  5
12F
100
AcDbEntity
  8
ASSEMBLY_REF_DES_TOP
100
AcDbText
 10
67.10455
 20
133.6339
 30
0.0
 40
0.700000
 41
1.000000
  1
R16
  50
270.0
  7
GOST_TYPE_B
 72
 1
 11
67.45
 21
132.95
 31
0.0
100
AcDbText
 73
 2
  0
TEXT
  5
130
100
AcDbEntity
  8
ASSEMBLY_REF_DES_TOP
100
AcDbText
 10
62.417
 20
127.66925
 30
0.0
 40
0.500000
 41
1.000000
  1
C22
  7
GOST_TYPE_B
 72
 1
 11
62.93
 21
127.916
 31
0.0
100
AcDbText
 73
 2
  0
TEXT
  5
131
100
AcDbEntity
  8
ASSEMBLY_REF_DES_TOP
100
AcDbText
 10
87.70455
 20
135.0339
 30
0.0
 40
0.700000
 41
1.000000
  1
R17
  50
270.0
  7
GOST_TYPE_B
 72
 1
 11
88.05
 21
134.35
 31
0.0
100
AcDbText
 73
 2
  0
TEXT
  5
132
100
AcDbEntity
  8
ASSEMBLY_REF_DES_TOP
100
AcDbText
 10
81.357
 20
126.93725
 30
0.0
 40
0.500000
 41
1.000000
  1
C23
  7
GOST_TYPE_B
 72
 1
 11
81.87
 21
127.184
 31
0.0
100
AcDbText
 73
 2
  0
TEXT
  5
133
100
AcDbEntity
  8
ASSEMBLY_REF_DES_TOP
100
AcDbText
 10
71.1325
 20
131.80455
 30
0.0
 40
0.700000
 41
1.000000
  1
R18
  7
GOST_TYPE_B
 72
 1
 11
71.85
 21
132.15
 31
0.0
100
AcDbText
 73
 2
  0
TEXT
  5
134
100
AcDbEntity
  8
ASSEMBLY_REF_DES_TOP
100
AcDbText
 10
84.20455
 20
131.1025
 30
0.0
 40
0.700000
 41
1.000000
  1
R20
  50
270.0
  7
GOST_TYPE_B
 72
 1
 11
84.55
 21
130.35
 31
0.0
100
AcDbText
 73
 2
  0
TEXT
  5
135
100
AcDbEntity
  8
ASSEMBLY_REF_DES_TOP
100
AcDbText
 10
72.0033
 20
136.10455
 30
0.0
 40
0.700000
 41
1.000000
  1
R8
  7
GOST_TYPE_B
 72
 1
 11
72.55
 21
136.45
 31
0.0
100
AcDbText
 73
 2
  0
TEXT
  5
136
100
AcDbEntity
  8
ASSEMBLY_REF_DES_TOP
100
AcDbText
 10
81.33275
 20
125.13725
 30
0.0
 40
0.500000
 41
1.000000
  1
C24
  7
GOST_TYPE_B
 72
 1
 11
81.87
 21
125.384
 31
0.0
100
AcDbText
 73
 2
  0
TEXT
  5
137
100
AcDbEntity
  8
ASSEMBLY_REF_DES_TOP
100
AcDbText
 10
85.3139
 20
127.65455
 30
0.0
 40
0.700000
 41
1.000000
  1
ZQ1
  7
GOST_TYPE_B
 72
 1
 11
86.1
 21
128.0
 31
0.0
100
AcDbText
 73
 2
  0
TEXT
  5
138
100
AcDbEntity
  8
ASSEMBLY_REF_DES_TOP
100
AcDbText
 10
86.26645
 20
130.10455
 30
0.0
 40
0.700000
 41
1.000000
  1
R19
  7
GOST_TYPE_B
 72
 1
 11
86.95
 21
130.45
 31
0.0
100
AcDbText
 73
 2
  0
TEXT
  5
139
100
AcDbEntity
  8
ASSEMBLY_REF_DES_TOP
100
AcDbText
 10
85.64175
 20
129.06925
 30
0.0
 40
0.500000
 41
1.000000
  1
R21
  7
GOST_TYPE_B
 72
 1
 11
86.13
 21
129.316
 31
0.0
100
AcDbText
 73
 2
  0
TEXT
  5
13A
100
AcDbEntity
  8
ASSEMBLY_REF_DES_TOP
100
AcDbText
 10
81.557
 20
126.03725
 30
0.0
 40
0.500000
 41
1.000000
  1
C25
  7
GOST_TYPE_B
 72
 1
 11
82.07
 21
126.284
 31
0.0
100
AcDbText
 73
 2
  0
TEXT
  5
13B
100
AcDbEntity
  8
ASSEMBLY_REF_DES_TOP
100
AcDbText
 10
85.428912
 20
124.544512
 30
0.0
 40
0.700000
 41
1.000000
  1
ZQ2
  50
270.0
  7
GOST_TYPE_B
 72
 1
 11
85.774362
 21
123.689812
 31
0.0
100
AcDbText
 73
 2
  0
TEXT
  5
13C
100
AcDbEntity
  8
ASSEMBLY_REF_DES_TOP
100
AcDbText
 10
60.30455
 20
126.2025
 30
0.0
 40
0.700000
 41
1.000000
  1
R22
  50
270.0
  7
GOST_TYPE_B
 72
 1
 11
60.65
 21
125.45
 31
0.0
100
AcDbText
 73
 2
  0
TEXT
  5
13D
100
AcDbEntity
  8
ASSEMBLY_REF_DES_TOP
100
AcDbText
 10
83.7818
 20
126.05455
 30
0.0
 40
0.700000
 41
1.000000
  1
C26
  7
GOST_TYPE_B
 72
 1
 11
84.5
 21
126.4
 31
0.0
100
AcDbText
 73
 2
  0
TEXT
  5
13E
100
AcDbEntity
  8
ASSEMBLY_REF_DES_TOP
100
AcDbText
 10
60.30455
 20
123.2025
 30
0.0
 40
0.700000
 41
1.000000
  1
R23
  50
270.0
  7
GOST_TYPE_B
 72
 1
 11
60.65
 21
122.45
 31
0.0
100
AcDbText
 73
 2
  0
TEXT
  5
13F
100
AcDbEntity
  8
ASSEMBLY_REF_DES_TOP
100
AcDbText
 10
86.5818
 20
126.05455
 30
0.0
 40
0.700000
 41
1.000000
  1
C27
  7
GOST_TYPE_B
 72
 1
 11
87.3
 21
126.4
 31
0.0
100
AcDbText
 73
 2
  0
TEXT
  5
140
100
AcDbEntity
  8
ASSEMBLY_REF_DES_TOP
100
AcDbText
 10
86.8639
 20
120.85455
 30
0.0
 40
0.700000
 41
1.000000
  1
R24
  7
GOST_TYPE_B
 72
 1
 11
87.65
 21
121.2
 31
0.0
100
AcDbText
 73
 2
  0
TEXT
  5
141
100
AcDbEntity
  8
ASSEMBLY_REF_DES_TOP
100
AcDbText
 10
62.09275
 20
122.36925
 30
0.0
 40
0.500000
 41
1.000000
  1
C28
  7
GOST_TYPE_B
 72
 1
 11
62.63
 21
122.616
 31
0.0
100
AcDbText
 73
 2
  0
TEXT
  5
142
100
AcDbEntity
  8
ASSEMBLY_REF_DES_TOP
100
AcDbText
 10
88.20455
 20
124.3682
 30
0.0
 40
0.700000
 41
1.000000
  1
C30
  50
270.0
  7
GOST_TYPE_B
 72
 1
 11
88.55
 21
123.65
 31
0.0
100
AcDbText
 73
 2
  0
TEXT
  5
143
100
AcDbEntity
  8
ASSEMBLY_REF_DES_TOP
100
AcDbText
 10
79.5212
 20
138.55455
 30
0.0
 40
0.700000
 41
1.000000
  1
C9
  7
GOST_TYPE_B
 72
 1
 11
80.0
 21
138.9
 31
0.0
100
AcDbText
 73
 2
  0
TEXT
  5
144
100
AcDbEntity
  8
ASSEMBLY_REF_DES_TOP
100
AcDbText
 10
87.40455
 20
117.4025
 30
0.0
 40
0.700000
 41
1.000000
  1
R25
  50
270.0
  7
GOST_TYPE_B
 72
 1
 11
87.75
 21
116.65
 31
0.0
100
AcDbText
 73
 2
  0
TEXT
  5
145
100
AcDbEntity
  8
ASSEMBLY_REF_DES_TOP
100
AcDbText
 10
81.357
 20
122.33725
 30
0.0
 40
0.500000
 41
1.000000
  1
C29
  7
GOST_TYPE_B
 72
 1
 11
81.87
 21
122.584
 31
0.0
100
AcDbText
 73
 2
  0
TEXT
  5
146
100
AcDbEntity
  8
ASSEMBLY_REF_DES_TOP
100
AcDbText
 10
62.466
 20
121.16925
 30
0.0
 40
0.500000
 41
1.000000
  1
C31
  7
GOST_TYPE_B
 72
 1
 11
62.93
 21
121.416
 31
0.0
100
AcDbText
 73
 2
  0
TEXT
  5
147
100
AcDbEntity
  8
ASSEMBLY_REF_DES_TOP
100
AcDbText
 10
60.90455
 20
116.9025
 30
0.0
 40
0.700000
 41
1.000000
  1
R26
  50
270.0
  7
GOST_TYPE_B
 72
 1
 11
61.25
 21
116.15
 31
0.0
100
AcDbText
 73
 2
  0
TEXT
  5
148
100
AcDbEntity
  8
ASSEMBLY_REF_DES_TOP
100
AcDbText
 10
83.9818
 20
120.90455
 30
0.0
 40
0.700000
 41
1.000000
  1
C32
  7
GOST_TYPE_B
 72
 1
 11
84.7
 21
121.25
 31
0.0
100
AcDbText
 73
 2
  0
TEXT
  5
149
100
AcDbEntity
  8
ASSEMBLY_REF_DES_TOP
100
AcDbText
 10
61.29785
 20
113.10455
 30
0.0
 40
0.700000
 41
1.000000
  1
R27
  7
GOST_TYPE_B
 72
 1
 11
62.05
 21
113.45
 31
0.0
100
AcDbText
 73
 2
  0
TEXT
  5
14A
100
AcDbEntity
  8
ASSEMBLY_REF_DES_TOP
100
AcDbText
 10
62.117
 20
119.86925
 30
0.0
 40
0.500000
 41
1.000000
  1
C33
  7
GOST_TYPE_B
 72
 1
 11
62.63
 21
120.116
 31
0.0
100
AcDbText
 73
 2
  0
TEXT
  5
14B
100
AcDbEntity
  8
ASSEMBLY_REF_DES_TOP
100
AcDbText
 10
78.00455
 20
137.0631
 30
0.0
 40
0.700000
 41
1.000000
  1
R9
  50
270.0
  7
GOST_TYPE_B
 72
 1
 11
78.35
 21
136.55
 31
0.0
100
AcDbText
 73
 2
  0
TEXT
  5
14C
100
AcDbEntity
  8
ASSEMBLY_REF_DES_TOP
100
AcDbText
 10
60.70455
 20
111.9368
 30
0.0
 40
0.700000
 41
1.000000
  1
R28
  50
270.0
  7
GOST_TYPE_B
 72
 1
 11
61.05
 21
111.15
 31
0.0
100
AcDbText
 73
 2
  0
TEXT
  5
14D
100
AcDbEntity
  8
ASSEMBLY_REF_DES_TOP
100
AcDbText
 10
81.60455
 20
111.1025
 30
0.0
 40
0.700000
 41
1.000000
  1
R30
  50
270.0
  7
GOST_TYPE_B
 72
 1
 11
81.95
 21
110.35
 31
0.0
100
AcDbText
 73
 2
  0
TEXT
  5
14E
100
AcDbEntity
  8
ASSEMBLY_REF_DES_TOP
100
AcDbText
 10
87.35455
 20
119.9525
 30
0.0
 40
0.700000
 41
1.000000
  1
C34
  50
270.0
  7
GOST_TYPE_B
 72
 1
 11
87.7
 21
119.2
 31
0.0
100
AcDbText
 73
 2
  0
TEXT
  5
14F
100
AcDbEntity
  8
ASSEMBLY_REF_DES_TOP
100
AcDbText
 10
80.00455
 20
108.4339
 30
0.0
 40
0.700000
 41
1.000000
  1
R31
  50
270.0
  7
GOST_TYPE_B
 72
 1
 11
80.35
 21
107.75
 31
0.0
100
AcDbText
 73
 2
  0
TEXT
  5
150
100
AcDbEntity
  8
ASSEMBLY_REF_DES_TOP
100
AcDbText
 10
80.00455
 20
111.4025
 30
0.0
 40
0.700000
 41
1.000000
  1
R29
  50
270.0
  7
GOST_TYPE_B
 72
 1
 11
80.35
 21
110.65
 31
0.0
100
AcDbText
 73
 2
  0
TEXT
  5
151
100
AcDbEntity
  8
ASSEMBLY_REF_DES_TOP
100
AcDbText
 10
62.417
 20
117.56925
 30
0.0
 40
0.500000
 41
1.000000
  1
C35
  7
GOST_TYPE_B
 72
 1
 11
62.93
 21
117.816
 31
0.0
100
AcDbText
 73
 2
  0
TEXT
  5
152
100
AcDbEntity
  8
ASSEMBLY_REF_DES_TOP
100
AcDbText
 10
60.59275
 20
105.06925
 30
0.0
 40
0.500000
 41
1.000000
  1
R32
  7
GOST_TYPE_B
 72
 1
 11
61.13
 21
105.316
 31
0.0
100
AcDbText
 73
 2
  0
TEXT
  5
153
100
AcDbEntity
  8
ASSEMBLY_REF_DES_TOP
100
AcDbText
 10
62.357
 20
116.63725
 30
0.0
 40
0.500000
 41
1.000000
  1
C36
  7
GOST_TYPE_B
 72
 1
 11
62.87
 21
116.884
 31
0.0
100
AcDbText
 73
 2
  0
TEXT
  5
154
100
AcDbEntity
  8
ASSEMBLY_REF_DES_TOP
100
AcDbText
 10
80.10455
 20
105.3025
 30
0.0
 40
0.700000
 41
1.000000
  1
R33
  50
270.0
  7
GOST_TYPE_B
 72
 1
 11
80.45
 21
104.55
 31
0.0
100
AcDbText
 73
 2
  0
TEXT
  5
155
100
AcDbEntity
  8
ASSEMBLY_REF_DES_TOP
100
AcDbText
 10
62.357
 20
115.63725
 30
0.0
 40
0.500000
 41
1.000000
  1
C37
  7
GOST_TYPE_B
 72
 1
 11
62.87
 21
115.884
 31
0.0
100
AcDbText
 73
 2
  0
TEXT
  5
156
100
AcDbEntity
  8
ASSEMBLY_REF_DES_TOP
100
AcDbText
 10
81.50455
 20
104.9368
 30
0.0
 40
0.700000
 41
1.000000
  1
R34
  50
270.0
  7
GOST_TYPE_B
 72
 1
 11
81.85
 21
104.15
 31
0.0
100
AcDbText
 73
 2
  0
TEXT
  5
157
100
AcDbEntity
  8
ASSEMBLY_REF_DES_TOP
100
AcDbText
 10
62.29275
 20
111.16925
 30
0.0
 40
0.500000
 41
1.000000
  1
C40
  7
GOST_TYPE_B
 72
 1
 11
62.83
 21
111.416
 31
0.0
100
AcDbText
 73
 2
  0
TEXT
  5
158
100
AcDbEntity
  8
ASSEMBLY_REF_DES_TOP
100
AcDbText
 10
83.73275
 20
114.43725
 30
0.0
 40
0.500000
 41
1.000000
  1
C38
  7
GOST_TYPE_B
 72
 1
 11
84.27
 21
114.684
 31
0.0
100
AcDbText
 73
 2
  0
TEXT
  5
159
100
AcDbEntity
  8
ASSEMBLY_REF_DES_TOP
100
AcDbText
 10
83.00455
 20
103.7025
 30
0.0
 40
0.700000
 41
1.000000
  1
R35
  50
270.0
  7
GOST_TYPE_B
 72
 1
 11
83.35
 21
102.95
 31
0.0
100
AcDbText
 73
 2
  0
TEXT
  5
15A
100
AcDbEntity
  8
ASSEMBLY_REF_DES_TOP
100
AcDbText
 10
62.28175
 20
110.23725
 30
0.0
 40
0.500000
 41
1.000000
  1
C41
  7
GOST_TYPE_B
 72
 1
 11
62.77
 21
110.484
 31
0.0
100
AcDbText
 73
 2
  0
TEXT
  5
15B
100
AcDbEntity
  8
ASSEMBLY_REF_DES_TOP
100
AcDbText
 10
62.317
 20
112.06925
 30
0.0
 40
0.500000
 41
1.000000
  1
C39
  7
GOST_TYPE_B
 72
 1
 11
62.83
 21
112.316
 31
0.0
100
AcDbText
 73
 2
  0
TEXT
  5
15C
100
AcDbEntity
  8
ASSEMBLY_REF_DES_TOP
100
AcDbText
 10
80.10455
 20
100.9025
 30
0.0
 40
0.700000
 41
1.000000
  1
R36
  50
270.0
  7
GOST_TYPE_B
 72
 1
 11
80.45
 21
100.15
 31
0.0
100
AcDbText
 73
 2
  0
TEXT
  5
15D
100
AcDbEntity
  8
ASSEMBLY_REF_DES_TOP
100
AcDbText
 10
65.19275
 20
111.86925
 30
0.0
 40
0.500000
 41
1.000000
  1
C42
  7
GOST_TYPE_B
 72
 1
 11
65.73
 21
112.116
 31
0.0
100
AcDbText
 73
 2
  0
TEXT
  5
15E
100
AcDbEntity
  8
ASSEMBLY_REF_DES_TOP
100
AcDbText
 10
83.00455
 20
100.8025
 30
0.0
 40
0.700000
 41
1.000000
  1
R37
  50
270.0
  7
GOST_TYPE_B
 72
 1
 11
83.35
 21
100.05
 31
0.0
100
AcDbText
 73
 2
  0
TEXT
  5
15F
100
AcDbEntity
  8
ASSEMBLY_REF_DES_TOP
100
AcDbText
 10
69.93725
 20
112.2675
 30
0.0
 40
0.500000
 41
1.000000
  1
C43
  50
270.0
  7
GOST_TYPE_B
 72
 1
 11
70.184
 21
111.73
 31
0.0
100
AcDbText
 73
 2
  0
TEXT
  5
160
100
AcDbEntity
  8
ASSEMBLY_REF_DES_TOP
100
AcDbText
 10
81.50455
 20
107.9368
 30
0.0
 40
0.700000
 41
1.000000
  1
R38
  50
270.0
  7
GOST_TYPE_B
 72
 1
 11
81.85
 21
107.15
 31
0.0
100
AcDbText
 73
 2
  0
TEXT
  5
161
100
AcDbEntity
  8
ASSEMBLY_REF_DES_TOP
100
AcDbText
 10
73.15325
 20
112.262
 30
0.0
 40
0.500000
 41
1.000000
  1
C44
  50
270.0
  7
GOST_TYPE_B
 72
 1
 11
73.4
 21
111.7
 31
0.0
100
AcDbText
 73
 2
  0
TEXT
  5
162
100
AcDbEntity
  8
ASSEMBLY_REF_DES_TOP
100
AcDbText
 10
74.03725
 20
112.2675
 30
0.0
 40
0.500000
 41
1.000000
  1
C45
  50
270.0
  7
GOST_TYPE_B
 72
 1
 11
74.284
 21
111.73
 31
0.0
100
AcDbText
 73
 2
  0
TEXT
  5
163
100
AcDbEntity
  8
ASSEMBLY_REF_DES_TOP
100
AcDbText
 10
75.46925
 20
112.2075
 30
0.0
 40
0.500000
 41
1.000000
  1
C46
  50
270.0
  7
GOST_TYPE_B
 72
 1
 11
75.716
 21
111.67
 31
0.0
100
AcDbText
 73
 2
  0
TEXT
  5
164
100
AcDbEntity
  8
ASSEMBLY_REF_DES_TOP
100
AcDbText
 10
76.36925
 20
112.2075
 30
0.0
 40
0.500000
 41
1.000000
  1
C47
  50
270.0
  7
GOST_TYPE_B
 72
 1
 11
76.616
 21
111.67
 31
0.0
100
AcDbText
 73
 2
  0
TEXT
  5
165
100
AcDbEntity
  8
ASSEMBLY_REF_DES_TOP
100
AcDbText
 10
78.36925
 20
112.232
 30
0.0
 40
0.500000
 41
1.000000
  1
C48
  50
270.0
  7
GOST_TYPE_B
 72
 1
 11
78.616
 21
111.67
 31
0.0
100
AcDbText
 73
 2
  0
TEXT
  5
166
100
AcDbEntity
  8
ASSEMBLY_REF_DES_TOP
100
AcDbText
 10
64.717
 20
105.86925
 30
0.0
 40
0.500000
 41
1.000000
  1
C50
  7
GOST_TYPE_B
 72
 1
 11
65.23
 21
106.116
 31
0.0
100
AcDbText
 73
 2
  0
TEXT
  5
167
100
AcDbEntity
  8
ASSEMBLY_REF_DES_TOP
100
AcDbText
 10
79.93725
 20
102.794
 30
0.0
 40
0.500000
 41
1.000000
  1
C51
  50
270.0
  7
GOST_TYPE_B
 72
 1
 11
80.184
 21
102.33
 31
0.0
100
AcDbText
 73
 2
  0
TEXT
  5
168
100
AcDbEntity
  8
ASSEMBLY_REF_DES_TOP
100
AcDbText
 10
64.69275
 20
106.76925
 30
0.0
 40
0.500000
 41
1.000000
  1
C49
  7
GOST_TYPE_B
 72
 1
 11
65.23
 21
107.016
 31
0.0
100
AcDbText
 73
 2
  0
LWPOLYLINE
  5
169
100
AcDbEntity
  8
BOARD_OUTLINE
100
AcDbPolyline
 90
        16
 70
         1
 43
0.1
 10
89.399999
 20
98.49
 10
89.399999
 20
146.29
 10
87.949828
 20
146.29
 42
-0.414214
 10
87.25
 20
146.989828
 10
87.25
 20
149.49
 10
79.0
 20
149.49
 10
79.0
 20
146.223974
 42
-0.414214
 10
78.266026
 20
145.49
 10
78.233974
 20
145.49
 42
-0.414214
 10
77.5
 20
146.223974
 10
77.5
 20
149.49
 10
61.55
 20
149.49
 10
61.55
 20
146.989828
 42
-0.414214
 10
60.850172
 20
146.29
 10
59.397695
 20
146.29
 10
59.399739
 20
98.49
  0
CIRCLE
  5
16A
100
AcDbEntity
  8
MOUNTING_HOLES_LAYER_TOP
100
AcDbCircle
 10
86.5
 20
101.48
 30
0.0
 40
1.35
  0
HATCH
  5
16B
100
AcDbEntity
  8
MOUNTING_HOLES_LAYER_TOP
100
AcDbHatch
 10
0.0
 20
0.0
 30
0.0
 210
0.0
 220
0.0
 230
1.0
  2
SOLID
 70
         1
 71
        1
 91
        1
  92
     1
  93
     1
 72
     2
 10
86.5
 20
101.48
  40
1.35
  50
     0.0
  51
     360.0
 73
     0
  97
     1
  330
    362
 75
     0
 76
     1
  98
     1
 10
0.0
 20
0.0
  0
CIRCLE
  5
16C
100
AcDbEntity
  8
MOUNTING_HOLES_LAYER_TOP
100
AcDbCircle
 10
62.3
 20
101.48
 30
0.0
 40
1.35
  0
HATCH
  5
16D
100
AcDbEntity
  8
MOUNTING_HOLES_LAYER_TOP
100
AcDbHatch
 10
0.0
 20
0.0
 30
0.0
 210
0.0
 220
0.0
 230
1.0
  2
SOLID
 70
         1
 71
        1
 91
        1
  92
     1
  93
     1
 72
     2
 10
62.3
 20
101.48
  40
1.35
  50
     0.0
  51
     360.0
 73
     0
  97
     1
  330
    364
 75
     0
 76
     1
  98
     1
 10
0.0
 20
0.0
  0
CIRCLE
  5
16E
100
AcDbEntity
  8
PART_HOLES_LAYER_TOP
100
AcDbCircle
 10
81.9
 20
99.7
 30
0.0
 40
0.45
  0
HATCH
  5
16F
100
AcDbEntity
  8
PART_HOLES_LAYER_TOP
100
AcDbHatch
 10
0.0
 20
0.0
 30
0.0
 210
0.0
 220
0.0
 230
1.0
  2
SOLID
 70
         1
 71
        1
 91
        1
  92
     1
  93
     1
 72
     2
 10
81.9
 20
99.7
  40
0.45
  50
     0.0
  51
     360.0
 73
     0
  97
     1
  330
    366
 75
     0
 76
     1
  98
     1
 10
0.0
 20
0.0
  0
CIRCLE
  5
170
100
AcDbEntity
  8
PART_HOLES_LAYER_TOP
100
AcDbCircle
 10
81.9
 20
101.7
 30
0.0
 40
0.45
  0
HATCH
  5
171
100
AcDbEntity
  8
PART_HOLES_LAYER_TOP
100
AcDbHatch
 10
0.0
 20
0.0
 30
0.0
 210
0.0
 220
0.0
 230
1.0
  2
SOLID
 70
         1
 71
        1
 91
        1
  92
     1
  93
     1
 72
     2
 10
81.9
 20
101.7
  40
0.45
  50
     0.0
  51
     360.0
 73
     0
  97
     1
  330
    368
 75
     0
 76
     1
  98
     1
 10
0.0
 20
0.0
  0
ENDSEC
  0
SECTION
  2
OBJECTS
  0
DICTIONARY
  5
16
100
AcDbDictionary
  3
ACAD_GROUP
350
17
  3
ACAD_MLINESTYLE
350
18
  0
DICTIONARY
  5
17
102
{ACAD_REACTORS
330
16
102
}
100
AcDbDictionary
  0
DICTIONARY
  5
18
102
{ACAD_REACTORS
330
16
102
}
100
AcDbDictionary
  3
STANDARD
350
19
  0
MLINESTYLE
  5
19
102
{ACAD_REACTORS
330
18
102
}
100
AcDbMlineStyle
  2
STANDARD
 70
         0
  3

 62
         0
 51
90.0
 52
90.0
 71
        2
 49
0.5
 62
         256
  6
BYLAYER
 49
-0.5
 62
         256
  6
BYLAYER
  0
DICTIONARY
  5
1A
102
{ACAD_REACTORS
330
16
102
}
100
AcDbDictionary
  0
ENDSEC
  0
EOF
