  0
SECTION
  2
HEADER
  9
$ACADVER
  1
AC1014
  9
$ACADMAINTVER
 70
         0
  9
$DWGCODEPAGE
  3
ANSI_1252
  9
$INSBASE
 10
0.0
 20
0.0
 30
0.0
  9
$EXTMIN
 10
-14.666254
 20
-103.040776
 30
0.0
  9
$EXTMAX
 10
194.01
 20
7.853437
 30
0.0
  9
$LIMMIN
 10
0.0
 20
0.0
  9
$LIMMAX
 10
0.0
 20
0.0
  9
$ORTHOMODE
 70
         0
  9
$REGENMODE
 70
         1
  9
$FILLMODE
 70
         1
  9
$QTEXTMODE
 70
         0
  9
$MIRRTEXT
 70
         1
  9
$DRAGMODE
 70
         2
  9
$LTSCALE
 40
1.0
  9
$OSMODE
 70
         0
  9
$ATTMODE
 70
         1
  9
$TEXTSIZE
 40
0.2
  9
$TRACEWID
 40
0.05
  9
$TEXTSTYLE
  7
STANDARD
  9
$CLAYER
  8
0
  9
$CELTYPE
  6
CONTINUOUS
  9
$CECOLOR
 62
       256
  9
$CELTSCALE
 40
1.0
  9
$DELOBJ
 70
         1
  9
$DISPSILH
 70
         0
  9
$DIMSCALE
 40
1.0
  9
$DIMASZ
 40
0.18
  9
$DIMEXO
 40
0.0625
  9
$DIMDLI
 40
0.38
  9
$DIMRND
 40
0.0
  9
$DIMDLE
 40
0.0
  9
$DIMEXE
 40
0.18
  9
$DIMTP
 40
0.0
  9
$DIMTM
 40
0.0
  9
$DIMTXT
 40
0.18
  9
$DIMCEN
 40
0.09
  9
$DIMTSZ
 40
0.0
  9
$DIMTOL
 70
         0
  9
$DIMLIM
 70
         0
  9
$DIMTIH
 70
         1
  9
$DIMTOH
 70
         1
  9
$DIMSE1
 70
         0
  9
$DIMSE2
 70
         0
  9
$DIMTAD
 70
         0
  9
$DIMZIN
 70
         0
  9
$DIMBLK
  1

  9
$DIMASO
 70
         1
  9
$DIMSHO
 70
         1
  9
$DIMPOST
  1

  9
$DIMAPOST
  1

  9
$DIMALT
 70
         0
  9
$DIMALTD
 70
         2
  9
$DIMALTF
 40
25.4
  9
$DIMLFAC
 40
1.0
  9
$DIMTOFL
 70
         0
  9
$DIMTVP
 40
0.0
  9
$DIMTIX
 70
         0
  9
$DIMSOXD
 70
         0
  9
$DIMSAH
 70
         0
  9
$DIMBLK1
  1

  9
$DIMBLK2
  1

  9
$DIMSTYLE
  2
STANDARD
  9
$DIMCLRD
 70
         0
  9
$DIMCLRE
 70
         0
  9
$DIMCLRT
 70
         0
  9
$DIMTFAC
 40
1.0
  9
$DIMGAP
 40
0.09
  9
$DIMJUST
 70
         0
  9
$DIMSD1
 70
         0
  9
$DIMSD2
 70
         0
  9
$DIMTOLJ
 70
         1
  9
$DIMTZIN
 70
         0
  9
$DIMALTZ
 70
         0
  9
$DIMALTTZ
 70
         0
  9
$DIMFIT
 70
         3
  9
$DIMUPT
 70
         0
  9
$DIMUNIT
 70
         2
  9
$DIMDEC
 70
         4
  9
$DIMTDEC
 70
         4
  9
$DIMALTU
 70
         2
  9
$DIMALTTD
 70
         2
  9
$DIMTXSTY
  7
STANDARD
  9
$DIMAUNIT
 70
         0
  9
$LUNITS
 70
         2
  9
$LUPREC
 70
         4
  9
$SKETCHINC
 40
0.1
  9
$FILLETRAD
 40
0.0
  9
$AUNITS
 70
         0
  9
$AUPREC
 70
         0
  9
$MENU
  1
acad
  9
$ELEVATION
 40
0.0
  9
$PELEVATION
 40
0.0
  9
$THICKNESS
 40
0.0
  9
$LIMCHECK
 70
         0
  9
$BLIPMODE
 70
         1
  9
$CHAMFERA
 40
0.0
  9
$CHAMFERB
 40
0.0
  9
$CHAMFERC
 40
0.0
  9
$CHAMFERD
 40
0.0
  9
$SKPOLY
 70
         0
  9
$TDCREATE
 40
20221122.110717
  9
$TDUPDATE
 40
0.0
  9
$TDINDWG
 40
0.0
  9
$TDUSRTIMER
 40
0.0
  9
$USRTIMER
 70
         1
  9
$ANGBASE
 50
0.0
  9
$ANGDIR
 70
         0
  9
$PDMODE
 70
         0
  9
$PDSIZE
 40
0.0
  9
$PLINEWID
 40
0.0
  9
$COORDS
 70
         0
  9
$SPLFRAME
 70
         0
  9
$SPLINETYPE
 70
         6
  9
$SPLINESEGS
 70
         8
  9
$ATTDIA
 70
         0
  9
$ATTREQ
 70
         1
  9
$HANDLING
 70
         1
  9
$HANDSEED
  5
34C
  9
$SURFTAB1
 70
         6
  9
$SURFTAB2
 70
         6
  9
$SURFTYPE
 70
         6
  9
$SURFU
 70
         6
  9
$SURFV
 70
         6
  9
$UCSNAME
  2

  9
$UCSORG
 10
0.0
 20
0.0
 30
0.0
  9
$UCSXDIR
 10
1.0
 20
0.0
 30
0.0
  9
$UCSYDIR
 10
0.0
 20
1.0
 30
0.0
  9
$PUCSNAME
  2

  9
$PUCSORG
 10
0.0
 20
0.0
 30
0.0
  9
$PUCSXDIR
 10
1.0
 20
0.0
 30
0.0
  9
$PUCSYDIR
 10
0.0
 20
1.0
 30
0.0
  9
$USERI1
 70
         -3
  9
$USERI2
 70
         0
  9
$USERI3
 70
         0
  9
$USERI4
 70
         0
  9
$USERI5
 70
         0
  9
$USERR1
 40
0.0
  9
$USERR2
 40
0.0
  9
$USERR3
 40
0.0
  9
$USERR4
 40
0.0
  9
$USERR5
 40
0.0
  9
$WORLDVIEW
 70
         1
  9
$SHADEDGE
 70
         3
  9
$SHADEDIF
 70
        70
  9
$TILEMODE
 70
         1
  9
$MAXACTVP
 70
         16
  9
$PINSBASE
 10
0.0
 20
0.0
 30
0.0
  9
$PLIMCHECK
 70
         0
  9
$PEXTMIN
 10
100000000000000000000.0
 20
100000000000000000000.0
 30
100000000000000000000.0
  9
$PEXTMAX
 10
-100000000000000000000.0
 20
-100000000000000000000.0
 30
-100000000000000000000.0
  9
$PLIMMIN
 10
0.0
 20
0.0
  9
$PLIMMAX
 10
12.0
 20
9.0
  9
$UNITMODE
 70
         0
  9
$VISRETAIN
 70
         0
  9
$PLINEGEN
 70
         1
  9
$PSLTSCALE
 70
         0
  9
$TREEDEPTH
 70
      3020
  9
$PICKSTYLE
 70
         1
  9
$CMLSTYLE
  2
STANDARD
  9
$CMLJUST
 70
         0
  9
$CMLSCALE
 40
1.0
  9
$PROXYGRAPHICS
 70
         0
  9
$MEASUREMENT
 70
         0
  0
ENDSEC
  0
SECTION
  2
CLASSES
  0
CLASS
  1
LWPOLYLINE
  2
AcDbPolyline
  3
"AutoCAD"
 90
        0
280
         0
281
         1
  0
CLASS
  1
IMAGE
  2
AcDbRasterImage
  3
ISM
 90
      127
280
         0
281
         1
  0
CLASS
  1
OLE2FRAME
  2
AcDbOle2Frame
  3
""
 90
        0
280
         0
281
         1
  0
CLASS
  1
HATCH
  2
AcDbHatch
  3
"ACAD_SEDONA"
 90
        0
280
         0
281
         1
  0
CLASS
  1
DICTIONARYVAR
  2
AcDbDictionaryVar
  3
"AutoCAD"
 90
        0
280
         0
281
         0
  0
CLASS
  1
RASTERVARIABLES
  2
AcDbRasterVariables
  3
ISM
 90
        0
280
         0
281
         0
  0
CLASS
  1
IMAGEDEF
  2
AcDbRasterImageDef
  3
ISM
 90
        0
280
         0
281
         0
  0
CLASS
  1
IMAGEDEF_REACTOR
  2
AcDbRasterImageDefReactor
  3
ISM
 90
        1
280
         0
281
         0
  0
CLASS
  1
IDBUFFER
  2
AcDbIdBuffer
  3
"Acad"
 90
        0
280
         0
281
         0
  0
CLASS
  1
SPATIAL_FILTER
  2
AcDbSpatialFilter
  3
"Acad"
 90
        0
280
         0
281
         0
  0
CLASS
  1
XRECORD
  2
AcDbXrecord
  3
"<Built In>"
 90
        0
280
         0
281
         0
  0
CLASS
  1
SORTENTSTABLE
  2
AcDbSortentsTable
  3
"AutoCAD"
 90
        0
280
         0
281
         0
  0
CLASS
  1
LAYER_INDEX
  2
AcDbLayerIndex
  3
"Acad"
 90
        0
280
         0
281
         0
  0
CLASS
  1
SPATIAL_INDEX
  2
AcDbSpatialIndex
  3
"Acad"
 90
        0
280
         0
281
         0
  0
CLASS
  1
OBJECT_PTR
  2
CAseDLPNTableRecord
  3
"ASE-LPNTableRecord"
 90
        1
280
         0
281
         0
  0
CLASS
  1
LAYOUT
  2
AcDbLayout
  3
"AutoCAD 2000"
 90
        0
280
         0
281
         0
  0
CLASS
  1
PLOTSETTINGS
  2
AcDbPlotSettings
  3
"AutoCAD 2000"
 90
        0
280
         0
281
         0
  0
CLASS
  1
ACDBDICTIONARYWDFLT
  2
AcDbDictionaryWithDefault
  3
"AutoCAD 2000"
 90
        0
280
         0
281
         0
  0
CLASS
  1
ACDBPLACEHOLDER
  2
AcDbPlaceHolder
  3
"AutoCAD 2000"
 90
        0
280
         0
281
         0
  0
CLASS
  1
VBA_PROJECT
  2
AcDbVbaProject
  3
"acadvba"
 90
        0
280
         0
281
         0
  0
CLASS
  1
WIPEOUT
  2
AcDbWipeout
  3
WipeOut|AutoCAD Express Tool|expresstools@autodesk.com
 90
      127
280
         0
281
         1
  0
CLASS
  1
WIPEOUTVARIABLES
  2
AcDbWipeoutVariables
  3
WipeOut|AutoCAD Express Tool|expresstools@autodesk.com
 90
        0
280
         0
281
         0
  0
CLASS
  1
RTEXT
  2
RText
  3
RText|AutoCAD Express Tool|expresstools@autodesk.com
 90
        0
280
         0
281
         1
  0
CLASS
  1
ARCALIGNEDTEXT
  2
AcDbArcAlignedText
  3
ATEXT|AutoCAD Express Tool|expresstools@autodesk.com
 90
        0
280
         0
281
         1
  0
ENDSEC
  0
SECTION
  2
TABLES
  0
TABLE
  2
VPORT
  5
7
100
AcDbSymbolTable
70
    1
  0
VPORT
  5
13
100
AcDbSymbolTableRecord
100
AcDbViewportTableRecord
  2
*ACTIVE
 70
         0
 10
0.0
 20
0.0
 11
1.0
 21
1.0
 12
6.591288
 22
4.579184
 13
0.0
 23
0.0
 14
1.0
 24
1.0
 15
0.0
 25
0.0
 16
0.0
 26
0.0
 36
1.0
 17
0.0
 27
0.0
 37
0.0
  40
9.158369
  41
0.688564
  42
50.0
  43
0.0
  44
0.0
  50
0.0
  51
0.0
 71
    0
 72
    100
 73
    1
 74
    1
 75
    0
 76
    0
 77
    0
 78
    0
  0
ENDTAB
  0
TABLE
  2
LTYPE
  5
4
100
AcDbSymbolTable
70
    3
  0
LTYPE
  5
10
100
AcDbSymbolTableRecord
100
AcDbLinetypeTableRecord
  2
BYBLOCK
 70
         64
  3

 72
       65
 73
       0
  40
0.0
  0
LTYPE
  5
11
100
AcDbSymbolTableRecord
100
AcDbLinetypeTableRecord
  2
BYLAYER
 70
         64
  3

 72
       65
 73
       0
  40
0.0
  0
LTYPE
  5
12
100
AcDbSymbolTableRecord
100
AcDbLinetypeTableRecord
  2
CONTINUOUS
 70
         64
  3
Solid Line
 72
       65
 73
       0
  40
0.0
  0
ENDTAB
  0
TABLE
  2
LAYER
  5
2
100
AcDbSymbolTable
 70
         8
  0
LAYER
  5
33F
100
AcDbSymbolTableRecord
100
AcDbLayerTableRecord
  2
0
 70
         0
 62
         7
  6
CONTINUOUS
  0
LAYER
  5
340
100
AcDbSymbolTableRecord
100
AcDbLayerTableRecord
  2
ASSEMBLY_OUTLINES_BTM
 70
         0
 62
         191
  6
CONTINUOUS
  0
LAYER
  5
341
100
AcDbSymbolTableRecord
100
AcDbLayerTableRecord
  2
ASSEMBLY_OUTLINES_TOP
 70
         0
 62
         102
  6
CONTINUOUS
  0
LAYER
  5
342
100
AcDbSymbolTableRecord
100
AcDbLayerTableRecord
  2
ASSEMBLY_REF_DES_BTM
 70
         0
 62
         191
  6
CONTINUOUS
  0
LAYER
  5
343
100
AcDbSymbolTableRecord
100
AcDbLayerTableRecord
  2
BOARD_OUTLINE
 70
         0
 62
         10
  6
CONTINUOUS
  0
LAYER
  5
344
100
AcDbSymbolTableRecord
100
AcDbLayerTableRecord
  2
MOUNTING_HOLES_LAYER_TOP
 70
         0
 62
         42
  6
CONTINUOUS
  0
LAYER
  5
345
100
AcDbSymbolTableRecord
100
AcDbLayerTableRecord
  2
PART_HOLES_LAYER_TOP
 70
         0
 62
         30
  6
CONTINUOUS
  0
LAYER
  5
346
100
AcDbSymbolTableRecord
100
AcDbLayerTableRecord
  2
SOLDERMASK_PADS_BTM
 70
         0
 62
         12
  6
CONTINUOUS
  0
ENDTAB
  0
TABLE
  2
STYLE
  5
3
100
AcDbSymbolTable
 70
         5
  0
STYLE
  5
347
100
AcDbSymbolTableRecord
100
AcDbTextStyleTableRecord
  2
STANDARD
 70
         0
 40
0.0
 41
1.0
 50
0.0
 71
         0
 42
0.0
  3
txt
  4

  0
STYLE
  5
348
100
AcDbSymbolTableRecord
100
AcDbTextStyleTableRecord
  2
VERIBEST_GERBER_1
 70
         0
 40
0.0
 41
1.0
 50
0.0
 71
         0
 42
0.0
  3
VBest1.ttf
  4

  0
STYLE
  5
349
100
AcDbSymbolTableRecord
100
AcDbTextStyleTableRecord
  2
GOST_TYPE_B
 70
         0
 40
0.0
 41
1.0
 50
0.0
 71
         0
 42
0.0
  3
gost_1.ttf
  4

  0
STYLE
  5
34A
100
AcDbSymbolTableRecord
100
AcDbTextStyleTableRecord
  2
GOST_D
 70
         0
 40
0.0
 41
1.0
 50
0.0
 71
         0
 42
0.0
  3
GOST_2.TTF
  4

  0
STYLE
  5
34B
100
AcDbSymbolTableRecord
100
AcDbTextStyleTableRecord
  2
VERIBEST_GERBER_0
 70
         0
 40
0.0
 41
1.0
 50
0.0
 71
         0
 42
0.0
  3
VBest0.ttf
  4

  0
ENDTAB
  0
TABLE
  2
VIEW
  5
5
100
AcDbSymbolTable
 70
         0
  0
ENDTAB
  0
TABLE
  2
UCS
  5
6
100
AcDbSymbolTable
 70
         0
  0
ENDTAB
  0
TABLE
  2
APPID
  5
8
100
AcDbSymbolTable
 70
         1
  0
APPID
  5
14
100
AcDbSymbolTableRecord
100
AcDbRegAppTableRecord
  2
ACAD
 70
         0
  0
ENDTAB
  0
TABLE
  2
DIMSTYLE
  5
9
100
AcDbSymbolTable
 70
         1
  0
DIMSTYLE
105
15
100
AcDbSymbolTableRecord
100
AcDbDimStyleTableRecord
  2
STANDARD
 70
         0
  3

  4

  5

  6

 7

 40
1.0
 41
0.18
 42
0.0625
 43
0.38
 44
0.18
 45
0.0
 46
0.0
 47
0.0
 48
0.0
 71
         0
 72
         0
 73
         1
 74
         1
 75
         0
 76
         0
 77
         0
 78
         0
140
0.18
141
0.09
142
0.0
143
25.4
144
1.0
145
0.0
146
1.0
147
0.09
170
         0
171
         2
172
         0
173
         0
174
         0
175
         0
176
         0
177
         0
178
         0
270
         2
271
         4
272
         4
273
         2
274
         2
275
         0
280
         0
281
         0
282
         0
283
         1
284
         0
285
         0
286
         0
287
         3
288
         0
340
17
  0
ENDTAB
  0
TABLE
  2
BLOCK_RECORD
  5
1
100
AcDbSymbolTable
 70
         0
  0
BLOCK_RECORD
  5
A
100
AcDbSymbolTableRecord
100
AcDbBlockTableRecord
  2
*MODEL_SPACE
  0
BLOCK_RECORD
  5
B
100
AcDbSymbolTableRecord
100
AcDbBlockTableRecord
  2
*PAPER_SPACE
  0
ENDTAB
  0
ENDSEC
  0
SECTION
  2
BLOCKS
  0
BLOCK
  5
C
100
AcDbEntity
  8
0
100
AcDbBlockBegin
  2
*MODEL_SPACE
 70
         0
 10
0.0
 20
0.0
 30
0.0
  3
*MODEL_SPACE
  1

  0
ENDBLK
  5
D
100
AcDbEntity
  8
0
100
AcDbBlockEnd
  0
BLOCK
  5
E
100
AcDbEntity
 67
        1
  8
0
100
AcDbBlockBegin
  2
*PAPER_SPACE
 70
         0
 10
0.0
 20
0.0
 30
0.0
  3
*PAPER_SPACE
  1

  0
ENDBLK
  5
F
100
AcDbEntity
 67
        1
  8
0
100
AcDbBlockEnd
  0
ENDSEC
  0
SECTION
  2
ENTITIES
  0
LWPOLYLINE
  5
1B
100
AcDbEntity
  8
ASSEMBLY_OUTLINES_BTM
100
AcDbPolyline
 90
        2
 70
         0
 43
0.2
 10
80.6
 20
-19.0
 10
83.8004
 20
-19.0
  0
LWPOLYLINE
  5
1C
100
AcDbEntity
  8
ASSEMBLY_OUTLINES_BTM
100
AcDbPolyline
 90
        2
 70
         0
 43
0.2
 10
84.8005
 20
-19.0
 10
88.0009
 20
-19.0
  0
LWPOLYLINE
  5
1D
100
AcDbEntity
  8
ASSEMBLY_OUTLINES_BTM
100
AcDbPolyline
 90
        2
 70
         0
 43
0.2
 10
89.001
 20
-19.0
 10
92.2014
 20
-19.0
  0
LWPOLYLINE
  5
1E
100
AcDbEntity
  8
ASSEMBLY_OUTLINES_BTM
100
AcDbPolyline
 90
        2
 70
         0
 43
0.2
 10
93.2015
 20
-19.0
 10
96.4019
 20
-19.0
  0
LWPOLYLINE
  5
1F
100
AcDbEntity
  8
ASSEMBLY_OUTLINES_BTM
100
AcDbPolyline
 90
        2
 70
         0
 43
0.2
 10
97.402
 20
-19.0
 10
98.1
 20
-19.0
  0
LWPOLYLINE
  5
20
100
AcDbEntity
  8
ASSEMBLY_OUTLINES_BTM
100
AcDbPolyline
 90
        2
 70
         0
 43
0.2
 10
98.8
 20
-18.7
 10
98.8
 20
-19.6
  0
LWPOLYLINE
  5
21
100
AcDbEntity
  8
ASSEMBLY_OUTLINES_BTM
100
AcDbPolyline
 90
        2
 70
         0
 43
0.2
 10
99.6
 20
-18.7
 10
99.6
 20
-19.6
  0
LWPOLYLINE
  5
22
100
AcDbEntity
  8
ASSEMBLY_OUTLINES_BTM
100
AcDbPolyline
 90
        2
 70
         0
 43
0.2
 10
100.4
 20
-18.7
 10
100.4
 20
-19.6
  0
LWPOLYLINE
  5
23
100
AcDbEntity
  8
ASSEMBLY_OUTLINES_BTM
100
AcDbPolyline
 90
        2
 70
         0
 43
0.2
 10
79.9
 20
-18.7
 10
79.9
 20
-19.6
  0
LWPOLYLINE
  5
24
100
AcDbEntity
  8
ASSEMBLY_OUTLINES_BTM
100
AcDbPolyline
 90
        2
 70
         0
 43
0.2
 10
79.1
 20
-18.7
 10
79.1
 20
-19.6
  0
LWPOLYLINE
  5
25
100
AcDbEntity
  8
ASSEMBLY_OUTLINES_BTM
100
AcDbPolyline
 90
        2
 70
         0
 43
0.2
 10
78.3
 20
-18.7
 10
78.3
 20
-19.6
  0
LWPOLYLINE
  5
26
100
AcDbEntity
  8
ASSEMBLY_OUTLINES_BTM
100
AcDbPolyline
 90
        4
 70
         1
 43
0.1
 10
76.1
 20
-23.75
 10
76.1
 20
-19.65
 10
102.1
 20
-19.65
 10
102.1
 20
-23.75
  0
LWPOLYLINE
  5
27
100
AcDbEntity
  8
ASSEMBLY_OUTLINES_BTM
100
AcDbPolyline
 90
        4
 70
         1
 43
0.1
 10
113.05
 20
-38.9
 10
113.05
 20
-32.9
 10
116.75
 20
-32.9
 10
116.75
 20
-38.9
  0
LWPOLYLINE
  5
28
100
AcDbEntity
  8
ASSEMBLY_OUTLINES_BTM
100
AcDbPolyline
 90
        4
 70
         1
 43
0.1
 10
153.15
 20
-69.5
 10
153.15
 20
-68.5
 10
155.65
 20
-68.5
 10
155.65
 20
-69.5
  0
LWPOLYLINE
  5
29
100
AcDbEntity
  8
ASSEMBLY_OUTLINES_BTM
100
AcDbPolyline
 90
        2
 70
         0
 43
0.1
 10
153.15
 20
-69.4
 10
153.25
 20
-69.5
  0
LWPOLYLINE
  5
2A
100
AcDbEntity
  8
ASSEMBLY_OUTLINES_BTM
100
AcDbPolyline
 90
        2
 70
         0
 43
0.1
 10
153.15
 20
-69.3
 10
153.35
 20
-69.5
  0
LWPOLYLINE
  5
2B
100
AcDbEntity
  8
ASSEMBLY_OUTLINES_BTM
100
AcDbPolyline
 90
        2
 70
         0
 43
0.1
 10
153.15
 20
-69.2
 10
153.45
 20
-69.5
  0
LWPOLYLINE
  5
2C
100
AcDbEntity
  8
ASSEMBLY_OUTLINES_BTM
100
AcDbPolyline
 90
        2
 70
         0
 43
0.1
 10
153.15
 20
-69.1
 10
153.55
 20
-69.5
  0
LWPOLYLINE
  5
2D
100
AcDbEntity
  8
ASSEMBLY_OUTLINES_BTM
100
AcDbPolyline
 90
        2
 70
         0
 43
0.1
 10
153.15
 20
-69.0
 10
153.65
 20
-69.5
  0
LWPOLYLINE
  5
2E
100
AcDbEntity
  8
ASSEMBLY_OUTLINES_BTM
100
AcDbPolyline
 90
        2
 70
         0
 43
0.1
 10
153.15
 20
-68.9
 10
153.75
 20
-69.5
  0
LWPOLYLINE
  5
2F
100
AcDbEntity
  8
ASSEMBLY_OUTLINES_BTM
100
AcDbPolyline
 90
        2
 70
         0
 43
0.1
 10
153.15
 20
-68.8
 10
153.85
 20
-69.5
  0
LWPOLYLINE
  5
30
100
AcDbEntity
  8
ASSEMBLY_OUTLINES_BTM
100
AcDbPolyline
 90
        2
 70
         0
 43
0.1
 10
153.15
 20
-68.7
 10
153.95
 20
-69.5
  0
LWPOLYLINE
  5
31
100
AcDbEntity
  8
ASSEMBLY_OUTLINES_BTM
100
AcDbPolyline
 90
        2
 70
         0
 43
0.1
 10
153.15
 20
-68.6
 10
154.05
 20
-69.5
  0
LWPOLYLINE
  5
32
100
AcDbEntity
  8
ASSEMBLY_OUTLINES_BTM
100
AcDbPolyline
 90
        2
 70
         0
 43
0.1
 10
153.15
 20
-68.5
 10
154.15
 20
-69.5
  0
LWPOLYLINE
  5
33
100
AcDbEntity
  8
ASSEMBLY_OUTLINES_BTM
100
AcDbPolyline
 90
        4
 70
         1
 43
0.1
 10
19.85
 20
-54.75
 10
19.85
 20
-46.85
 10
24.35
 20
-46.85
 10
24.35
 20
-54.75
  0
LWPOLYLINE
  5
34
100
AcDbEntity
  8
ASSEMBLY_OUTLINES_BTM
100
AcDbPolyline
 90
        2
 70
         1
 43
0.1
 10
22.85
 20
-53.75
 42
-1.000000
 10
23.85
 20
-53.75
 42
-1.000000
  0
LWPOLYLINE
  5
35
100
AcDbEntity
  8
ASSEMBLY_OUTLINES_BTM
100
AcDbPolyline
 90
        4
 70
         1
 43
0.1
 10
102.6
 20
-89.0
 10
102.6
 20
-87.8
 10
103.4
 20
-87.8
 10
103.4
 20
-89.0
  0
LWPOLYLINE
  5
36
100
AcDbEntity
  8
ASSEMBLY_OUTLINES_BTM
100
AcDbPolyline
 90
        2
 70
         0
 43
0.1
 10
102.6
 20
-87.8
 10
103.4
 20
-87.8
  0
LWPOLYLINE
  5
37
100
AcDbEntity
  8
ASSEMBLY_OUTLINES_BTM
100
AcDbPolyline
 90
        2
 70
         0
 43
0.1
 10
102.6
 20
-87.9
 10
103.4
 20
-87.9
  0
LWPOLYLINE
  5
38
100
AcDbEntity
  8
ASSEMBLY_OUTLINES_BTM
100
AcDbPolyline
 90
        2
 70
         0
 43
0.1
 10
102.6
 20
-88.0
 10
103.4
 20
-88.0
  0
LWPOLYLINE
  5
39
100
AcDbEntity
  8
ASSEMBLY_OUTLINES_BTM
100
AcDbPolyline
 90
        2
 70
         0
 43
0.1
 10
102.6
 20
-88.1
 10
103.4
 20
-88.1
  0
LWPOLYLINE
  5
3A
100
AcDbEntity
  8
ASSEMBLY_OUTLINES_BTM
100
AcDbPolyline
 90
        2
 70
         0
 43
0.1
 10
102.6
 20
-88.2
 10
103.4
 20
-88.2
  0
LWPOLYLINE
  5
3B
100
AcDbEntity
  8
ASSEMBLY_OUTLINES_BTM
100
AcDbPolyline
 90
        2
 70
         0
 43
0.1
 10
102.6
 20
-88.3
 10
103.4
 20
-88.3
  0
LWPOLYLINE
  5
3C
100
AcDbEntity
  8
ASSEMBLY_OUTLINES_BTM
100
AcDbPolyline
 90
        4
 70
         1
 43
0.1
 10
170.8
 20
-77.6
 10
170.8
 20
-76.8
 10
172.0
 20
-76.8
 10
172.0
 20
-77.6
  0
LWPOLYLINE
  5
3D
100
AcDbEntity
  8
ASSEMBLY_OUTLINES_BTM
100
AcDbPolyline
 90
        2
 70
         0
 43
0.1
 10
170.8
 20
-77.6
 10
170.8
 20
-76.8
  0
LWPOLYLINE
  5
3E
100
AcDbEntity
  8
ASSEMBLY_OUTLINES_BTM
100
AcDbPolyline
 90
        2
 70
         0
 43
0.1
 10
170.9
 20
-77.6
 10
170.9
 20
-76.8
  0
LWPOLYLINE
  5
3F
100
AcDbEntity
  8
ASSEMBLY_OUTLINES_BTM
100
AcDbPolyline
 90
        2
 70
         0
 43
0.1
 10
171.0
 20
-77.6
 10
171.0
 20
-76.8
  0
LWPOLYLINE
  5
40
100
AcDbEntity
  8
ASSEMBLY_OUTLINES_BTM
100
AcDbPolyline
 90
        2
 70
         0
 43
0.1
 10
171.1
 20
-77.6
 10
171.1
 20
-76.8
  0
LWPOLYLINE
  5
41
100
AcDbEntity
  8
ASSEMBLY_OUTLINES_BTM
100
AcDbPolyline
 90
        2
 70
         0
 43
0.1
 10
171.2
 20
-77.6
 10
171.2
 20
-76.8
  0
LWPOLYLINE
  5
42
100
AcDbEntity
  8
ASSEMBLY_OUTLINES_BTM
100
AcDbPolyline
 90
        2
 70
         0
 43
0.1
 10
171.3
 20
-77.6
 10
171.3
 20
-76.8
  0
LWPOLYLINE
  5
43
100
AcDbEntity
  8
ASSEMBLY_OUTLINES_BTM
100
AcDbPolyline
 90
        4
 70
         1
 43
0.1
 10
11.3
 20
-56.8
 10
11.3
 20
-53.8
 10
12.7
 20
-53.8
 10
12.7
 20
-56.8
  0
LWPOLYLINE
  5
44
100
AcDbEntity
  8
ASSEMBLY_OUTLINES_BTM
100
AcDbPolyline
 90
        2
 70
         0
 43
0.1
 10
12.7
 20
-56.7
 10
12.6
 20
-56.8
  0
LWPOLYLINE
  5
45
100
AcDbEntity
  8
ASSEMBLY_OUTLINES_BTM
100
AcDbPolyline
 90
        2
 70
         0
 43
0.1
 10
12.7
 20
-56.6
 10
12.5
 20
-56.8
  0
LWPOLYLINE
  5
46
100
AcDbEntity
  8
ASSEMBLY_OUTLINES_BTM
100
AcDbPolyline
 90
        2
 70
         0
 43
0.1
 10
12.7
 20
-56.5
 10
12.4
 20
-56.8
  0
LWPOLYLINE
  5
47
100
AcDbEntity
  8
ASSEMBLY_OUTLINES_BTM
100
AcDbPolyline
 90
        2
 70
         0
 43
0.1
 10
12.7
 20
-56.4
 10
12.3
 20
-56.8
  0
LWPOLYLINE
  5
48
100
AcDbEntity
  8
ASSEMBLY_OUTLINES_BTM
100
AcDbPolyline
 90
        2
 70
         0
 43
0.1
 10
12.7
 20
-56.3
 10
12.2
 20
-56.8
  0
LWPOLYLINE
  5
49
100
AcDbEntity
  8
ASSEMBLY_OUTLINES_BTM
100
AcDbPolyline
 90
        2
 70
         0
 43
0.1
 10
12.7
 20
-56.2
 10
12.1
 20
-56.8
  0
LWPOLYLINE
  5
4A
100
AcDbEntity
  8
ASSEMBLY_OUTLINES_BTM
100
AcDbPolyline
 90
        4
 70
         1
 43
0.1
 10
34.1
 20
-55.0
 10
34.1
 20
-51.2
 10
39.7
 20
-51.2
 10
39.7
 20
-55.0
  0
LWPOLYLINE
  5
4B
100
AcDbEntity
  8
ASSEMBLY_OUTLINES_BTM
100
AcDbPolyline
 90
        2
 70
         0
 43
0.1
 10
39.6
 20
-51.2
 10
39.6
 20
-55.0
  0
LWPOLYLINE
  5
4C
100
AcDbEntity
  8
ASSEMBLY_OUTLINES_BTM
100
AcDbPolyline
 90
        2
 70
         0
 43
0.1
 10
39.5
 20
-51.2
 10
39.5
 20
-55.0
  0
LWPOLYLINE
  5
4D
100
AcDbEntity
  8
ASSEMBLY_OUTLINES_BTM
100
AcDbPolyline
 90
        2
 70
         0
 43
0.1
 10
39.4
 20
-51.2
 10
39.4
 20
-55.0
  0
LWPOLYLINE
  5
4E
100
AcDbEntity
  8
ASSEMBLY_OUTLINES_BTM
100
AcDbPolyline
 90
        2
 70
         0
 43
0.1
 10
39.3
 20
-51.2
 10
39.3
 20
-55.0
  0
LWPOLYLINE
  5
4F
100
AcDbEntity
  8
ASSEMBLY_OUTLINES_BTM
100
AcDbPolyline
 90
        2
 70
         0
 43
0.1
 10
39.2
 20
-51.2
 10
39.2
 20
-55.0
  0
LWPOLYLINE
  5
50
100
AcDbEntity
  8
ASSEMBLY_OUTLINES_BTM
100
AcDbPolyline
 90
        2
 70
         0
 43
0.1
 10
39.1
 20
-51.2
 10
39.1
 20
-55.0
  0
LWPOLYLINE
  5
51
100
AcDbEntity
  8
ASSEMBLY_OUTLINES_BTM
100
AcDbPolyline
 90
        2
 70
         0
 43
0.1
 10
39.0
 20
-51.2
 10
39.0
 20
-55.0
  0
LWPOLYLINE
  5
52
100
AcDbEntity
  8
ASSEMBLY_OUTLINES_BTM
100
AcDbPolyline
 90
        2
 70
         0
 43
0.1
 10
38.9
 20
-51.2
 10
38.9
 20
-55.0
  0
LWPOLYLINE
  5
53
100
AcDbEntity
  8
ASSEMBLY_OUTLINES_BTM
100
AcDbPolyline
 90
        4
 70
         1
 43
0.1
 10
11.3
 20
-53.5
 10
11.3
 20
-50.5
 10
12.7
 20
-50.5
 10
12.7
 20
-53.5
  0
LWPOLYLINE
  5
54
100
AcDbEntity
  8
ASSEMBLY_OUTLINES_BTM
100
AcDbPolyline
 90
        2
 70
         0
 43
0.1
 10
11.3
 20
-50.6
 10
11.4
 20
-50.5
  0
LWPOLYLINE
  5
55
100
AcDbEntity
  8
ASSEMBLY_OUTLINES_BTM
100
AcDbPolyline
 90
        2
 70
         0
 43
0.1
 10
11.3
 20
-50.7
 10
11.5
 20
-50.5
  0
LWPOLYLINE
  5
56
100
AcDbEntity
  8
ASSEMBLY_OUTLINES_BTM
100
AcDbPolyline
 90
        2
 70
         0
 43
0.1
 10
11.3
 20
-50.8
 10
11.6
 20
-50.5
  0
LWPOLYLINE
  5
57
100
AcDbEntity
  8
ASSEMBLY_OUTLINES_BTM
100
AcDbPolyline
 90
        2
 70
         0
 43
0.1
 10
11.3
 20
-50.9
 10
11.7
 20
-50.5
  0
LWPOLYLINE
  5
58
100
AcDbEntity
  8
ASSEMBLY_OUTLINES_BTM
100
AcDbPolyline
 90
        2
 70
         0
 43
0.1
 10
11.3
 20
-51.0
 10
11.8
 20
-50.5
  0
LWPOLYLINE
  5
59
100
AcDbEntity
  8
ASSEMBLY_OUTLINES_BTM
100
AcDbPolyline
 90
        2
 70
         0
 43
0.1
 10
11.3
 20
-51.1
 10
11.9
 20
-50.5
  0
LWPOLYLINE
  5
5A
100
AcDbEntity
  8
ASSEMBLY_OUTLINES_BTM
100
AcDbPolyline
 90
        4
 70
         1
 43
0.1
 10
149.4
 20
-71.25
 10
149.4
 20
-69.95
 10
152.2
 20
-69.95
 10
152.2
 20
-71.25
  0
LWPOLYLINE
  5
5B
100
AcDbEntity
  8
ASSEMBLY_OUTLINES_BTM
100
AcDbPolyline
 90
        4
 70
         1
 43
0.1
 10
29.45
 20
-54.5
 10
29.45
 20
-52.5
 10
31.05
 20
-52.5
 10
31.05
 20
-54.5
  0
LWPOLYLINE
  5
5C
100
AcDbEntity
  8
ASSEMBLY_OUTLINES_BTM
100
AcDbPolyline
 90
        4
 70
         1
 43
0.1
 10
107.9
 20
-89.4
 10
107.9
 20
-88.1
 10
110.8
 20
-88.1
 10
110.8
 20
-89.4
  0
LWPOLYLINE
  5
5D
100
AcDbEntity
  8
ASSEMBLY_OUTLINES_BTM
100
AcDbPolyline
 90
        4
 70
         1
 43
0.1
 10
142.51
 20
-95.95
 10
142.51
 20
-74.95
 10
158.77
 20
-74.95
 10
158.77
 20
-95.95
  0
LWPOLYLINE
  5
5E
100
AcDbEntity
  8
ASSEMBLY_OUTLINES_BTM
100
AcDbPolyline
 90
        4
 70
         1
 43
0.0
 10
176.37
 20
-84.64
 10
176.37
 20
-79.56
 10
182.37
 20
-79.56
 10
182.37
 20
-84.64
  0
LWPOLYLINE
  5
5F
100
AcDbEntity
  8
ASSEMBLY_OUTLINES_BTM
100
AcDbPolyline
 90
        4
 70
         1
 43
0.1
 10
14.2
 20
-61.25
 10
14.2
 20
-59.95
 10
17.0
 20
-59.95
 10
17.0
 20
-61.25
  0
LWPOLYLINE
  5
60
100
AcDbEntity
  8
ASSEMBLY_OUTLINES_BTM
100
AcDbPolyline
 90
        4
 70
         1
 43
0.1
 10
22.45
 20
-61.75
 10
22.45
 20
-60.45
 10
25.35
 20
-60.45
 10
25.35
 20
-61.75
  0
CIRCLE
  5
61
100
AcDbEntity
  8
ASSEMBLY_OUTLINES_BTM
100
AcDbCircle
 10
106.25
 20
-93.0
 30
0.0
 40
0.25
  0
HATCH
  5
62
100
AcDbEntity
  8
ASSEMBLY_OUTLINES_BTM
100
AcDbHatch
 10
0.0
 20
0.0
 30
0.0
 210
0.0
 220
0.0
 230
1.0
  2
SOLID
 70
         1
 71
        1
 91
        1
  92
     1
  93
     1
 72
     2
 10
106.25
 20
-93.0
  40
0.25
  50
     0.0
  51
     360.0
 73
     0
  97
     1
  330
    97
 75
     0
 76
     1
  98
     1
 10
0.0
 20
0.0
  0
LWPOLYLINE
  5
63
100
AcDbEntity
  8
ASSEMBLY_OUTLINES_BTM
100
AcDbPolyline
 90
        4
 70
         1
 43
0.1
 10
102.55
 20
-96.0
 10
102.55
 20
-90.5
 10
109.95
 20
-90.5
 10
109.95
 20
-96.0
  0
LWPOLYLINE
  5
64
100
AcDbEntity
  8
ASSEMBLY_OUTLINES_BTM
100
AcDbPolyline
 90
        2
 70
         0
 43
0.1
 10
104.95
 20
-90.5
 10
104.95
 20
-90.2
  0
LWPOLYLINE
  5
65
100
AcDbEntity
  8
ASSEMBLY_OUTLINES_BTM
100
AcDbPolyline
 90
        2
 70
         0
 43
0.1
 10
106.25
 20
-90.5
 10
106.25
 20
-90.2
  0
LWPOLYLINE
  5
66
100
AcDbEntity
  8
ASSEMBLY_OUTLINES_BTM
100
AcDbPolyline
 90
        2
 70
         0
 43
0.1
 10
107.55
 20
-90.5
 10
107.55
 20
-90.2
  0
LWPOLYLINE
  5
67
100
AcDbEntity
  8
ASSEMBLY_OUTLINES_BTM
100
AcDbPolyline
 90
        2
 70
         0
 43
0.1
 10
105.6
 20
-90.5
 10
105.6
 20
-90.2
  0
LWPOLYLINE
  5
68
100
AcDbEntity
  8
ASSEMBLY_OUTLINES_BTM
100
AcDbPolyline
 90
        2
 70
         0
 43
0.1
 10
106.9
 20
-90.5
 10
106.9
 20
-90.2
  0
LWPOLYLINE
  5
69
100
AcDbEntity
  8
ASSEMBLY_OUTLINES_BTM
100
AcDbPolyline
 90
        2
 70
         0
 43
0.02
 10
102.55
 20
-95.5
 10
109.95
 20
-95.5
  0
LWPOLYLINE
  5
6A
100
AcDbEntity
  8
ASSEMBLY_OUTLINES_BTM
100
AcDbPolyline
 90
        4
 70
         1
 43
0.1
 10
27.2
 20
-60.05
 10
27.2
 20
-58.75
 10
30.0
 20
-58.75
 10
30.0
 20
-60.05
  0
LWPOLYLINE
  5
6B
100
AcDbEntity
  8
ASSEMBLY_OUTLINES_BTM
100
AcDbPolyline
 90
        4
 70
         1
 43
0.1
 10
25.65
 20
-60.15
 10
25.65
 20
-57.25
 10
26.95
 20
-57.25
 10
26.95
 20
-60.15
  0
LWPOLYLINE
  5
6C
100
AcDbEntity
  8
ASSEMBLY_OUTLINES_BTM
100
AcDbPolyline
 90
        4
 70
         1
 43
0.0
 10
165.2
 20
-93.55
 10
165.2
 20
-81.75
 10
170.8
 20
-81.75
 10
170.8
 20
-93.55
  0
LWPOLYLINE
  5
6D
100
AcDbEntity
  8
ASSEMBLY_OUTLINES_BTM
100
AcDbPolyline
 90
        4
 70
         1
 43
0.0
 10
165.5
 20
-96.05
 10
165.5
 20
-93.55
 10
170.5
 20
-93.55
 10
170.5
 20
-96.05
  0
LWPOLYLINE
  5
6E
100
AcDbEntity
  8
ASSEMBLY_OUTLINES_BTM
100
AcDbPolyline
 90
        4
 70
         1
 43
0.1
 10
14.2
 20
-59.85
 10
14.2
 20
-58.55
 10
17.0
 20
-58.55
 10
17.0
 20
-59.85
  0
LWPOLYLINE
  5
6F
100
AcDbEntity
  8
ASSEMBLY_OUTLINES_BTM
100
AcDbPolyline
 90
        4
 70
         1
 43
0.1
 10
22.45
 20
-60.15
 10
22.45
 20
-58.85
 10
25.35
 20
-58.85
 10
25.35
 20
-60.15
  0
LWPOLYLINE
  5
70
100
AcDbEntity
  8
ASSEMBLY_OUTLINES_BTM
100
AcDbPolyline
 90
        4
 70
         1
 43
0.1
 10
119.05
 20
-96.0
 10
119.05
 20
-82.0
 10
131.55
 20
-82.0
 10
131.55
 20
-96.0
  0
LWPOLYLINE
  5
71
100
AcDbEntity
  8
ASSEMBLY_OUTLINES_BTM
100
AcDbPolyline
 90
        4
 70
         1
 43
0.1
 10
17.55
 20
-58.2
 10
17.55
 20
-55.4
 10
18.85
 20
-55.4
 10
18.85
 20
-58.2
  0
LWPOLYLINE
  5
72
100
AcDbEntity
  8
ASSEMBLY_OUTLINES_BTM
100
AcDbPolyline
 90
        4
 70
         1
 43
0.1
 10
27.25
 20
-58.55
 10
27.25
 20
-57.25
 10
30.15
 20
-57.25
 10
30.15
 20
-58.55
  0
LWPOLYLINE
  5
73
100
AcDbEntity
  8
ASSEMBLY_OUTLINES_BTM
100
AcDbPolyline
 90
        4
 70
         1
 43
0.1
 10
132.75
 20
-74.5
 10
132.75
 20
-68.5
 10
137.0
 20
-68.5
 10
137.0
 20
-74.5
  0
LWPOLYLINE
  5
74
100
AcDbEntity
  8
ASSEMBLY_OUTLINES_BTM
100
AcDbPolyline
 90
        4
 70
         1
 43
0.1
 10
165.8
 20
-56.3
 10
165.8
 20
-53.5
 10
167.1
 20
-53.5
 10
167.1
 20
-56.3
  0
LWPOLYLINE
  5
75
100
AcDbEntity
  8
ASSEMBLY_OUTLINES_BTM
100
AcDbPolyline
 90
        4
 70
         1
 43
0.1
 10
22.45
 20
-58.55
 10
22.45
 20
-57.25
 10
25.35
 20
-57.25
 10
25.35
 20
-58.55
  0
LWPOLYLINE
  5
76
100
AcDbEntity
  8
ASSEMBLY_OUTLINES_BTM
100
AcDbPolyline
 90
        4
 70
         1
 43
0.0
 10
176.4
 20
-62.37
 10
176.4
 20
-54.75
 10
182.4
 20
-54.75
 10
182.4
 20
-62.37
  0
LWPOLYLINE
  5
77
100
AcDbEntity
  8
ASSEMBLY_OUTLINES_BTM
100
AcDbPolyline
 90
        4
 70
         1
 43
0.1
 10
163.6
 20
-56.25
 10
163.6
 20
-53.45
 10
164.9
 20
-53.45
 10
164.9
 20
-56.25
  0
LWPOLYLINE
  5
78
100
AcDbEntity
  8
ASSEMBLY_OUTLINES_BTM
100
AcDbPolyline
 90
        4
 70
         1
 43
0.1
 10
14.15
 20
-53.7
 10
14.15
 20
-50.9
 10
15.45
 20
-50.9
 10
15.45
 20
-53.7
  0
LWPOLYLINE
  5
79
100
AcDbEntity
  8
ASSEMBLY_OUTLINES_BTM
100
AcDbPolyline
 90
        4
 70
         1
 43
0.1
 10
31.2
 20
-50.75
 10
31.2
 20
-49.45
 10
34.0
 20
-49.45
 10
34.0
 20
-50.75
  0
LWPOLYLINE
  5
7A
100
AcDbEntity
  8
ASSEMBLY_OUTLINES_BTM
100
AcDbPolyline
 90
        4
 70
         1
 43
0.1
 10
27.8
 20
-50.75
 10
27.8
 20
-49.45
 10
30.6
 20
-49.45
 10
30.6
 20
-50.75
  0
LWPOLYLINE
  5
7B
100
AcDbEntity
  8
ASSEMBLY_OUTLINES_BTM
100
AcDbPolyline
 90
        4
 70
         1
 43
0.1
 10
31.2
 20
-48.85
 10
31.2
 20
-47.55
 10
34.0
 20
-47.55
 10
34.0
 20
-48.85
  0
LWPOLYLINE
  5
7C
100
AcDbEntity
  8
ASSEMBLY_OUTLINES_BTM
100
AcDbPolyline
 90
        4
 70
         1
 43
0.1
 10
15.75
 20
-56.75
 10
15.75
 20
-53.85
 10
17.05
 20
-53.85
 10
17.05
 20
-56.75
  0
LWPOLYLINE
  5
7D
100
AcDbEntity
  8
ASSEMBLY_OUTLINES_BTM
100
AcDbPolyline
 90
        4
 70
         1
 43
0.1
 10
19.45
 20
-58.75
 10
19.45
 20
-55.85
 10
20.75
 20
-55.85
 10
20.75
 20
-58.75
  0
LWPOLYLINE
  5
7E
100
AcDbEntity
  8
ASSEMBLY_OUTLINES_BTM
100
AcDbPolyline
 90
        4
 70
         1
 43
0.1
 10
27.8
 20
-48.85
 10
27.8
 20
-47.55
 10
30.6
 20
-47.55
 10
30.6
 20
-48.85
  0
LWPOLYLINE
  5
7F
100
AcDbEntity
  8
ASSEMBLY_OUTLINES_BTM
100
AcDbPolyline
 90
        4
 70
         1
 43
0.1
 10
14.15
 20
-56.75
 10
14.15
 20
-53.85
 10
15.45
 20
-53.85
 10
15.45
 20
-56.75
  0
LWPOLYLINE
  5
80
100
AcDbEntity
  8
ASSEMBLY_OUTLINES_BTM
100
AcDbPolyline
 90
        4
 70
         1
 43
0.1
 10
15.75
 20
-50.2
 10
15.75
 20
-47.4
 10
17.05
 20
-47.4
 10
17.05
 20
-50.2
  0
LWPOLYLINE
  5
81
100
AcDbEntity
  8
ASSEMBLY_OUTLINES_BTM
100
AcDbPolyline
 90
        4
 70
         1
 43
0.1
 10
123.35
 20
-59.452084
 10
123.35
 20
-49.952084
 10
153.35
 20
-49.952084
 10
153.35
 20
-59.452084
  0
LWPOLYLINE
  5
82
100
AcDbEntity
  8
ASSEMBLY_OUTLINES_BTM
100
AcDbPolyline
 90
        4
 70
         1
 43
0.1
 10
123.35
 20
-54.402084
 10
123.35
 20
-3.402084
 10
153.35
 20
-3.402084
 10
153.35
 20
-54.402084
  0
CIRCLE
  5
83
100
AcDbEntity
  8
ASSEMBLY_OUTLINES_BTM
100
AcDbCircle
 10
126.25
 20
-6.352084
 30
0.0
 40
1.5
  0
HATCH
  5
84
100
AcDbEntity
  8
ASSEMBLY_OUTLINES_BTM
100
AcDbHatch
 10
0.0
 20
0.0
 30
0.0
 210
0.0
 220
0.0
 230
1.0
  2
SOLID
 70
         1
 71
        1
 91
        1
  92
     1
  93
     1
 72
     2
 10
126.25
 20
-6.352084
  40
1.5
  50
     0.0
  51
     360.0
 73
     0
  97
     1
  330
    131
 75
     0
 76
     1
  98
     1
 10
0.0
 20
0.0
  0
CIRCLE
  5
85
100
AcDbEntity
  8
ASSEMBLY_OUTLINES_BTM
100
AcDbCircle
 10
150.45
 20
-6.352084
 30
0.0
 40
1.5
  0
HATCH
  5
86
100
AcDbEntity
  8
ASSEMBLY_OUTLINES_BTM
100
AcDbHatch
 10
0.0
 20
0.0
 30
0.0
 210
0.0
 220
0.0
 230
1.0
  2
SOLID
 70
         1
 71
        1
 91
        1
  92
     1
  93
     1
 72
     2
 10
150.45
 20
-6.352084
  40
1.5
  50
     0.0
  51
     360.0
 73
     0
  97
     1
  330
    133
 75
     0
 76
     1
  98
     1
 10
0.0
 20
0.0
  0
CIRCLE
  5
87
100
AcDbEntity
  8
ASSEMBLY_OUTLINES_BTM
100
AcDbCircle
 10
126.25
 20
-30.502084
 30
0.0
 40
1.5
  0
HATCH
  5
88
100
AcDbEntity
  8
ASSEMBLY_OUTLINES_BTM
100
AcDbHatch
 10
0.0
 20
0.0
 30
0.0
 210
0.0
 220
0.0
 230
1.0
  2
SOLID
 70
         1
 71
        1
 91
        1
  92
     1
  93
     1
 72
     2
 10
126.25
 20
-30.502084
  40
1.5
  50
     0.0
  51
     360.0
 73
     0
  97
     1
  330
    135
 75
     0
 76
     1
  98
     1
 10
0.0
 20
0.0
  0
CIRCLE
  5
89
100
AcDbEntity
  8
ASSEMBLY_OUTLINES_BTM
100
AcDbCircle
 10
150.45
 20
-30.502084
 30
0.0
 40
1.5
  0
HATCH
  5
8A
100
AcDbEntity
  8
ASSEMBLY_OUTLINES_BTM
100
AcDbHatch
 10
0.0
 20
0.0
 30
0.0
 210
0.0
 220
0.0
 230
1.0
  2
SOLID
 70
         1
 71
        1
 91
        1
  92
     1
  93
     1
 72
     2
 10
150.45
 20
-30.502084
  40
1.5
  50
     0.0
  51
     360.0
 73
     0
  97
     1
  330
    137
 75
     0
 76
     1
  98
     1
 10
0.0
 20
0.0
  0
LWPOLYLINE
  5
8B
100
AcDbEntity
  8
ASSEMBLY_OUTLINES_BTM
100
AcDbPolyline
 90
        4
 70
         1
 43
0.0
 10
176.4
 20
-19.25
 10
176.4
 20
-11.63
 10
182.4
 20
-11.63
 10
182.4
 20
-19.25
  0
LWPOLYLINE
  5
8C
100
AcDbEntity
  8
ASSEMBLY_OUTLINES_BTM
100
AcDbPolyline
 90
        4
 70
         1
 43
0.1
 10
12.55
 20
-48.55
 10
12.55
 20
-45.65
 10
13.85
 20
-45.65
 10
13.85
 20
-48.55
  0
LWPOLYLINE
  5
8D
100
AcDbEntity
  8
ASSEMBLY_OUTLINES_BTM
100
AcDbPolyline
 90
        4
 70
         1
 43
0.1
 10
14.15
 20
-50.2
 10
14.15
 20
-47.4
 10
15.45
 20
-47.4
 10
15.45
 20
-50.2
  0
LWPOLYLINE
  5
8E
100
AcDbEntity
  8
ASSEMBLY_OUTLINES_BTM
100
AcDbPolyline
 90
        5
 70
         1
 43
0.0
 10
112.7
 20
-12.4
 10
110.95
 20
-9.9
 10
109.2
 20
-12.4
 10
109.2
 20
-14.4
 10
112.7
 20
-14.4
  0
HATCH
  5
8F
100
AcDbEntity
  8
ASSEMBLY_OUTLINES_BTM
100
AcDbHatch
 10
0.0
 20
0.0
 30
0.0
 210
0.0
 220
0.0
 230
1.0
  2
SOLID
 70
         1
 71
        1
 91
        1
  92
     2
 72
     0
 73
     1
  93
     5
 10
112.7
 20
-12.4
 10
110.95
 20
-9.9
 10
109.2
 20
-12.4
 10
109.2
 20
-14.4
 10
112.7
 20
-14.4
  97
     1
  330
    142
 75
     0
 76
     1
  98
     1
 10
0.0
 20
0.0
  0
LWPOLYLINE
  5
90
100
AcDbEntity
  8
ASSEMBLY_OUTLINES_BTM
100
AcDbPolyline
 90
        4
 70
         1
 43
0.1
 10
21.35
 20
-45.75
 10
21.35
 20
-42.85
 10
22.65
 20
-42.85
 10
22.65
 20
-45.75
  0
LWPOLYLINE
  5
91
100
AcDbEntity
  8
ASSEMBLY_OUTLINES_BTM
100
AcDbPolyline
 90
        4
 70
         1
 43
0.1
 10
10.9
 20
-50.15
 10
10.9
 20
-48.85
 10
13.7
 20
-48.85
 10
13.7
 20
-50.15
  0
LWPOLYLINE
  5
92
100
AcDbEntity
  8
ASSEMBLY_OUTLINES_BTM
100
AcDbPolyline
 90
        5
 70
         1
 43
0.0
 10
62.7
 20
-12.4
 10
60.95
 20
-9.9
 10
59.2
 20
-12.4
 10
59.2
 20
-14.4
 10
62.7
 20
-14.4
  0
HATCH
  5
93
100
AcDbEntity
  8
ASSEMBLY_OUTLINES_BTM
100
AcDbHatch
 10
0.0
 20
0.0
 30
0.0
 210
0.0
 220
0.0
 230
1.0
  2
SOLID
 70
         1
 71
        1
 91
        1
  92
     2
 72
     0
 73
     1
  93
     5
 10
62.7
 20
-12.4
 10
60.95
 20
-9.9
 10
59.2
 20
-12.4
 10
59.2
 20
-14.4
 10
62.7
 20
-14.4
  97
     1
  330
    146
 75
     0
 76
     1
  98
     1
 10
0.0
 20
0.0
  0
LWPOLYLINE
  5
94
100
AcDbEntity
  8
ASSEMBLY_OUTLINES_BTM
100
AcDbPolyline
 90
        4
 70
         1
 43
0.1
 10
25.05
 20
-43.2
 10
25.05
 20
-41.9
 10
27.95
 20
-41.9
 10
27.95
 20
-43.2
  0
LWPOLYLINE
  5
95
100
AcDbEntity
  8
ASSEMBLY_OUTLINES_BTM
100
AcDbPolyline
 90
        4
 70
         1
 43
0.1
 10
23.7
 20
-56.65
 10
23.7
 20
-55.35
 10
26.5
 20
-55.35
 10
26.5
 20
-56.65
  0
LWPOLYLINE
  5
96
100
AcDbEntity
  8
ASSEMBLY_OUTLINES_BTM
100
AcDbPolyline
 90
        4
 70
         1
 43
0.1
 10
31.2
 20
-46.95
 10
31.2
 20
-45.65
 10
34.0
 20
-45.65
 10
34.0
 20
-46.95
  0
LWPOLYLINE
  5
97
100
AcDbEntity
  8
ASSEMBLY_OUTLINES_BTM
100
AcDbPolyline
 90
        4
 70
         1
 43
0.1
 10
26.9
 20
-45.05
 10
26.9
 20
-43.75
 10
29.7
 20
-43.75
 10
29.7
 20
-45.05
  0
LWPOLYLINE
  5
98
100
AcDbEntity
  8
ASSEMBLY_OUTLINES_BTM
100
AcDbPolyline
 90
        4
 70
         1
 43
0.0
 10
176.4
 20
-11.61
 10
176.4
 20
-3.99
 10
182.4
 20
-3.99
 10
182.4
 20
-11.61
  0
LWPOLYLINE
  5
99
100
AcDbEntity
  8
ASSEMBLY_OUTLINES_BTM
100
AcDbPolyline
 90
        4
 70
         1
 43
0.1
 10
17.35
 20
-43.25
 10
17.35
 20
-41.95
 10
20.25
 20
-41.95
 10
20.25
 20
-43.25
  0
LWPOLYLINE
  5
9A
100
AcDbEntity
  8
ASSEMBLY_OUTLINES_BTM
100
AcDbPolyline
 90
        4
 70
         1
 43
0.1
 10
23.05
 20
-45.9
 10
23.05
 20
-43.1
 10
24.35
 20
-43.1
 10
24.35
 20
-45.9
  0
LWPOLYLINE
  5
9B
100
AcDbEntity
  8
ASSEMBLY_OUTLINES_BTM
100
AcDbPolyline
 90
        4
 70
         1
 43
0.1
 10
27.8
 20
-46.95
 10
27.8
 20
-45.65
 10
30.6
 20
-45.65
 10
30.6
 20
-46.95
  0
LWPOLYLINE
  5
9C
100
AcDbEntity
  8
ASSEMBLY_OUTLINES_BTM
100
AcDbPolyline
 90
        4
 70
         1
 43
0.1
 10
14.25
 20
-43.25
 10
14.25
 20
-41.95
 10
17.15
 20
-41.95
 10
17.15
 20
-43.25
  0
LWPOLYLINE
  5
9D
100
AcDbEntity
  8
ASSEMBLY_OUTLINES_BTM
100
AcDbPolyline
 90
        4
 70
         1
 43
0.1
 10
17.5
 20
-46.25
 10
17.5
 20
-44.95
 10
20.3
 20
-44.95
 10
20.3
 20
-46.25
  0
LWPOLYLINE
  5
9E
100
AcDbEntity
  8
ASSEMBLY_OUTLINES_BTM
100
AcDbPolyline
 90
        4
 70
         1
 43
0.1
 10
14.25
 20
-41.75
 10
14.25
 20
-40.45
 10
17.15
 20
-40.45
 10
17.15
 20
-41.75
  0
LWPOLYLINE
  5
9F
100
AcDbEntity
  8
ASSEMBLY_OUTLINES_BTM
100
AcDbPolyline
 90
        4
 70
         1
 43
0.1
 10
17.5
 20
-44.85
 10
17.5
 20
-43.55
 10
20.3
 20
-43.55
 10
20.3
 20
-44.85
  0
LWPOLYLINE
  5
A0
100
AcDbEntity
  8
ASSEMBLY_OUTLINES_BTM
100
AcDbPolyline
 90
        4
 70
         1
 43
0.1
 10
14.15
 20
-58.25
 10
14.15
 20
-56.95
 10
17.05
 20
-56.95
 10
17.05
 20
-58.25
  0
LWPOLYLINE
  5
A1
100
AcDbEntity
  8
ASSEMBLY_OUTLINES_BTM
100
AcDbPolyline
 90
        4
 70
         1
 43
0.1
 10
81.55
 20
-32.35
 10
81.55
 20
-31.05
 10
84.45
 20
-31.05
 10
84.45
 20
-32.35
  0
LWPOLYLINE
  5
A2
100
AcDbEntity
  8
ASSEMBLY_OUTLINES_BTM
100
AcDbPolyline
 90
        4
 70
         1
 43
0.1
 10
73.55
 20
-36.85
 10
73.55
 20
-35.55
 10
76.45
 20
-35.55
 10
76.45
 20
-36.85
  0
LWPOLYLINE
  5
A3
100
AcDbEntity
  8
ASSEMBLY_OUTLINES_BTM
100
AcDbPolyline
 90
        4
 70
         1
 43
0.1
 10
15.75
 20
-47.2
 10
15.75
 20
-44.4
 10
17.05
 20
-44.4
 10
17.05
 20
-47.2
  0
LWPOLYLINE
  5
A4
100
AcDbEntity
  8
ASSEMBLY_OUTLINES_BTM
100
AcDbPolyline
 90
        4
 70
         1
 43
0.1
 10
36.65
 20
-38.55
 10
36.65
 20
-37.25
 10
39.55
 20
-37.25
 10
39.55
 20
-38.55
  0
LWPOLYLINE
  5
A5
100
AcDbEntity
  8
ASSEMBLY_OUTLINES_BTM
100
AcDbPolyline
 90
        4
 70
         1
 43
0.1
 10
70.55
 20
-19.75
 10
70.55
 20
-16.85
 10
71.85
 20
-16.85
 10
71.85
 20
-19.75
  0
LWPOLYLINE
  5
A6
100
AcDbEntity
  8
ASSEMBLY_OUTLINES_BTM
100
AcDbPolyline
 90
        4
 70
         1
 43
0.1
 10
14.15
 20
-47.2
 10
14.15
 20
-44.4
 10
15.45
 20
-44.4
 10
15.45
 20
-47.2
  0
LWPOLYLINE
  5
A7
100
AcDbEntity
  8
ASSEMBLY_OUTLINES_BTM
100
AcDbPolyline
 90
        4
 70
         1
 43
0.0
 10
176.4
 20
-39.17
 10
176.4
 20
-31.55
 10
182.4
 20
-31.55
 10
182.4
 20
-39.17
  0
LWPOLYLINE
  5
A8
100
AcDbEntity
  8
ASSEMBLY_OUTLINES_BTM
100
AcDbPolyline
 90
        4
 70
         1
 43
0.1
 10
98.95
 20
-17.8
 10
98.95
 20
-16.5
 10
101.85
 20
-16.5
 10
101.85
 20
-17.8
  0
LWPOLYLINE
  5
A9
100
AcDbEntity
  8
ASSEMBLY_OUTLINES_BTM
100
AcDbPolyline
 90
        4
 70
         1
 43
0.1
 10
73.6
 20
-34.95
 10
73.6
 20
-33.65
 10
76.4
 20
-33.65
 10
76.4
 20
-34.95
  0
LWPOLYLINE
  5
AA
100
AcDbEntity
  8
ASSEMBLY_OUTLINES_BTM
100
AcDbPolyline
 90
        4
 70
         1
 43
0.1
 10
8.85
 20
-10.85
 10
8.85
 20
-7.95
 10
10.15
 20
-7.95
 10
10.15
 20
-10.85
  0
LWPOLYLINE
  5
AB
100
AcDbEntity
  8
ASSEMBLY_OUTLINES_BTM
100
AcDbPolyline
 90
        4
 70
         1
 43
0.1
 10
15.75
 20
-53.7
 10
15.75
 20
-50.9
 10
17.05
 20
-50.9
 10
17.05
 20
-53.7
  0
LWPOLYLINE
  5
AC
100
AcDbEntity
  8
ASSEMBLY_OUTLINES_BTM
100
AcDbPolyline
 90
        4
 70
         1
 43
0.1
 10
161.8
 20
-56.3
 10
161.8
 20
-53.4
 10
163.1
 20
-53.4
 10
163.1
 20
-56.3
  0
LWPOLYLINE
  5
AD
100
AcDbEntity
  8
ASSEMBLY_OUTLINES_BTM
100
AcDbPolyline
 90
        4
 70
         1
 43
0.0
 10
74.299998
 20
-26.497846
 10
74.299998
 20
-21.497846
 10
103.599998
 20
-21.497846
 10
103.599998
 20
-26.497846
  0
LWPOLYLINE
  5
AE
100
AcDbEntity
  8
ASSEMBLY_OUTLINES_BTM
100
AcDbPolyline
 90
        2
 70
         0
 43
0.1
 10
79.3
 20
-13.9
 10
79.4
 20
-14.0
  0
LWPOLYLINE
  5
AF
100
AcDbEntity
  8
ASSEMBLY_OUTLINES_BTM
100
AcDbPolyline
 90
        2
 70
         0
 43
0.1
 10
79.2
 20
-13.9
 10
79.4
 20
-14.1
  0
LWPOLYLINE
  5
B0
100
AcDbEntity
  8
ASSEMBLY_OUTLINES_BTM
100
AcDbPolyline
 90
        2
 70
         0
 43
0.1
 10
79.1
 20
-13.9
 10
79.4
 20
-14.2
  0
LWPOLYLINE
  5
B1
100
AcDbEntity
  8
ASSEMBLY_OUTLINES_BTM
100
AcDbPolyline
 90
        2
 70
         0
 43
0.1
 10
79.0
 20
-13.9
 10
79.4
 20
-14.3
  0
LWPOLYLINE
  5
B2
100
AcDbEntity
  8
ASSEMBLY_OUTLINES_BTM
100
AcDbPolyline
 90
        2
 70
         0
 43
0.1
 10
78.9
 20
-13.9
 10
79.4
 20
-14.4
  0
LWPOLYLINE
  5
B3
100
AcDbEntity
  8
ASSEMBLY_OUTLINES_BTM
100
AcDbPolyline
 90
        2
 70
         0
 43
0.1
 10
78.8
 20
-13.9
 10
79.4
 20
-14.5
  0
LWPOLYLINE
  5
B4
100
AcDbEntity
  8
ASSEMBLY_OUTLINES_BTM
100
AcDbPolyline
 90
        4
 70
         1
 43
0.1
 10
76.4
 20
-15.3
 10
76.4
 20
-13.9
 10
79.4
 20
-13.9
 10
79.4
 20
-15.3
  0
LWPOLYLINE
  5
B5
100
AcDbEntity
  8
ASSEMBLY_OUTLINES_TOP
100
AcDbPolyline
 90
        3
 70
         1
 43
0.0
 10
183.0
 20
-102.430776
 10
181.86
 20
-101.860776
 10
181.86
 20
-103.000776
  0
HATCH
  5
B6
100
AcDbEntity
  8
ASSEMBLY_OUTLINES_TOP
100
AcDbHatch
 10
0.0
 20
0.0
 30
0.0
 210
0.0
 220
0.0
 230
1.0
  2
SOLID
 70
         1
 71
        1
 91
        1
  92
     2
 72
     0
 73
     1
  93
     3
 10
183.0
 20
-102.430776
 10
181.86
 20
-101.860776
 10
181.86
 20
-103.000776
  97
     1
  330
    181
 75
     0
 76
     1
  98
     1
 10
0.0
 20
0.0
  0
LWPOLYLINE
  5
B7
100
AcDbEntity
  8
ASSEMBLY_OUTLINES_TOP
100
AcDbPolyline
 90
        3
 70
         1
 43
0.0
 10
-2.0
 20
-102.430776
 10
-0.86
 20
-103.000776
 10
-0.86
 20
-101.860776
  0
HATCH
  5
B8
100
AcDbEntity
  8
ASSEMBLY_OUTLINES_TOP
100
AcDbHatch
 10
0.0
 20
0.0
 30
0.0
 210
0.0
 220
0.0
 230
1.0
  2
SOLID
 70
         1
 71
        1
 91
        1
  92
     2
 72
     0
 73
     1
  93
     3
 10
-2.0
 20
-102.430776
 10
-0.86
 20
-103.000776
 10
-0.86
 20
-101.860776
  97
     1
  330
    183
 75
     0
 76
     1
  98
     1
 10
0.0
 20
0.0
  0
LWPOLYLINE
  5
B9
100
AcDbEntity
  8
ASSEMBLY_OUTLINES_TOP
100
AcDbPolyline
 90
        2
 70
         0
 43
0.2
 10
93.805634
 20
-102.430776
 10
182.43
 20
-102.430776
  0
LWPOLYLINE
  5
BA
100
AcDbEntity
  8
ASSEMBLY_OUTLINES_TOP
100
AcDbPolyline
 90
        2
 70
         0
 43
0.2
 10
-1.43
 20
-102.430776
 10
87.194366
 20
-102.430776
  0
LWPOLYLINE
  5
BB
100
AcDbEntity
  8
ASSEMBLY_OUTLINES_TOP
100
AcDbPolyline
 90
        2
 70
         0
 43
0.2
 10
183.0
 20
-96.51
 10
183.0
 20
-102.940776
  0
LWPOLYLINE
  5
BC
100
AcDbEntity
  8
ASSEMBLY_OUTLINES_TOP
100
AcDbPolyline
 90
        2
 70
         0
 43
0.2
 10
-2.0
 20
-96.51
 10
-2.0
 20
-102.940776
  0
LWPOLYLINE
  5
BD
100
AcDbEntity
  8
ASSEMBLY_OUTLINES_TOP
100
AcDbPolyline
 90
        2
 70
         0
 43
0.2032
 10
183.508
 20
-96.0
 10
191.086691
 20
-96.0
  0
LWPOLYLINE
  5
BE
100
AcDbEntity
  8
ASSEMBLY_OUTLINES_TOP
100
AcDbPolyline
 90
        2
 70
         0
 43
0.2032
 10
183.508
 20
4.0
 10
191.086691
 20
4.0
  0
LWPOLYLINE
  5
BF
100
AcDbEntity
  8
ASSEMBLY_OUTLINES_TOP
100
AcDbPolyline
 90
        2
 70
         0
 43
0.2032
 10
190.578691
 20
-95.4285
 10
190.578691
 20
-49.309333
  0
LWPOLYLINE
  5
C0
100
AcDbEntity
  8
ASSEMBLY_OUTLINES_TOP
100
AcDbPolyline
 90
        2
 70
         0
 43
0.2032
 10
190.578691
 20
-42.690666
 10
190.578691
 20
3.4285
  0
LWPOLYLINE
  5
C1
100
AcDbEntity
  8
ASSEMBLY_OUTLINES_TOP
100
AcDbPolyline
 90
        3
 70
         1
 43
0.0
 10
190.578691
 20
-96.0
 10
191.15019
 20
-94.857
 10
190.007191
 20
-94.857001
  0
HATCH
  5
C2
100
AcDbEntity
  8
ASSEMBLY_OUTLINES_TOP
100
AcDbHatch
 10
0.0
 20
0.0
 30
0.0
 210
0.0
 220
0.0
 230
1.0
  2
SOLID
 70
         1
 71
        1
 91
        1
  92
     2
 72
     0
 73
     1
  93
     3
 10
190.578691
 20
-96.0
 10
191.15019
 20
-94.857
 10
190.007191
 20
-94.857001
  97
     1
  330
    193
 75
     0
 76
     1
  98
     1
 10
0.0
 20
0.0
  0
LWPOLYLINE
  5
C3
100
AcDbEntity
  8
ASSEMBLY_OUTLINES_TOP
100
AcDbPolyline
 90
        3
 70
         1
 43
0.0
 10
190.578691
 20
4.0
 10
190.007191
 20
2.857
 10
191.150191
 20
2.857
  0
HATCH
  5
C4
100
AcDbEntity
  8
ASSEMBLY_OUTLINES_TOP
100
AcDbHatch
 10
0.0
 20
0.0
 30
0.0
 210
0.0
 220
0.0
 230
1.0
  2
SOLID
 70
         1
 71
        1
 91
        1
  92
     2
 72
     0
 73
     1
  93
     3
 10
190.578691
 20
4.0
 10
190.007191
 20
2.857
 10
191.150191
 20
2.857
  97
     1
  330
    195
 75
     0
 76
     1
  98
     1
 10
0.0
 20
0.0
  0
LWPOLYLINE
  5
C5
100
AcDbEntity
  8
ASSEMBLY_OUTLINES_TOP
100
AcDbPolyline
 90
        2
 70
         0
 43
0.2032
 10
-2.0
 20
4.508
 10
-2.0
 20
7.751837
  0
LWPOLYLINE
  5
C6
100
AcDbEntity
  8
ASSEMBLY_OUTLINES_TOP
100
AcDbPolyline
 90
        2
 70
         0
 43
0.2032
 10
2.0
 20
0.508
 10
2.0
 20
7.751837
  0
LWPOLYLINE
  5
C7
100
AcDbEntity
  8
ASSEMBLY_OUTLINES_TOP
100
AcDbPolyline
 90
        2
 70
         0
 43
0.2032
 10
-2.5715
 20
7.243837
 10
-4.8575
 20
7.243837
  0
LWPOLYLINE
  5
C8
100
AcDbEntity
  8
ASSEMBLY_OUTLINES_TOP
100
AcDbPolyline
 90
        2
 70
         0
 43
0.2032
 10
2.5715
 20
7.243837
 10
4.8575
 20
7.243837
  0
LWPOLYLINE
  5
C9
100
AcDbEntity
  8
ASSEMBLY_OUTLINES_TOP
100
AcDbPolyline
 90
        3
 70
         1
 43
0.0
 10
-2.0
 20
7.243837
 10
-3.143
 20
7.815336
 10
-3.143
 20
6.672337
  0
HATCH
  5
CA
100
AcDbEntity
  8
ASSEMBLY_OUTLINES_TOP
100
AcDbHatch
 10
0.0
 20
0.0
 30
0.0
 210
0.0
 220
0.0
 230
1.0
  2
SOLID
 70
         1
 71
        1
 91
        1
  92
     2
 72
     0
 73
     1
  93
     3
 10
-2.0
 20
7.243837
 10
-3.143
 20
7.815336
 10
-3.143
 20
6.672337
  97
     1
  330
    201
 75
     0
 76
     1
  98
     1
 10
0.0
 20
0.0
  0
LWPOLYLINE
  5
CB
100
AcDbEntity
  8
ASSEMBLY_OUTLINES_TOP
100
AcDbPolyline
 90
        3
 70
         1
 43
0.0
 10
2.0
 20
7.243837
 10
3.143
 20
6.672337
 10
3.143
 20
7.815337
  0
HATCH
  5
CC
100
AcDbEntity
  8
ASSEMBLY_OUTLINES_TOP
100
AcDbHatch
 10
0.0
 20
0.0
 30
0.0
 210
0.0
 220
0.0
 230
1.0
  2
SOLID
 70
         1
 71
        1
 91
        1
  92
     2
 72
     0
 73
     1
  93
     3
 10
2.0
 20
7.243837
 10
3.143
 20
6.672337
 10
3.143
 20
7.815337
  97
     1
  330
    203
 75
     0
 76
     1
  98
     1
 10
0.0
 20
0.0
  0
LWPOLYLINE
  5
CD
100
AcDbEntity
  8
ASSEMBLY_OUTLINES_TOP
100
AcDbPolyline
 90
        2
 70
         0
 43
0.2032
 10
1.492
 20
0.0
 10
-6.577839
 20
0.0
  0
LWPOLYLINE
  5
CE
100
AcDbEntity
  8
ASSEMBLY_OUTLINES_TOP
100
AcDbPolyline
 90
        2
 70
         0
 43
0.2032
 10
-2.508
 20
4.0
 10
-6.577839
 20
4.0
  0
LWPOLYLINE
  5
CF
100
AcDbEntity
  8
ASSEMBLY_OUTLINES_TOP
100
AcDbPolyline
 90
        2
 70
         0
 43
0.2032
 10
-6.069839
 20
-0.5715
 10
-6.069839
 20
-2.8575
  0
LWPOLYLINE
  5
D0
100
AcDbEntity
  8
ASSEMBLY_OUTLINES_TOP
100
AcDbPolyline
 90
        2
 70
         0
 43
0.2032
 10
-6.069839
 20
4.5715
 10
-6.069839
 20
6.8575
  0
LWPOLYLINE
  5
D1
100
AcDbEntity
  8
ASSEMBLY_OUTLINES_TOP
100
AcDbPolyline
 90
        3
 70
         1
 43
0.0
 10
-6.069839
 20
0.0
 10
-6.641339
 20
-1.143
 10
-5.498339
 20
-1.143
  0
HATCH
  5
D2
100
AcDbEntity
  8
ASSEMBLY_OUTLINES_TOP
100
AcDbHatch
 10
0.0
 20
0.0
 30
0.0
 210
0.0
 220
0.0
 230
1.0
  2
SOLID
 70
         1
 71
        1
 91
        1
  92
     2
 72
     0
 73
     1
  93
     3
 10
-6.069839
 20
0.0
 10
-6.641339
 20
-1.143
 10
-5.498339
 20
-1.143
  97
     1
  330
    209
 75
     0
 76
     1
  98
     1
 10
0.0
 20
0.0
  0
LWPOLYLINE
  5
D3
100
AcDbEntity
  8
ASSEMBLY_OUTLINES_TOP
100
AcDbPolyline
 90
        3
 70
         1
 43
0.0
 10
-6.069839
 20
4.0
 10
-5.49834
 20
5.143
 10
-6.641339
 20
5.142999
  0
HATCH
  5
D4
100
AcDbEntity
  8
ASSEMBLY_OUTLINES_TOP
100
AcDbHatch
 10
0.0
 20
0.0
 30
0.0
 210
0.0
 220
0.0
 230
1.0
  2
SOLID
 70
         1
 71
        1
 91
        1
  92
     2
 72
     0
 73
     1
  93
     3
 10
-6.069839
 20
4.0
 10
-5.49834
 20
5.143
 10
-6.641339
 20
5.142999
  97
     1
  330
    211
 75
     0
 76
     1
  98
     1
 10
0.0
 20
0.0
  0
LWPOLYLINE
  5
D5
100
AcDbEntity
  8
ASSEMBLY_OUTLINES_TOP
100
AcDbPolyline
 90
        2
 70
         0
 43
0.2
 10
179.51
 20
0.0
 10
188.184689
 20
0.0
  0
LWPOLYLINE
  5
D6
100
AcDbEntity
  8
ASSEMBLY_OUTLINES_TOP
100
AcDbPolyline
 90
        2
 70
         0
 43
0.2
 10
183.51
 20
4.0
 10
188.184689
 20
4.0
  0
LWPOLYLINE
  5
D7
100
AcDbEntity
  8
ASSEMBLY_OUTLINES_TOP
100
AcDbPolyline
 90
        2
 70
         0
 43
0.2
 10
187.674689
 20
-0.57
 10
187.674689
 20
-2.85
  0
LWPOLYLINE
  5
D8
100
AcDbEntity
  8
ASSEMBLY_OUTLINES_TOP
100
AcDbPolyline
 90
        2
 70
         0
 43
0.2
 10
187.674689
 20
4.57
 10
187.674689
 20
6.85
  0
LWPOLYLINE
  5
D9
100
AcDbEntity
  8
ASSEMBLY_OUTLINES_TOP
100
AcDbPolyline
 90
        3
 70
         1
 43
0.0
 10
187.674689
 20
0.0
 10
187.104689
 20
-1.14
 10
188.244689
 20
-1.14
  0
HATCH
  5
DA
100
AcDbEntity
  8
ASSEMBLY_OUTLINES_TOP
100
AcDbHatch
 10
0.0
 20
0.0
 30
0.0
 210
0.0
 220
0.0
 230
1.0
  2
SOLID
 70
         1
 71
        1
 91
        1
  92
     2
 72
     0
 73
     1
  93
     3
 10
187.674689
 20
0.0
 10
187.104689
 20
-1.14
 10
188.244689
 20
-1.14
  97
     1
  330
    217
 75
     0
 76
     1
  98
     1
 10
0.0
 20
0.0
  0
LWPOLYLINE
  5
DB
100
AcDbEntity
  8
ASSEMBLY_OUTLINES_TOP
100
AcDbPolyline
 90
        3
 70
         1
 43
0.0
 10
187.674689
 20
4.0
 10
188.244688
 20
5.14
 10
187.104689
 20
5.14
  0
HATCH
  5
DC
100
AcDbEntity
  8
ASSEMBLY_OUTLINES_TOP
100
AcDbHatch
 10
0.0
 20
0.0
 30
0.0
 210
0.0
 220
0.0
 230
1.0
  2
SOLID
 70
         1
 71
        1
 91
        1
  92
     2
 72
     0
 73
     1
  93
     3
 10
187.674689
 20
4.0
 10
188.244688
 20
5.14
 10
187.104689
 20
5.14
  97
     1
  330
    219
 75
     0
 76
     1
  98
     1
 10
0.0
 20
0.0
  0
LWPOLYLINE
  5
DD
100
AcDbEntity
  8
ASSEMBLY_OUTLINES_TOP
100
AcDbPolyline
 90
        2
 70
         0
 43
0.2
 10
179.0
 20
0.51
 10
179.0
 20
7.719059
  0
LWPOLYLINE
  5
DE
100
AcDbEntity
  8
ASSEMBLY_OUTLINES_TOP
100
AcDbPolyline
 90
        2
 70
         0
 43
0.2
 10
183.0
 20
4.51
 10
183.0
 20
7.719059
  0
LWPOLYLINE
  5
DF
100
AcDbEntity
  8
ASSEMBLY_OUTLINES_TOP
100
AcDbPolyline
 90
        2
 70
         0
 43
0.2
 10
178.43
 20
7.209059
 10
176.15
 20
7.209059
  0
LWPOLYLINE
  5
E0
100
AcDbEntity
  8
ASSEMBLY_OUTLINES_TOP
100
AcDbPolyline
 90
        2
 70
         0
 43
0.2
 10
183.57
 20
7.209059
 10
185.85
 20
7.209059
  0
LWPOLYLINE
  5
E1
100
AcDbEntity
  8
ASSEMBLY_OUTLINES_TOP
100
AcDbPolyline
 90
        3
 70
         1
 43
0.0
 10
179.0
 20
7.209059
 10
177.86
 20
7.779059
 10
177.86
 20
6.639059
  0
HATCH
  5
E2
100
AcDbEntity
  8
ASSEMBLY_OUTLINES_TOP
100
AcDbHatch
 10
0.0
 20
0.0
 30
0.0
 210
0.0
 220
0.0
 230
1.0
  2
SOLID
 70
         1
 71
        1
 91
        1
  92
     2
 72
     0
 73
     1
  93
     3
 10
179.0
 20
7.209059
 10
177.86
 20
7.779059
 10
177.86
 20
6.639059
  97
     1
  330
    225
 75
     0
 76
     1
  98
     1
 10
0.0
 20
0.0
  0
LWPOLYLINE
  5
E3
100
AcDbEntity
  8
ASSEMBLY_OUTLINES_TOP
100
AcDbPolyline
 90
        3
 70
         1
 43
0.0
 10
183.0
 20
7.209059
 10
184.14
 20
6.639059
 10
184.14
 20
7.779059
  0
HATCH
  5
E4
100
AcDbEntity
  8
ASSEMBLY_OUTLINES_TOP
100
AcDbHatch
 10
0.0
 20
0.0
 30
0.0
 210
0.0
 220
0.0
 230
1.0
  2
SOLID
 70
         1
 71
        1
 91
        1
  92
     2
 72
     0
 73
     1
  93
     3
 10
183.0
 20
7.209059
 10
184.14
 20
6.639059
 10
184.14
 20
7.779059
  97
     1
  330
    227
 75
     0
 76
     1
  98
     1
 10
0.0
 20
0.0
  0
LWPOLYLINE
  5
E5
100
AcDbEntity
  8
ASSEMBLY_OUTLINES_TOP
100
AcDbPolyline
 90
        2
 70
         0
 43
0.2
 10
179.0
 20
-92.51
 10
179.0
 20
-100.474377
  0
LWPOLYLINE
  5
E6
100
AcDbEntity
  8
ASSEMBLY_OUTLINES_TOP
100
AcDbPolyline
 90
        2
 70
         0
 43
0.2
 10
183.0
 20
-96.51
 10
183.0
 20
-100.474377
  0
LWPOLYLINE
  5
E7
100
AcDbEntity
  8
ASSEMBLY_OUTLINES_TOP
100
AcDbPolyline
 90
        2
 70
         0
 43
0.2
 10
178.43
 20
-99.964377
 10
176.15
 20
-99.964377
  0
LWPOLYLINE
  5
E8
100
AcDbEntity
  8
ASSEMBLY_OUTLINES_TOP
100
AcDbPolyline
 90
        2
 70
         0
 43
0.2
 10
183.57
 20
-99.964377
 10
185.85
 20
-99.964377
  0
LWPOLYLINE
  5
E9
100
AcDbEntity
  8
ASSEMBLY_OUTLINES_TOP
100
AcDbPolyline
 90
        3
 70
         1
 43
0.0
 10
179.0
 20
-99.964377
 10
177.86
 20
-99.394377
 10
177.86
 20
-100.534377
  0
HATCH
  5
EA
100
AcDbEntity
  8
ASSEMBLY_OUTLINES_TOP
100
AcDbHatch
 10
0.0
 20
0.0
 30
0.0
 210
0.0
 220
0.0
 230
1.0
  2
SOLID
 70
         1
 71
        1
 91
        1
  92
     2
 72
     0
 73
     1
  93
     3
 10
179.0
 20
-99.964377
 10
177.86
 20
-99.394377
 10
177.86
 20
-100.534377
  97
     1
  330
    233
 75
     0
 76
     1
  98
     1
 10
0.0
 20
0.0
  0
LWPOLYLINE
  5
EB
100
AcDbEntity
  8
ASSEMBLY_OUTLINES_TOP
100
AcDbPolyline
 90
        3
 70
         1
 43
0.0
 10
183.0
 20
-99.964377
 10
184.14
 20
-100.534377
 10
184.14
 20
-99.394377
  0
HATCH
  5
EC
100
AcDbEntity
  8
ASSEMBLY_OUTLINES_TOP
100
AcDbHatch
 10
0.0
 20
0.0
 30
0.0
 210
0.0
 220
0.0
 230
1.0
  2
SOLID
 70
         1
 71
        1
 91
        1
  92
     2
 72
     0
 73
     1
  93
     3
 10
183.0
 20
-99.964377
 10
184.14
 20
-100.534377
 10
184.14
 20
-99.394377
  97
     1
  330
    235
 75
     0
 76
     1
  98
     1
 10
0.0
 20
0.0
  0
LWPOLYLINE
  5
ED
100
AcDbEntity
  8
ASSEMBLY_OUTLINES_TOP
100
AcDbPolyline
 90
        2
 70
         0
 43
0.2
 10
183.51
 20
-96.0
 10
193.91
 20
-96.0
  0
LWPOLYLINE
  5
EE
100
AcDbEntity
  8
ASSEMBLY_OUTLINES_TOP
100
AcDbPolyline
 90
        2
 70
         0
 43
0.2
 10
179.51
 20
-92.0
 10
193.91
 20
-92.0
  0
LWPOLYLINE
  5
EF
100
AcDbEntity
  8
ASSEMBLY_OUTLINES_TOP
100
AcDbPolyline
 90
        2
 70
         0
 43
0.2
 10
193.4
 20
-96.57
 10
193.4
 20
-98.85
  0
LWPOLYLINE
  5
F0
100
AcDbEntity
  8
ASSEMBLY_OUTLINES_TOP
100
AcDbPolyline
 90
        2
 70
         0
 43
0.2
 10
193.4
 20
-91.43
 10
193.4
 20
-89.15
  0
LWPOLYLINE
  5
F1
100
AcDbEntity
  8
ASSEMBLY_OUTLINES_TOP
100
AcDbPolyline
 90
        3
 70
         1
 43
0.0
 10
193.4
 20
-96.0
 10
192.83
 20
-97.14
 10
193.97
 20
-97.14
  0
HATCH
  5
F2
100
AcDbEntity
  8
ASSEMBLY_OUTLINES_TOP
100
AcDbHatch
 10
0.0
 20
0.0
 30
0.0
 210
0.0
 220
0.0
 230
1.0
  2
SOLID
 70
         1
 71
        1
 91
        1
  92
     2
 72
     0
 73
     1
  93
     3
 10
193.4
 20
-96.0
 10
192.83
 20
-97.14
 10
193.97
 20
-97.14
  97
     1
  330
    241
 75
     0
 76
     1
  98
     1
 10
0.0
 20
0.0
  0
LWPOLYLINE
  5
F3
100
AcDbEntity
  8
ASSEMBLY_OUTLINES_TOP
100
AcDbPolyline
 90
        3
 70
         1
 43
0.0
 10
193.4
 20
-92.0
 10
193.969999
 20
-90.86
 10
192.83
 20
-90.86
  0
HATCH
  5
F4
100
AcDbEntity
  8
ASSEMBLY_OUTLINES_TOP
100
AcDbHatch
 10
0.0
 20
0.0
 30
0.0
 210
0.0
 220
0.0
 230
1.0
  2
SOLID
 70
         1
 71
        1
 91
        1
  92
     2
 72
     0
 73
     1
  93
     3
 10
193.4
 20
-92.0
 10
193.969999
 20
-90.86
 10
192.83
 20
-90.86
  97
     1
  330
    243
 75
     0
 76
     1
  98
     1
 10
0.0
 20
0.0
  0
LWPOLYLINE
  5
F5
100
AcDbEntity
  8
ASSEMBLY_OUTLINES_TOP
100
AcDbPolyline
 90
        2
 70
         0
 43
0.2032
 10
-2.508
 20
-96.0
 10
-14.564654
 20
-96.0
  0
LWPOLYLINE
  5
F6
100
AcDbEntity
  8
ASSEMBLY_OUTLINES_TOP
100
AcDbPolyline
 90
        2
 70
         0
 43
0.2032
 10
1.492
 20
-92.0
 10
-14.564654
 20
-92.0
  0
LWPOLYLINE
  5
F7
100
AcDbEntity
  8
ASSEMBLY_OUTLINES_TOP
100
AcDbPolyline
 90
        2
 70
         0
 43
0.2032
 10
-14.056654
 20
-96.5715
 10
-14.056654
 20
-98.8575
  0
LWPOLYLINE
  5
F8
100
AcDbEntity
  8
ASSEMBLY_OUTLINES_TOP
100
AcDbPolyline
 90
        2
 70
         0
 43
0.2032
 10
-14.056654
 20
-91.4285
 10
-14.056654
 20
-89.1425
  0
LWPOLYLINE
  5
F9
100
AcDbEntity
  8
ASSEMBLY_OUTLINES_TOP
100
AcDbPolyline
 90
        3
 70
         1
 43
0.0
 10
-14.056654
 20
-96.0
 10
-14.628154
 20
-97.143
 10
-13.485154
 20
-97.143
  0
HATCH
  5
FA
100
AcDbEntity
  8
ASSEMBLY_OUTLINES_TOP
100
AcDbHatch
 10
0.0
 20
0.0
 30
0.0
 210
0.0
 220
0.0
 230
1.0
  2
SOLID
 70
         1
 71
        1
 91
        1
  92
     2
 72
     0
 73
     1
  93
     3
 10
-14.056654
 20
-96.0
 10
-14.628154
 20
-97.143
 10
-13.485154
 20
-97.143
  97
     1
  330
    249
 75
     0
 76
     1
  98
     1
 10
0.0
 20
0.0
  0
LWPOLYLINE
  5
FB
100
AcDbEntity
  8
ASSEMBLY_OUTLINES_TOP
100
AcDbPolyline
 90
        3
 70
         1
 43
0.0
 10
-14.056654
 20
-92.0
 10
-13.485155
 20
-90.857
 10
-14.628154
 20
-90.857001
  0
HATCH
  5
FC
100
AcDbEntity
  8
ASSEMBLY_OUTLINES_TOP
100
AcDbHatch
 10
0.0
 20
0.0
 30
0.0
 210
0.0
 220
0.0
 230
1.0
  2
SOLID
 70
         1
 71
        1
 91
        1
  92
     2
 72
     0
 73
     1
  93
     3
 10
-14.056654
 20
-92.0
 10
-13.485155
 20
-90.857
 10
-14.628154
 20
-90.857001
  97
     1
  330
    251
 75
     0
 76
     1
  98
     1
 10
0.0
 20
0.0
  0
LWPOLYLINE
  5
FD
100
AcDbEntity
  8
ASSEMBLY_OUTLINES_TOP
100
AcDbPolyline
 90
        2
 70
         0
 43
0.2032
 10
-2.0
 20
-96.508
 10
-2.0
 20
-100.217295
  0
LWPOLYLINE
  5
FE
100
AcDbEntity
  8
ASSEMBLY_OUTLINES_TOP
100
AcDbPolyline
 90
        2
 70
         0
 43
0.2032
 10
2.0
 20
-92.508
 10
2.0
 20
-100.217295
  0
LWPOLYLINE
  5
FF
100
AcDbEntity
  8
ASSEMBLY_OUTLINES_TOP
100
AcDbPolyline
 90
        2
 70
         0
 43
0.2032
 10
-2.5715
 20
-99.709295
 10
-4.8575
 20
-99.709295
  0
LWPOLYLINE
  5
100
100
AcDbEntity
  8
ASSEMBLY_OUTLINES_TOP
100
AcDbPolyline
 90
        2
 70
         0
 43
0.2032
 10
2.5715
 20
-99.709295
 10
4.8575
 20
-99.709295
  0
LWPOLYLINE
  5
101
100
AcDbEntity
  8
ASSEMBLY_OUTLINES_TOP
100
AcDbPolyline
 90
        3
 70
         1
 43
0.0
 10
-2.0
 20
-99.709295
 10
-3.143
 20
-99.137796
 10
-3.143
 20
-100.280795
  0
HATCH
  5
102
100
AcDbEntity
  8
ASSEMBLY_OUTLINES_TOP
100
AcDbHatch
 10
0.0
 20
0.0
 30
0.0
 210
0.0
 220
0.0
 230
1.0
  2
SOLID
 70
         1
 71
        1
 91
        1
  92
     2
 72
     0
 73
     1
  93
     3
 10
-2.0
 20
-99.709295
 10
-3.143
 20
-99.137796
 10
-3.143
 20
-100.280795
  97
     1
  330
    257
 75
     0
 76
     1
  98
     1
 10
0.0
 20
0.0
  0
LWPOLYLINE
  5
103
100
AcDbEntity
  8
ASSEMBLY_OUTLINES_TOP
100
AcDbPolyline
 90
        3
 70
         1
 43
0.0
 10
2.0
 20
-99.709295
 10
3.143
 20
-100.280795
 10
3.143
 20
-99.137795
  0
HATCH
  5
104
100
AcDbEntity
  8
ASSEMBLY_OUTLINES_TOP
100
AcDbHatch
 10
0.0
 20
0.0
 30
0.0
 210
0.0
 220
0.0
 230
1.0
  2
SOLID
 70
         1
 71
        1
 91
        1
  92
     2
 72
     0
 73
     1
  93
     3
 10
2.0
 20
-99.709295
 10
3.143
 20
-100.280795
 10
3.143
 20
-99.137795
  97
     1
  330
    259
 75
     0
 76
     1
  98
     1
 10
0.0
 20
0.0
  0
LWPOLYLINE
  5
105
100
AcDbEntity
  8
ASSEMBLY_OUTLINES_TOP
100
AcDbPolyline
 90
        2
 70
         0
 43
0.2032
 10
-2.0
 20
3.492
 10
-2.0
 20
-15.608
  0
LWPOLYLINE
  5
106
100
AcDbEntity
  8
ASSEMBLY_OUTLINES_TOP
100
AcDbPolyline
 90
        2
 70
         0
 43
0.2032
 10
3.0
 20
-22.492
 10
3.0
 20
-14.592
  0
LWPOLYLINE
  5
107
100
AcDbEntity
  8
ASSEMBLY_OUTLINES_TOP
100
AcDbPolyline
 90
        2
 70
         0
 43
0.2032
 10
-2.5715
 20
-15.1
 10
-4.8575
 20
-15.1
  0
LWPOLYLINE
  5
108
100
AcDbEntity
  8
ASSEMBLY_OUTLINES_TOP
100
AcDbPolyline
 90
        2
 70
         0
 43
0.2032
 10
3.5715
 20
-15.1
 10
5.8575
 20
-15.1
  0
LWPOLYLINE
  5
109
100
AcDbEntity
  8
ASSEMBLY_OUTLINES_TOP
100
AcDbPolyline
 90
        3
 70
         1
 43
0.0
 10
-2.0
 20
-15.1
 10
-3.143
 20
-14.528501
 10
-3.143
 20
-15.6715
  0
HATCH
  5
10A
100
AcDbEntity
  8
ASSEMBLY_OUTLINES_TOP
100
AcDbHatch
 10
0.0
 20
0.0
 30
0.0
 210
0.0
 220
0.0
 230
1.0
  2
SOLID
 70
         1
 71
        1
 91
        1
  92
     2
 72
     0
 73
     1
  93
     3
 10
-2.0
 20
-15.1
 10
-3.143
 20
-14.528501
 10
-3.143
 20
-15.6715
  97
     1
  330
    265
 75
     0
 76
     1
  98
     1
 10
0.0
 20
0.0
  0
LWPOLYLINE
  5
10B
100
AcDbEntity
  8
ASSEMBLY_OUTLINES_TOP
100
AcDbPolyline
 90
        3
 70
         1
 43
0.0
 10
3.0
 20
-15.1
 10
4.143
 20
-15.6715
 10
4.143
 20
-14.5285
  0
HATCH
  5
10C
100
AcDbEntity
  8
ASSEMBLY_OUTLINES_TOP
100
AcDbHatch
 10
0.0
 20
0.0
 30
0.0
 210
0.0
 220
0.0
 230
1.0
  2
SOLID
 70
         1
 71
        1
 91
        1
  92
     2
 72
     0
 73
     1
  93
     3
 10
3.0
 20
-15.1
 10
4.143
 20
-15.6715
 10
4.143
 20
-14.5285
  97
     1
  330
    267
 75
     0
 76
     1
  98
     1
 10
0.0
 20
0.0
  0
LWPOLYLINE
  5
10D
100
AcDbEntity
  8
ASSEMBLY_OUTLINES_TOP
100
AcDbPolyline
 90
        2
 70
         0
 43
0.2
 10
2.49
 20
-23.0
 10
-10.766541
 20
-23.0
  0
LWPOLYLINE
  5
10E
100
AcDbEntity
  8
ASSEMBLY_OUTLINES_TOP
100
AcDbPolyline
 90
        2
 70
         0
 43
0.2
 10
1.49
 20
0.0
 10
-10.766541
 20
0.0
  0
LWPOLYLINE
  5
10F
100
AcDbEntity
  8
ASSEMBLY_OUTLINES_TOP
100
AcDbPolyline
 90
        2
 70
         0
 43
0.2
 10
-10.256541
 20
-22.43
 10
-10.256541
 20
-14.248897
  0
LWPOLYLINE
  5
110
100
AcDbEntity
  8
ASSEMBLY_OUTLINES_TOP
100
AcDbPolyline
 90
        2
 70
         0
 43
0.2
 10
-10.256541
 20
-8.751102
 10
-10.256541
 20
-0.57
  0
LWPOLYLINE
  5
111
100
AcDbEntity
  8
ASSEMBLY_OUTLINES_TOP
100
AcDbPolyline
 90
        3
 70
         1
 43
0.0
 10
-10.256541
 20
-23.0
 10
-9.686542
 20
-21.86
 10
-10.826541
 20
-21.86
  0
HATCH
  5
112
100
AcDbEntity
  8
ASSEMBLY_OUTLINES_TOP
100
AcDbHatch
 10
0.0
 20
0.0
 30
0.0
 210
0.0
 220
0.0
 230
1.0
  2
SOLID
 70
         1
 71
        1
 91
        1
  92
     2
 72
     0
 73
     1
  93
     3
 10
-10.256541
 20
-23.0
 10
-9.686542
 20
-21.86
 10
-10.826541
 20
-21.86
  97
     1
  330
    273
 75
     0
 76
     1
  98
     1
 10
0.0
 20
0.0
  0
LWPOLYLINE
  5
113
100
AcDbEntity
  8
ASSEMBLY_OUTLINES_TOP
100
AcDbPolyline
 90
        3
 70
         1
 43
0.0
 10
-10.256541
 20
0.0
 10
-10.826541
 20
-1.14
 10
-9.686541
 20
-1.14
  0
HATCH
  5
114
100
AcDbEntity
  8
ASSEMBLY_OUTLINES_TOP
100
AcDbHatch
 10
0.0
 20
0.0
 30
0.0
 210
0.0
 220
0.0
 230
1.0
  2
SOLID
 70
         1
 71
        1
 91
        1
  92
     2
 72
     0
 73
     1
  93
     3
 10
-10.256541
 20
0.0
 10
-10.826541
 20
-1.14
 10
-9.686541
 20
-1.14
  97
     1
  330
    275
 75
     0
 76
     1
  98
     1
 10
0.0
 20
0.0
  0
LWPOLYLINE
  5
115
100
AcDbEntity
  8
ASSEMBLY_OUTLINES_TOP
100
AcDbPolyline
 90
        2
 70
         0
 43
0.2
 10
2.49
 20
-46.0
 10
-10.799997
 20
-46.0
  0
LWPOLYLINE
  5
116
100
AcDbEntity
  8
ASSEMBLY_OUTLINES_TOP
100
AcDbPolyline
 90
        2
 70
         0
 43
0.2
 10
2.49
 20
-23.0
 10
-10.799997
 20
-23.0
  0
LWPOLYLINE
  5
117
100
AcDbEntity
  8
ASSEMBLY_OUTLINES_TOP
100
AcDbPolyline
 90
        2
 70
         0
 43
0.2
 10
-10.289997
 20
-45.43
 10
-10.289997
 20
-37.248897
  0
LWPOLYLINE
  5
118
100
AcDbEntity
  8
ASSEMBLY_OUTLINES_TOP
100
AcDbPolyline
 90
        2
 70
         0
 43
0.2
 10
-10.289997
 20
-31.751102
 10
-10.289997
 20
-23.57
  0
LWPOLYLINE
  5
119
100
AcDbEntity
  8
ASSEMBLY_OUTLINES_TOP
100
AcDbPolyline
 90
        3
 70
         1
 43
0.0
 10
-10.289997
 20
-46.0
 10
-9.719998
 20
-44.86
 10
-10.859997
 20
-44.86
  0
HATCH
  5
11A
100
AcDbEntity
  8
ASSEMBLY_OUTLINES_TOP
100
AcDbHatch
 10
0.0
 20
0.0
 30
0.0
 210
0.0
 220
0.0
 230
1.0
  2
SOLID
 70
         1
 71
        1
 91
        1
  92
     2
 72
     0
 73
     1
  93
     3
 10
-10.289997
 20
-46.0
 10
-9.719998
 20
-44.86
 10
-10.859997
 20
-44.86
  97
     1
  330
    281
 75
     0
 76
     1
  98
     1
 10
0.0
 20
0.0
  0
LWPOLYLINE
  5
11B
100
AcDbEntity
  8
ASSEMBLY_OUTLINES_TOP
100
AcDbPolyline
 90
        3
 70
         1
 43
0.0
 10
-10.289997
 20
-23.0
 10
-10.859997
 20
-24.14
 10
-9.719997
 20
-24.14
  0
HATCH
  5
11C
100
AcDbEntity
  8
ASSEMBLY_OUTLINES_TOP
100
AcDbHatch
 10
0.0
 20
0.0
 30
0.0
 210
0.0
 220
0.0
 230
1.0
  2
SOLID
 70
         1
 71
        1
 91
        1
  92
     2
 72
     0
 73
     1
  93
     3
 10
-10.289997
 20
-23.0
 10
-10.859997
 20
-24.14
 10
-9.719997
 20
-24.14
  97
     1
  330
    283
 75
     0
 76
     1
  98
     1
 10
0.0
 20
0.0
  0
LWPOLYLINE
  5
11D
100
AcDbEntity
  8
ASSEMBLY_OUTLINES_TOP
100
AcDbPolyline
 90
        2
 70
         0
 43
0.2
 10
2.49
 20
-69.0
 10
-10.799657
 20
-69.0
  0
LWPOLYLINE
  5
11E
100
AcDbEntity
  8
ASSEMBLY_OUTLINES_TOP
100
AcDbPolyline
 90
        2
 70
         0
 43
0.2
 10
2.49
 20
-46.0
 10
-10.799657
 20
-46.0
  0
LWPOLYLINE
  5
11F
100
AcDbEntity
  8
ASSEMBLY_OUTLINES_TOP
100
AcDbPolyline
 90
        2
 70
         0
 43
0.2
 10
-10.289657
 20
-68.43
 10
-10.289657
 20
-60.248897
  0
LWPOLYLINE
  5
120
100
AcDbEntity
  8
ASSEMBLY_OUTLINES_TOP
100
AcDbPolyline
 90
        2
 70
         0
 43
0.2
 10
-10.289657
 20
-54.751102
 10
-10.289657
 20
-46.57
  0
LWPOLYLINE
  5
121
100
AcDbEntity
  8
ASSEMBLY_OUTLINES_TOP
100
AcDbPolyline
 90
        3
 70
         1
 43
0.0
 10
-10.289657
 20
-69.0
 10
-9.719658
 20
-67.86
 10
-10.859657
 20
-67.86
  0
HATCH
  5
122
100
AcDbEntity
  8
ASSEMBLY_OUTLINES_TOP
100
AcDbHatch
 10
0.0
 20
0.0
 30
0.0
 210
0.0
 220
0.0
 230
1.0
  2
SOLID
 70
         1
 71
        1
 91
        1
  92
     2
 72
     0
 73
     1
  93
     3
 10
-10.289657
 20
-69.0
 10
-9.719658
 20
-67.86
 10
-10.859657
 20
-67.86
  97
     1
  330
    289
 75
     0
 76
     1
  98
     1
 10
0.0
 20
0.0
  0
LWPOLYLINE
  5
123
100
AcDbEntity
  8
ASSEMBLY_OUTLINES_TOP
100
AcDbPolyline
 90
        3
 70
         1
 43
0.0
 10
-10.289657
 20
-46.0
 10
-10.859657
 20
-47.14
 10
-9.719657
 20
-47.14
  0
HATCH
  5
124
100
AcDbEntity
  8
ASSEMBLY_OUTLINES_TOP
100
AcDbHatch
 10
0.0
 20
0.0
 30
0.0
 210
0.0
 220
0.0
 230
1.0
  2
SOLID
 70
         1
 71
        1
 91
        1
  92
     2
 72
     0
 73
     1
  93
     3
 10
-10.289657
 20
-46.0
 10
-10.859657
 20
-47.14
 10
-9.719657
 20
-47.14
  97
     1
  330
    291
 75
     0
 76
     1
  98
     1
 10
0.0
 20
0.0
  0
LWPOLYLINE
  5
125
100
AcDbEntity
  8
ASSEMBLY_OUTLINES_TOP
100
AcDbPolyline
 90
        2
 70
         0
 43
0.2
 10
1.49
 20
-92.0
 10
-10.801382
 20
-92.0
  0
LWPOLYLINE
  5
126
100
AcDbEntity
  8
ASSEMBLY_OUTLINES_TOP
100
AcDbPolyline
 90
        2
 70
         0
 43
0.2
 10
2.49
 20
-69.0
 10
-10.801382
 20
-69.0
  0
LWPOLYLINE
  5
127
100
AcDbEntity
  8
ASSEMBLY_OUTLINES_TOP
100
AcDbPolyline
 90
        2
 70
         0
 43
0.2
 10
-10.291382
 20
-91.43
 10
-10.291382
 20
-83.248897
  0
LWPOLYLINE
  5
128
100
AcDbEntity
  8
ASSEMBLY_OUTLINES_TOP
100
AcDbPolyline
 90
        2
 70
         0
 43
0.2
 10
-10.291382
 20
-77.751102
 10
-10.291382
 20
-69.57
  0
LWPOLYLINE
  5
129
100
AcDbEntity
  8
ASSEMBLY_OUTLINES_TOP
100
AcDbPolyline
 90
        3
 70
         1
 43
0.0
 10
-10.291382
 20
-92.0
 10
-9.721383
 20
-90.86
 10
-10.861382
 20
-90.86
  0
HATCH
  5
12A
100
AcDbEntity
  8
ASSEMBLY_OUTLINES_TOP
100
AcDbHatch
 10
0.0
 20
0.0
 30
0.0
 210
0.0
 220
0.0
 230
1.0
  2
SOLID
 70
         1
 71
        1
 91
        1
  92
     2
 72
     0
 73
     1
  93
     3
 10
-10.291382
 20
-92.0
 10
-9.721383
 20
-90.86
 10
-10.861382
 20
-90.86
  97
     1
  330
    297
 75
     0
 76
     1
  98
     1
 10
0.0
 20
0.0
  0
LWPOLYLINE
  5
12B
100
AcDbEntity
  8
ASSEMBLY_OUTLINES_TOP
100
AcDbPolyline
 90
        3
 70
         1
 43
0.0
 10
-10.291382
 20
-69.0
 10
-10.861382
 20
-70.14
 10
-9.721382
 20
-70.14
  0
HATCH
  5
12C
100
AcDbEntity
  8
ASSEMBLY_OUTLINES_TOP
100
AcDbHatch
 10
0.0
 20
0.0
 30
0.0
 210
0.0
 220
0.0
 230
1.0
  2
SOLID
 70
         1
 71
        1
 91
        1
  92
     2
 72
     0
 73
     1
  93
     3
 10
-10.291382
 20
-69.0
 10
-10.861382
 20
-70.14
 10
-9.721382
 20
-70.14
  97
     1
  330
    299
 75
     0
 76
     1
  98
     1
 10
0.0
 20
0.0
  0
LWPOLYLINE
  5
12D
100
AcDbEntity
  8
ASSEMBLY_OUTLINES_TOP
100
AcDbPolyline
 90
        2
 70
         0
 43
0.2
 10
178.0
 20
-23.51
 10
178.0
 20
-27.203423
  0
LWPOLYLINE
  5
12E
100
AcDbEntity
  8
ASSEMBLY_OUTLINES_TOP
100
AcDbPolyline
 90
        2
 70
         0
 43
0.2
 10
183.0
 20
3.49
 10
183.0
 20
-27.203423
  0
LWPOLYLINE
  5
12F
100
AcDbEntity
  8
ASSEMBLY_OUTLINES_TOP
100
AcDbPolyline
 90
        2
 70
         0
 43
0.2
 10
177.43
 20
-26.693423
 10
175.15
 20
-26.693423
  0
LWPOLYLINE
  5
130
100
AcDbEntity
  8
ASSEMBLY_OUTLINES_TOP
100
AcDbPolyline
 90
        2
 70
         0
 43
0.2
 10
183.57
 20
-26.693423
 10
185.85
 20
-26.693423
  0
LWPOLYLINE
  5
131
100
AcDbEntity
  8
ASSEMBLY_OUTLINES_TOP
100
AcDbPolyline
 90
        3
 70
         1
 43
0.0
 10
178.0
 20
-26.693423
 10
176.86
 20
-26.123423
 10
176.86
 20
-27.263423
  0
HATCH
  5
132
100
AcDbEntity
  8
ASSEMBLY_OUTLINES_TOP
100
AcDbHatch
 10
0.0
 20
0.0
 30
0.0
 210
0.0
 220
0.0
 230
1.0
  2
SOLID
 70
         1
 71
        1
 91
        1
  92
     2
 72
     0
 73
     1
  93
     3
 10
178.0
 20
-26.693423
 10
176.86
 20
-26.123423
 10
176.86
 20
-27.263423
  97
     1
  330
    305
 75
     0
 76
     1
  98
     1
 10
0.0
 20
0.0
  0
LWPOLYLINE
  5
133
100
AcDbEntity
  8
ASSEMBLY_OUTLINES_TOP
100
AcDbPolyline
 90
        3
 70
         1
 43
0.0
 10
183.0
 20
-26.693423
 10
184.14
 20
-27.263423
 10
184.14
 20
-26.123423
  0
HATCH
  5
134
100
AcDbEntity
  8
ASSEMBLY_OUTLINES_TOP
100
AcDbHatch
 10
0.0
 20
0.0
 30
0.0
 210
0.0
 220
0.0
 230
1.0
  2
SOLID
 70
         1
 71
        1
 91
        1
  92
     2
 72
     0
 73
     1
  93
     3
 10
183.0
 20
-26.693423
 10
184.14
 20
-27.263423
 10
184.14
 20
-26.123423
  97
     1
  330
    307
 75
     0
 76
     1
  98
     1
 10
0.0
 20
0.0
  0
LWPOLYLINE
  5
135
100
AcDbEntity
  8
ASSEMBLY_OUTLINES_TOP
100
AcDbPolyline
 90
        2
 70
         0
 43
0.2
 10
178.51
 20
-23.0
 10
186.423282
 20
-23.0
  0
LWPOLYLINE
  5
136
100
AcDbEntity
  8
ASSEMBLY_OUTLINES_TOP
100
AcDbPolyline
 90
        2
 70
         0
 43
0.2
 10
179.51
 20
0.0
 10
186.423282
 20
0.0
  0
LWPOLYLINE
  5
137
100
AcDbEntity
  8
ASSEMBLY_OUTLINES_TOP
100
AcDbPolyline
 90
        2
 70
         0
 43
0.2
 10
185.913282
 20
-22.43
 10
185.913282
 20
-14.248897
  0
LWPOLYLINE
  5
138
100
AcDbEntity
  8
ASSEMBLY_OUTLINES_TOP
100
AcDbPolyline
 90
        2
 70
         0
 43
0.2
 10
185.913282
 20
-8.751102
 10
185.913282
 20
-0.57
  0
LWPOLYLINE
  5
139
100
AcDbEntity
  8
ASSEMBLY_OUTLINES_TOP
100
AcDbPolyline
 90
        3
 70
         1
 43
0.0
 10
185.913282
 20
-23.0
 10
186.483281
 20
-21.86
 10
185.343282
 20
-21.86
  0
HATCH
  5
13A
100
AcDbEntity
  8
ASSEMBLY_OUTLINES_TOP
100
AcDbHatch
 10
0.0
 20
0.0
 30
0.0
 210
0.0
 220
0.0
 230
1.0
  2
SOLID
 70
         1
 71
        1
 91
        1
  92
     2
 72
     0
 73
     1
  93
     3
 10
185.913282
 20
-23.0
 10
186.483281
 20
-21.86
 10
185.343282
 20
-21.86
  97
     1
  330
    313
 75
     0
 76
     1
  98
     1
 10
0.0
 20
0.0
  0
LWPOLYLINE
  5
13B
100
AcDbEntity
  8
ASSEMBLY_OUTLINES_TOP
100
AcDbPolyline
 90
        3
 70
         1
 43
0.0
 10
185.913282
 20
0.0
 10
185.343282
 20
-1.14
 10
186.483282
 20
-1.14
  0
HATCH
  5
13C
100
AcDbEntity
  8
ASSEMBLY_OUTLINES_TOP
100
AcDbHatch
 10
0.0
 20
0.0
 30
0.0
 210
0.0
 220
0.0
 230
1.0
  2
SOLID
 70
         1
 71
        1
 91
        1
  92
     2
 72
     0
 73
     1
  93
     3
 10
185.913282
 20
0.0
 10
185.343282
 20
-1.14
 10
186.483282
 20
-1.14
  97
     1
  330
    315
 75
     0
 76
     1
  98
     1
 10
0.0
 20
0.0
  0
LWPOLYLINE
  5
13D
100
AcDbEntity
  8
ASSEMBLY_OUTLINES_TOP
100
AcDbPolyline
 90
        2
 70
         0
 43
0.2
 10
178.51
 20
-46.0
 10
186.452472
 20
-46.0
  0
LWPOLYLINE
  5
13E
100
AcDbEntity
  8
ASSEMBLY_OUTLINES_TOP
100
AcDbPolyline
 90
        2
 70
         0
 43
0.2
 10
178.51
 20
-23.0
 10
186.452472
 20
-23.0
  0
LWPOLYLINE
  5
13F
100
AcDbEntity
  8
ASSEMBLY_OUTLINES_TOP
100
AcDbPolyline
 90
        2
 70
         0
 43
0.2
 10
185.942472
 20
-45.43
 10
185.942472
 20
-37.248897
  0
LWPOLYLINE
  5
140
100
AcDbEntity
  8
ASSEMBLY_OUTLINES_TOP
100
AcDbPolyline
 90
        2
 70
         0
 43
0.2
 10
185.942472
 20
-31.751102
 10
185.942472
 20
-23.57
  0
LWPOLYLINE
  5
141
100
AcDbEntity
  8
ASSEMBLY_OUTLINES_TOP
100
AcDbPolyline
 90
        3
 70
         1
 43
0.0
 10
185.942472
 20
-46.0
 10
186.512471
 20
-44.86
 10
185.372472
 20
-44.86
  0
HATCH
  5
142
100
AcDbEntity
  8
ASSEMBLY_OUTLINES_TOP
100
AcDbHatch
 10
0.0
 20
0.0
 30
0.0
 210
0.0
 220
0.0
 230
1.0
  2
SOLID
 70
         1
 71
        1
 91
        1
  92
     2
 72
     0
 73
     1
  93
     3
 10
185.942472
 20
-46.0
 10
186.512471
 20
-44.86
 10
185.372472
 20
-44.86
  97
     1
  330
    321
 75
     0
 76
     1
  98
     1
 10
0.0
 20
0.0
  0
LWPOLYLINE
  5
143
100
AcDbEntity
  8
ASSEMBLY_OUTLINES_TOP
100
AcDbPolyline
 90
        3
 70
         1
 43
0.0
 10
185.942472
 20
-23.0
 10
185.372472
 20
-24.14
 10
186.512472
 20
-24.14
  0
HATCH
  5
144
100
AcDbEntity
  8
ASSEMBLY_OUTLINES_TOP
100
AcDbHatch
 10
0.0
 20
0.0
 30
0.0
 210
0.0
 220
0.0
 230
1.0
  2
SOLID
 70
         1
 71
        1
 91
        1
  92
     2
 72
     0
 73
     1
  93
     3
 10
185.942472
 20
-23.0
 10
185.372472
 20
-24.14
 10
186.512472
 20
-24.14
  97
     1
  330
    323
 75
     0
 76
     1
  98
     1
 10
0.0
 20
0.0
  0
LWPOLYLINE
  5
145
100
AcDbEntity
  8
ASSEMBLY_OUTLINES_TOP
100
AcDbPolyline
 90
        2
 70
         0
 43
0.2
 10
178.51
 20
-69.0
 10
186.40912
 20
-69.0
  0
LWPOLYLINE
  5
146
100
AcDbEntity
  8
ASSEMBLY_OUTLINES_TOP
100
AcDbPolyline
 90
        2
 70
         0
 43
0.2
 10
178.51
 20
-46.0
 10
186.40912
 20
-46.0
  0
LWPOLYLINE
  5
147
100
AcDbEntity
  8
ASSEMBLY_OUTLINES_TOP
100
AcDbPolyline
 90
        2
 70
         0
 43
0.2
 10
185.89912
 20
-68.43
 10
185.89912
 20
-60.248897
  0
LWPOLYLINE
  5
148
100
AcDbEntity
  8
ASSEMBLY_OUTLINES_TOP
100
AcDbPolyline
 90
        2
 70
         0
 43
0.2
 10
185.89912
 20
-54.751102
 10
185.89912
 20
-46.57
  0
LWPOLYLINE
  5
149
100
AcDbEntity
  8
ASSEMBLY_OUTLINES_TOP
100
AcDbPolyline
 90
        3
 70
         1
 43
0.0
 10
185.89912
 20
-69.0
 10
186.469119
 20
-67.86
 10
185.32912
 20
-67.86
  0
HATCH
  5
14A
100
AcDbEntity
  8
ASSEMBLY_OUTLINES_TOP
100
AcDbHatch
 10
0.0
 20
0.0
 30
0.0
 210
0.0
 220
0.0
 230
1.0
  2
SOLID
 70
         1
 71
        1
 91
        1
  92
     2
 72
     0
 73
     1
  93
     3
 10
185.89912
 20
-69.0
 10
186.469119
 20
-67.86
 10
185.32912
 20
-67.86
  97
     1
  330
    329
 75
     0
 76
     1
  98
     1
 10
0.0
 20
0.0
  0
LWPOLYLINE
  5
14B
100
AcDbEntity
  8
ASSEMBLY_OUTLINES_TOP
100
AcDbPolyline
 90
        3
 70
         1
 43
0.0
 10
185.89912
 20
-46.0
 10
185.32912
 20
-47.14
 10
186.46912
 20
-47.14
  0
HATCH
  5
14C
100
AcDbEntity
  8
ASSEMBLY_OUTLINES_TOP
100
AcDbHatch
 10
0.0
 20
0.0
 30
0.0
 210
0.0
 220
0.0
 230
1.0
  2
SOLID
 70
         1
 71
        1
 91
        1
  92
     2
 72
     0
 73
     1
  93
     3
 10
185.89912
 20
-46.0
 10
185.32912
 20
-47.14
 10
186.46912
 20
-47.14
  97
     1
  330
    331
 75
     0
 76
     1
  98
     1
 10
0.0
 20
0.0
  0
LWPOLYLINE
  5
14D
100
AcDbEntity
  8
ASSEMBLY_OUTLINES_TOP
100
AcDbPolyline
 90
        2
 70
         0
 43
0.2
 10
179.51
 20
-92.0
 10
186.494958
 20
-92.0
  0
LWPOLYLINE
  5
14E
100
AcDbEntity
  8
ASSEMBLY_OUTLINES_TOP
100
AcDbPolyline
 90
        2
 70
         0
 43
0.2
 10
178.51
 20
-69.0
 10
186.494958
 20
-69.0
  0
LWPOLYLINE
  5
14F
100
AcDbEntity
  8
ASSEMBLY_OUTLINES_TOP
100
AcDbPolyline
 90
        2
 70
         0
 43
0.2
 10
185.984958
 20
-91.43
 10
185.984958
 20
-83.248897
  0
LWPOLYLINE
  5
150
100
AcDbEntity
  8
ASSEMBLY_OUTLINES_TOP
100
AcDbPolyline
 90
        2
 70
         0
 43
0.2
 10
185.984958
 20
-77.751102
 10
185.984958
 20
-69.57
  0
LWPOLYLINE
  5
151
100
AcDbEntity
  8
ASSEMBLY_OUTLINES_TOP
100
AcDbPolyline
 90
        3
 70
         1
 43
0.0
 10
185.984958
 20
-92.0
 10
186.554957
 20
-90.86
 10
185.414958
 20
-90.86
  0
HATCH
  5
152
100
AcDbEntity
  8
ASSEMBLY_OUTLINES_TOP
100
AcDbHatch
 10
0.0
 20
0.0
 30
0.0
 210
0.0
 220
0.0
 230
1.0
  2
SOLID
 70
         1
 71
        1
 91
        1
  92
     2
 72
     0
 73
     1
  93
     3
 10
185.984958
 20
-92.0
 10
186.554957
 20
-90.86
 10
185.414958
 20
-90.86
  97
     1
  330
    337
 75
     0
 76
     1
  98
     1
 10
0.0
 20
0.0
  0
LWPOLYLINE
  5
153
100
AcDbEntity
  8
ASSEMBLY_OUTLINES_TOP
100
AcDbPolyline
 90
        3
 70
         1
 43
0.0
 10
185.984958
 20
-69.0
 10
185.414958
 20
-70.14
 10
186.554958
 20
-70.14
  0
HATCH
  5
154
100
AcDbEntity
  8
ASSEMBLY_OUTLINES_TOP
100
AcDbHatch
 10
0.0
 20
0.0
 30
0.0
 210
0.0
 220
0.0
 230
1.0
  2
SOLID
 70
         1
 71
        1
 91
        1
  92
     2
 72
     0
 73
     1
  93
     3
 10
185.984958
 20
-69.0
 10
185.414958
 20
-70.14
 10
186.554958
 20
-70.14
  97
     1
  330
    339
 75
     0
 76
     1
  98
     1
 10
0.0
 20
0.0
  0
TEXT
  5
155
100
AcDbEntity
  8
ASSEMBLY_OUTLINES_TOP
100
AcDbText
 10
87.572015
 20
-103.065776
 30
0.0
 40
1.270000
 41
1.000000
  1
185mm
  7
VERIBEST_GERBER_1
 72
 1
 11
90.5
 21
-102.430776
 31
0.0
100
AcDbText
 73
 2
  0
TEXT
  5
156
100
AcDbEntity
  8
ASSEMBLY_OUTLINES_TOP
100
AcDbText
 10
191.21369
 20
-48.927986
 30
0.0
 40
1.270000
 41
1.000000
  1
100mm
  50
90.0
  7
VERIBEST_GERBER_1
 72
 1
 11
190.57869
 21
-46.000001
 31
0.0
100
AcDbText
 73
 2
  0
TEXT
  5
157
100
AcDbEntity
  8
ASSEMBLY_OUTLINES_TOP
100
AcDbText
 10
-8.676104
 20
6.608837
 30
0.0
 40
1.270000
 41
1.000000
  1
4mm
  7
VERIBEST_GERBER_1
 72
 1
 11
-6.878419
 21
7.243837
 31
0.0
100
AcDbText
 73
 2
  0
TEXT
  5
158
100
AcDbEntity
  8
ASSEMBLY_OUTLINES_TOP
100
AcDbText
 10
-5.434839
 20
-6.676104
 30
0.0
 40
1.270000
 41
1.000000
  1
4mm
  50
90.0
  7
VERIBEST_GERBER_1
 72
 1
 11
-6.069839
 21
-4.878419
 31
0.0
100
AcDbText
 73
 2
  0
TEXT
  5
159
100
AcDbEntity
  8
ASSEMBLY_OUTLINES_TOP
100
AcDbText
 10
188.309689
 20
-6.666504
 30
0.0
 40
1.270000
 41
1.000000
  1
4mm
  50
90.0
  7
VERIBEST_GERBER_1
 72
 1
 11
187.674689
 21
-4.868819
 31
0.0
100
AcDbText
 73
 2
  0
TEXT
  5
15A
100
AcDbEntity
  8
ASSEMBLY_OUTLINES_TOP
100
AcDbText
 10
172.333496
 20
6.574059
 30
0.0
 40
1.270000
 41
1.000000
  1
4mm
  7
VERIBEST_GERBER_1
 72
 1
 11
174.131181
 21
7.209059
 31
0.0
100
AcDbText
 73
 2
  0
TEXT
  5
15B
100
AcDbEntity
  8
ASSEMBLY_OUTLINES_TOP
100
AcDbText
 10
172.333496
 20
-100.599377
 30
0.0
 40
1.270000
 41
1.000000
  1
4mm
  7
VERIBEST_GERBER_1
 72
 1
 11
174.131181
 21
-99.964377
 31
0.0
100
AcDbText
 73
 2
  0
TEXT
  5
15C
100
AcDbEntity
  8
ASSEMBLY_OUTLINES_TOP
100
AcDbText
 10
194.035
 20
-102.666504
 30
0.0
 40
1.270000
 41
1.000000
  1
4mm
  50
90.0
  7
VERIBEST_GERBER_1
 72
 1
 11
193.4
 21
-100.868819
 31
0.0
100
AcDbText
 73
 2
  0
TEXT
  5
15D
100
AcDbEntity
  8
ASSEMBLY_OUTLINES_TOP
100
AcDbText
 10
-13.421654
 20
-102.676104
 30
0.0
 40
1.270000
 41
1.000000
  1
4mm
  50
90.0
  7
VERIBEST_GERBER_1
 72
 1
 11
-14.056654
 21
-100.878419
 31
0.0
100
AcDbText
 73
 2
  0
TEXT
  5
15E
100
AcDbEntity
  8
ASSEMBLY_OUTLINES_TOP
100
AcDbText
 10
-8.676104
 20
-100.344295
 30
0.0
 40
1.270000
 41
1.000000
  1
4mm
  7
VERIBEST_GERBER_1
 72
 1
 11
-6.878419
 21
-99.709295
 31
0.0
100
AcDbText
 73
 2
  0
TEXT
  5
15F
100
AcDbEntity
  8
ASSEMBLY_OUTLINES_TOP
100
AcDbText
 10
-8.676104
 20
-15.735
 30
0.0
 40
1.270000
 41
1.000000
  1
5mm
  7
VERIBEST_GERBER_1
 72
 1
 11
-6.878419
 21
-15.1
 31
0.0
100
AcDbText
 73
 2
  0
TEXT
  5
160
100
AcDbEntity
  8
ASSEMBLY_OUTLINES_TOP
100
AcDbText
 10
-9.62154
 20
-13.897761
 30
0.0
 40
1.270000
 41
1.000000
  1
23mm
  50
90.0
  7
VERIBEST_GERBER_1
 72
 1
 11
-10.25654
 21
-11.500001
 31
0.0
100
AcDbText
 73
 2
  0
TEXT
  5
161
100
AcDbEntity
  8
ASSEMBLY_OUTLINES_TOP
100
AcDbText
 10
-9.654996
 20
-36.897761
 30
0.0
 40
1.270000
 41
1.000000
  1
23mm
  50
90.0
  7
VERIBEST_GERBER_1
 72
 1
 11
-10.289996
 21
-34.500001
 31
0.0
100
AcDbText
 73
 2
  0
TEXT
  5
162
100
AcDbEntity
  8
ASSEMBLY_OUTLINES_TOP
100
AcDbText
 10
-9.654656
 20
-59.897761
 30
0.0
 40
1.270000
 41
1.000000
  1
23mm
  50
90.0
  7
VERIBEST_GERBER_1
 72
 1
 11
-10.289656
 21
-57.500001
 31
0.0
100
AcDbText
 73
 2
  0
TEXT
  5
163
100
AcDbEntity
  8
ASSEMBLY_OUTLINES_TOP
100
AcDbText
 10
-9.656382
 20
-82.897761
 30
0.0
 40
1.270000
 41
1.000000
  1
23mm
  50
90.0
  7
VERIBEST_GERBER_1
 72
 1
 11
-10.291382
 21
-80.500001
 31
0.0
100
AcDbText
 73
 2
  0
TEXT
  5
164
100
AcDbEntity
  8
ASSEMBLY_OUTLINES_TOP
100
AcDbText
 10
171.333496
 20
-27.328423
 30
0.0
 40
1.270000
 41
1.000000
  1
5mm
  7
VERIBEST_GERBER_1
 72
 1
 11
173.131181
 21
-26.693423
 31
0.0
100
AcDbText
 73
 2
  0
TEXT
  5
165
100
AcDbEntity
  8
ASSEMBLY_OUTLINES_TOP
100
AcDbText
 10
186.548282
 20
-13.897761
 30
0.0
 40
1.270000
 41
1.000000
  1
23mm
  50
90.0
  7
VERIBEST_GERBER_1
 72
 1
 11
185.913282
 21
-11.500001
 31
0.0
100
AcDbText
 73
 2
  0
TEXT
  5
166
100
AcDbEntity
  8
ASSEMBLY_OUTLINES_TOP
100
AcDbText
 10
186.577472
 20
-36.897761
 30
0.0
 40
1.270000
 41
1.000000
  1
23mm
  50
90.0
  7
VERIBEST_GERBER_1
 72
 1
 11
185.942472
 21
-34.500001
 31
0.0
100
AcDbText
 73
 2
  0
TEXT
  5
167
100
AcDbEntity
  8
ASSEMBLY_OUTLINES_TOP
100
AcDbText
 10
186.53412
 20
-59.897761
 30
0.0
 40
1.270000
 41
1.000000
  1
23mm
  50
90.0
  7
VERIBEST_GERBER_1
 72
 1
 11
185.89912
 21
-57.500001
 31
0.0
100
AcDbText
 73
 2
  0
TEXT
  5
168
100
AcDbEntity
  8
ASSEMBLY_OUTLINES_TOP
100
AcDbText
 10
186.619958
 20
-82.897761
 30
0.0
 40
1.270000
 41
1.000000
  1
23mm
  50
90.0
  7
VERIBEST_GERBER_1
 72
 1
 11
185.984958
 21
-80.500001
 31
0.0
100
AcDbText
 73
 2
  0
LWPOLYLINE
  5
169
100
AcDbEntity
  8
ASSEMBLY_OUTLINES_TOP
100
AcDbPolyline
 90
        4
 70
         1
 43
0.1
 10
2.55
 20
-9.3
 10
2.55
 20
-6.5
 10
3.85
 20
-6.5
 10
3.85
 20
-9.3
  0
TEXT
  5
16A
100
AcDbEntity
  8
ASSEMBLY_REF_DES_BTM
100
AcDbText
 10
115.3435
 20
-34.6775
 30
0.0
 40
1.000000
 41
1.000000
  1
SW1
  50
90.0
  7
GOST_TYPE_B
 71
2
 72
 1
 11
114.85
 21
-35.85
 31
0.0
100
AcDbText
 73
 2
  0
TEXT
  5
16B
100
AcDbEntity
  8
ASSEMBLY_REF_DES_BTM
100
AcDbText
 10
153.863
 20
-68.75325
 30
0.0
 40
0.500000
 41
1.000000
  1
DA1
  50
180.0
  7
GOST_TYPE_B
 71
2
 72
 1
 11
154.4
 21
-69.0
 31
0.0
100
AcDbText
 73
 2
  0
TEXT
  5
16C
100
AcDbEntity
  8
ASSEMBLY_REF_DES_BTM
100
AcDbText
 10
23.272
 20
-51.2935
 30
0.0
 40
1.000000
 41
1.000000
  1
DA2
  7
GOST_TYPE_B
 71
2
 72
 1
 11
22.1
 21
-50.8
 31
0.0
100
AcDbText
 73
 2
  0
TEXT
  5
16D
100
AcDbEntity
  8
ASSEMBLY_REF_DES_BTM
100
AcDbText
 10
103.24675
 20
-87.86275
 30
0.0
 40
0.500000
 41
1.000000
  1
VD1
  50
90.0
  7
GOST_TYPE_B
 71
2
 72
 1
 11
103.0
 21
-88.4
 31
0.0
100
AcDbText
 73
 2
  0
TEXT
  5
16E
100
AcDbEntity
  8
ASSEMBLY_REF_DES_BTM
100
AcDbText
 10
170.814
 20
-76.95325
 30
0.0
 40
0.500000
 41
1.000000
  1
VD2
  50
180.0
  7
GOST_TYPE_B
 71
2
 72
 1
 11
171.4
 21
-77.2
 31
0.0
100
AcDbText
 73
 2
  0
TEXT
  5
16F
100
AcDbEntity
  8
ASSEMBLY_REF_DES_BTM
100
AcDbText
 10
12.5281
 20
-54.1621
 30
0.0
 40
1.000000
 41
1.000000
  1
VD3
  50
90.0
  7
GOST_TYPE_B
 71
2
 72
 1
 11
12.0346
 21
-55.3346
 31
0.0
100
AcDbText
 73
 2
  0
TEXT
  5
170
100
AcDbEntity
  8
ASSEMBLY_REF_DES_BTM
100
AcDbText
 10
38.210263
 20
-52.669087
 30
0.0
 40
1.000000
 41
1.000000
  1
VD4
  7
GOST_TYPE_B
 71
2
 72
 1
 11
36.989763
 21
-52.175587
 31
0.0
100
AcDbText
 73
 2
  0
TEXT
  5
171
100
AcDbEntity
  8
ASSEMBLY_REF_DES_BTM
100
AcDbText
 10
12.5281
 20
-50.8621
 30
0.0
 40
1.000000
 41
1.000000
  1
VD5
  50
90.0
  7
GOST_TYPE_B
 71
2
 72
 1
 11
12.0346
 21
-52.0346
 31
0.0
100
AcDbText
 73
 2
  0
TEXT
  5
172
100
AcDbEntity
  8
ASSEMBLY_REF_DES_BTM
100
AcDbText
 10
150.3898
 20
-70.25455
 30
0.0
 40
0.700000
 41
1.000000
  1
C1
  50
180.0
  7
GOST_TYPE_B
 71
2
 72
 1
 11
150.8
 21
-70.6
 31
0.0
100
AcDbText
 73
 2
  0
TEXT
  5
173
100
AcDbEntity
  8
ASSEMBLY_REF_DES_BTM
100
AcDbText
 10
30.7435
 20
-52.914
 30
0.0
 40
1.000000
 41
1.000000
  1
L1
  50
90.0
  7
GOST_TYPE_B
 71
2
 72
 1
 11
30.25
 21
-53.5
 31
0.0
100
AcDbText
 73
 2
  0
TEXT
  5
174
100
AcDbEntity
  8
ASSEMBLY_REF_DES_BTM
100
AcDbText
 10
108.85585
 20
-88.45455
 30
0.0
 40
0.700000
 41
1.000000
  1
R1
  50
180.0
  7
GOST_TYPE_B
 71
2
 72
 1
 11
109.3
 21
-88.8
 31
0.0
100
AcDbText
 73
 2
  0
TEXT
  5
175
100
AcDbEntity
  8
ASSEMBLY_REF_DES_BTM
100
AcDbText
 10
149.8655
 20
-82.2565
 30
0.0
 40
1.000000
 41
1.000000
  1
T1
  50
180.0
  7
GOST_TYPE_B
 71
2
 72
 1
 11
150.5
 21
-82.75
 31
0.0
100
AcDbText
 73
 2
  0
TEXT
  5
176
100
AcDbEntity
  8
ASSEMBLY_REF_DES_BTM
100
AcDbText
 10
179.9135
 20
-81.4365
 30
0.0
 40
1.000000
 41
1.000000
  1
X1
  50
90.0
  7
GOST_TYPE_B
 71
2
 72
 1
 11
179.42
 21
-82.12
 31
0.0
100
AcDbText
 73
 2
  0
TEXT
  5
177
100
AcDbEntity
  8
ASSEMBLY_REF_DES_BTM
100
AcDbText
 10
14.916
 20
-60.1065
 30
0.0
 40
1.000000
 41
1.000000
  1
C2
  50
180.0
  7
GOST_TYPE_B
 71
2
 72
 1
 11
15.6
 21
-60.6
 31
0.0
100
AcDbText
 73
 2
  0
TEXT
  5
178
100
AcDbEntity
  8
ASSEMBLY_REF_DES_BTM
100
AcDbText
 10
23.2175
 20
-60.5565
 30
0.0
 40
1.000000
 41
1.000000
  1
R2
  50
180.0
  7
GOST_TYPE_B
 71
2
 72
 1
 11
23.95
 21
-61.05
 31
0.0
100
AcDbText
 73
 2
  0
TEXT
  5
179
100
AcDbEntity
  8
ASSEMBLY_REF_DES_BTM
100
AcDbText
 10
106.59195
 20
-92.4533
 30
0.0
 40
0.700000
 41
1.000000
  1
X2
  50
90.0
  7
GOST_D
 71
2
 72
 1
 11
106.25
 21
-93.0
 31
0.0
100
AcDbText
 73
 2
  0
TEXT
  5
17A
100
AcDbEntity
  8
ASSEMBLY_REF_DES_BTM
100
AcDbText
 10
27.916
 20
-58.9065
 30
0.0
 40
1.000000
 41
1.000000
  1
C3
  50
180.0
  7
GOST_TYPE_B
 71
2
 72
 1
 11
28.6
 21
-59.4
 31
0.0
100
AcDbText
 73
 2
  0
TEXT
  5
17B
100
AcDbEntity
  8
ASSEMBLY_REF_DES_BTM
100
AcDbText
 10
26.7781
 20
-57.9516
 30
0.0
 40
1.000000
 41
1.000000
  1
R3
  50
90.0
  7
GOST_TYPE_B
 71
2
 72
 1
 11
26.2846
 21
-58.6846
 31
0.0
100
AcDbText
 73
 2
  0
TEXT
  5
17C
100
AcDbEntity
  8
ASSEMBLY_REF_DES_BTM
100
AcDbText
 10
168.5835
 20
-86.3585
 30
0.0
 40
1.000000
 41
1.000000
  1
X3
  50
90.0
  7
GOST_TYPE_B
 71
2
 72
 1
 11
168.09
 21
-87.14
 31
0.0
100
AcDbText
 73
 2
  0
TEXT
  5
17D
100
AcDbEntity
  8
ASSEMBLY_REF_DES_BTM
100
AcDbText
 10
14.8675
 20
-58.7065
 30
0.0
 40
1.000000
 41
1.000000
  1
C4
  50
180.0
  7
GOST_TYPE_B
 71
2
 72
 1
 11
15.6
 21
-59.2
 31
0.0
100
AcDbText
 73
 2
  0
TEXT
  5
17E
100
AcDbEntity
  8
ASSEMBLY_REF_DES_BTM
100
AcDbText
 10
23.4033
 20
-59.10455
 30
0.0
 40
0.700000
 41
1.000000
  1
R4
  50
180.0
  7
GOST_TYPE_B
 71
2
 72
 1
 11
23.95
 21
-59.45
 31
0.0
100
AcDbText
 73
 2
  0
TEXT
  5
17F
100
AcDbEntity
  8
ASSEMBLY_REF_DES_BTM
100
AcDbText
 10
124.47
 20
-83.6065
 30
0.0
 40
1.000000
 41
1.000000
  1
X4
  50
180.0
  7
GOST_TYPE_B
 71
2
 72
 1
 11
125.3
 21
-84.1
 31
0.0
100
AcDbText
 73
 2
  0
TEXT
  5
180
100
AcDbEntity
  8
ASSEMBLY_REF_DES_BTM
100
AcDbText
 10
18.7281
 20
-56.1506
 30
0.0
 40
1.000000
 41
1.000000
  1
C5
  50
90.0
  7
GOST_TYPE_B
 71
2
 72
 1
 11
18.2346
 21
-56.8346
 31
0.0
100
AcDbText
 73
 2
  0
TEXT
  5
181
100
AcDbEntity
  8
ASSEMBLY_REF_DES_BTM
100
AcDbText
 10
28.0175
 20
-57.3565
 30
0.0
 40
1.000000
 41
1.000000
  1
R5
  50
180.0
  7
GOST_TYPE_B
 71
2
 72
 1
 11
28.75
 21
-57.85
 31
0.0
100
AcDbText
 73
 2
  0
TEXT
  5
182
100
AcDbEntity
  8
ASSEMBLY_REF_DES_BTM
100
AcDbText
 10
139.5935
 20
-70.6185
 30
0.0
 40
1.000000
 41
1.000000
  1
X5
  50
90.0
  7
GOST_TYPE_B
 71
2
 72
 1
 11
139.1
 21
-71.4
 31
0.0
100
AcDbText
 73
 2
  0
TEXT
  5
183
100
AcDbEntity
  8
ASSEMBLY_REF_DES_BTM
100
AcDbText
 10
166.79545
 20
-54.4212
 30
0.0
 40
0.700000
 41
1.000000
  1
C6
  50
90.0
  7
GOST_TYPE_B
 71
2
 72
 1
 11
166.45
 21
-54.9
 31
0.0
100
AcDbText
 73
 2
  0
TEXT
  5
184
100
AcDbEntity
  8
ASSEMBLY_REF_DES_BTM
100
AcDbText
 10
23.2175
 20
-57.3565
 30
0.0
 40
1.000000
 41
1.000000
  1
R6
  50
180.0
  7
GOST_TYPE_B
 71
2
 72
 1
 11
23.95
 21
-57.85
 31
0.0
100
AcDbText
 73
 2
  0
TEXT
  5
185
100
AcDbEntity
  8
ASSEMBLY_REF_DES_BTM
100
AcDbText
 10
179.9435
 20
-57.8185
 30
0.0
 40
1.000000
 41
1.000000
  1
X6
  50
90.0
  7
GOST_TYPE_B
 71
2
 72
 1
 11
179.45
 21
-58.6
 31
0.0
100
AcDbText
 73
 2
  0
TEXT
  5
186
100
AcDbEntity
  8
ASSEMBLY_REF_DES_BTM
100
AcDbText
 10
164.59545
 20
-54.3712
 30
0.0
 40
0.700000
 41
1.000000
  1
C7
  50
90.0
  7
GOST_TYPE_B
 71
2
 72
 1
 11
164.25
 21
-54.85
 31
0.0
100
AcDbText
 73
 2
  0
TEXT
  5
187
100
AcDbEntity
  8
ASSEMBLY_REF_DES_BTM
100
AcDbText
 10
15.3281
 20
-51.4066
 30
0.0
 40
1.000000
 41
1.000000
  1
C10
  50
90.0
  7
GOST_TYPE_B
 71
2
 72
 1
 11
14.8346
 21
-52.3346
 31
0.0
100
AcDbText
 73
 2
  0
TEXT
  5
188
100
AcDbEntity
  8
ASSEMBLY_REF_DES_BTM
100
AcDbText
 10
32.185
 20
-49.85325
 30
0.0
 40
0.500000
 41
1.000000
  1
C11
  50
180.0
  7
GOST_TYPE_B
 71
2
 72
 1
 11
32.6
 21
-50.1
 31
0.0
100
AcDbText
 73
 2
  0
TEXT
  5
189
100
AcDbEntity
  8
ASSEMBLY_REF_DES_BTM
100
AcDbText
 10
28.736
 20
-49.85325
 30
0.0
 40
0.500000
 41
1.000000
  1
C12
  50
180.0
  7
GOST_TYPE_B
 71
2
 72
 1
 11
29.2
 21
-50.1
 31
0.0
100
AcDbText
 73
 2
  0
TEXT
  5
18A
100
AcDbEntity
  8
ASSEMBLY_REF_DES_BTM
100
AcDbText
 10
31.672
 20
-47.7065
 30
0.0
 40
1.000000
 41
1.000000
  1
C13
  50
180.0
  7
GOST_TYPE_B
 71
2
 72
 1
 11
32.6
 21
-48.2
 31
0.0
100
AcDbText
 73
 2
  0
TEXT
  5
18B
100
AcDbEntity
  8
ASSEMBLY_REF_DES_BTM
100
AcDbText
 10
16.9781
 20
-54.4076
 30
0.0
 40
1.000000
 41
1.000000
  1
R10
  50
90.0
  7
GOST_TYPE_B
 71
2
 72
 1
 11
16.4846
 21
-55.3846
 31
0.0
100
AcDbText
 73
 2
  0
TEXT
  5
18C
100
AcDbEntity
  8
ASSEMBLY_REF_DES_BTM
100
AcDbText
 10
20.5781
 20
-56.5516
 30
0.0
 40
1.000000
 41
1.000000
  1
R7
  50
90.0
  7
GOST_TYPE_B
 71
2
 72
 1
 11
20.0846
 21
-57.2846
 31
0.0
100
AcDbText
 73
 2
  0
TEXT
  5
18D
100
AcDbEntity
  8
ASSEMBLY_REF_DES_BTM
100
AcDbText
 10
28.2235
 20
-47.7065
 30
0.0
 40
1.000000
 41
1.000000
  1
C14
  50
180.0
  7
GOST_TYPE_B
 71
2
 72
 1
 11
29.2
 21
-48.2
 31
0.0
100
AcDbText
 73
 2
  0
TEXT
  5
18E
100
AcDbEntity
  8
ASSEMBLY_REF_DES_BTM
100
AcDbText
 10
15.3781
 20
-54.5056
 30
0.0
 40
1.000000
 41
1.000000
  1
R11
  50
90.0
  7
GOST_TYPE_B
 71
2
 72
 1
 11
14.8846
 21
-55.3846
 31
0.0
100
AcDbText
 73
 2
  0
TEXT
  5
18F
100
AcDbEntity
  8
ASSEMBLY_REF_DES_BTM
100
AcDbText
 10
16.9281
 20
-47.9066
 30
0.0
 40
1.000000
 41
1.000000
  1
C15
  50
90.0
  7
GOST_TYPE_B
 71
2
 72
 1
 11
16.4346
 21
-48.8346
 31
0.0
100
AcDbText
 73
 2
  0
TEXT
  5
190
100
AcDbEntity
  8
ASSEMBLY_REF_DES_BTM
100
AcDbText
 10
137.7185
 20
-53.958584
 30
0.0
 40
1.000000
 41
1.000000
  1
X7
  50
180.0
  7
GOST_TYPE_B
 71
2
 72
 1
 11
138.5
 21
-54.452084
 31
0.0
100
AcDbText
 73
 2
  0
TEXT
  5
191
100
AcDbEntity
  8
ASSEMBLY_REF_DES_BTM
100
AcDbText
 10
179.9435
 20
-14.4545
 30
0.0
 40
1.000000
 41
1.000000
  1
X10
  50
90.0
  7
GOST_TYPE_B
 71
2
 72
 1
 11
179.45
 21
-15.48
 31
0.0
100
AcDbText
 73
 2
  0
TEXT
  5
192
100
AcDbEntity
  8
ASSEMBLY_REF_DES_BTM
100
AcDbText
 10
13.6781
 20
-46.1076
 30
0.0
 40
1.000000
 41
1.000000
  1
R12
  50
90.0
  7
GOST_TYPE_B
 71
2
 72
 1
 11
13.1846
 21
-47.0846
 31
0.0
100
AcDbText
 73
 2
  0
TEXT
  5
193
100
AcDbEntity
  8
ASSEMBLY_REF_DES_BTM
100
AcDbText
 10
15.3281
 20
-47.9066
 30
0.0
 40
1.000000
 41
1.000000
  1
C16
  50
90.0
  7
GOST_TYPE_B
 71
2
 72
 1
 11
14.8346
 21
-48.8346
 31
0.0
100
AcDbText
 73
 2
  0
TEXT
  5
194
100
AcDbEntity
  8
ASSEMBLY_REF_DES_BTM
100
AcDbText
 10
110.05
 20
-14.963
 30
0.0
 40
1.000000
 41
1.000000
  1
X11
  50
180.0
  7
GOST_TYPE_B
 71
2
 11
110.05
 21
-15.95
 31
0.0
100
AcDbText
 73
 3
  0
TEXT
  5
195
100
AcDbEntity
  8
ASSEMBLY_REF_DES_BTM
100
AcDbText
 10
22.5781
 20
-43.3076
 30
0.0
 40
1.000000
 41
1.000000
  1
R13
  50
90.0
  7
GOST_TYPE_B
 71
2
 72
 1
 11
22.0846
 21
-44.2846
 31
0.0
100
AcDbText
 73
 2
  0
TEXT
  5
196
100
AcDbEntity
  8
ASSEMBLY_REF_DES_BTM
100
AcDbText
 10
11.372
 20
-49.0065
 30
0.0
 40
1.000000
 41
1.000000
  1
C17
  50
180.0
  7
GOST_TYPE_B
 71
2
 72
 1
 11
12.3
 21
-49.5
 31
0.0
100
AcDbText
 73
 2
  0
TEXT
  5
197
100
AcDbEntity
  8
ASSEMBLY_REF_DES_BTM
100
AcDbText
 10
57.95
 20
-6.65
 30
0.0
 40
1.000000
 41
1.000000
  1
X12
  50
180.0
  7
VERIBEST_GERBER_0
 71
2
 11
57.95
 21
-7.65
 31
0.0
100
AcDbText
 73
 3
  0
TEXT
  5
198
100
AcDbEntity
  8
ASSEMBLY_REF_DES_BTM
100
AcDbText
 10
25.525
 20
-42.0065
 30
0.0
 40
1.000000
 41
1.000000
  1
R14
  50
180.0
  7
GOST_TYPE_B
 71
2
 72
 1
 11
26.55
 21
-42.5
 31
0.0
100
AcDbText
 73
 2
  0
TEXT
  5
199
100
AcDbEntity
  8
ASSEMBLY_REF_DES_BTM
100
AcDbText
 10
24.3675
 20
-55.5065
 30
0.0
 40
1.000000
 41
1.000000
  1
C8
  50
180.0
  7
GOST_TYPE_B
 71
2
 72
 1
 11
25.1
 21
-56.0
 31
0.0
100
AcDbText
 73
 2
  0
TEXT
  5
19A
100
AcDbEntity
  8
ASSEMBLY_REF_DES_BTM
100
AcDbText
 10
31.447125
 20
-46.013675
 30
0.0
 40
1.000000
 41
1.000000
  1
C18
  50
180.0
  7
GOST_TYPE_B
 71
2
 72
 1
 11
32.423625
 21
-46.507175
 31
0.0
100
AcDbText
 73
 2
  0
TEXT
  5
19B
100
AcDbEntity
  8
ASSEMBLY_REF_DES_BTM
100
AcDbText
 10
27.274
 20
-43.9065
 30
0.0
 40
1.000000
 41
1.000000
  1
C20
  50
180.0
  7
GOST_TYPE_B
 71
2
 72
 1
 11
28.3
 21
-44.4
 31
0.0
100
AcDbText
 73
 2
  0
TEXT
  5
19C
100
AcDbEntity
  8
ASSEMBLY_REF_DES_BTM
100
AcDbText
 10
179.8935
 20
-9.3145
 30
0.0
 40
1.000000
 41
1.000000
  1
X13
  50
90.0
  7
GOST_TYPE_B
 71
2
 72
 1
 11
179.4
 21
-10.34
 31
0.0
100
AcDbText
 73
 2
  0
TEXT
  5
19D
100
AcDbEntity
  8
ASSEMBLY_REF_DES_BTM
100
AcDbText
 10
17.7735
 20
-42.1565
 30
0.0
 40
1.000000
 41
1.000000
  1
R15
  50
180.0
  7
GOST_TYPE_B
 71
2
 72
 1
 11
18.75
 21
-42.65
 31
0.0
100
AcDbText
 73
 2
  0
TEXT
  5
19E
100
AcDbEntity
  8
ASSEMBLY_REF_DES_BTM
100
AcDbText
 10
22.772
 20
-44.0065
 30
0.0
 40
1.000000
 41
1.000000
  1
C21
  50
180.0
  7
GOST_TYPE_B
 71
2
 72
 1
 11
23.7
 21
-44.5
 31
0.0
100
AcDbText
 73
 2
  0
TEXT
  5
19F
100
AcDbEntity
  8
ASSEMBLY_REF_DES_BTM
100
AcDbText
 10
28.272
 20
-45.8065
 30
0.0
 40
1.000000
 41
1.000000
  1
C19
  50
180.0
  7
GOST_TYPE_B
 71
2
 72
 1
 11
29.2
 21
-46.3
 31
0.0
100
AcDbText
 73
 2
  0
TEXT
  5
1A0
100
AcDbEntity
  8
ASSEMBLY_REF_DES_BTM
100
AcDbText
 10
14.7735
 20
-42.1565
 30
0.0
 40
1.000000
 41
1.000000
  1
R16
  50
180.0
  7
GOST_TYPE_B
 71
2
 72
 1
 11
15.75
 21
-42.65
 31
0.0
100
AcDbText
 73
 2
  0
TEXT
  5
1A1
100
AcDbEntity
  8
ASSEMBLY_REF_DES_BTM
100
AcDbText
 10
17.874
 20
-45.1065
 30
0.0
 40
1.000000
 41
1.000000
  1
C22
  50
180.0
  7
GOST_TYPE_B
 71
2
 72
 1
 11
18.9
 21
-45.6
 31
0.0
100
AcDbText
 73
 2
  0
TEXT
  5
1A2
100
AcDbEntity
  8
ASSEMBLY_REF_DES_BTM
100
AcDbText
 10
14.6735
 20
-40.6565
 30
0.0
 40
1.000000
 41
1.000000
  1
R17
  50
180.0
  7
GOST_TYPE_B
 71
2
 72
 1
 11
15.65
 21
-41.15
 31
0.0
100
AcDbText
 73
 2
  0
TEXT
  5
1A3
100
AcDbEntity
  8
ASSEMBLY_REF_DES_BTM
100
AcDbText
 10
17.874
 20
-43.7065
 30
0.0
 40
1.000000
 41
1.000000
  1
C23
  50
180.0
  7
GOST_TYPE_B
 71
2
 72
 1
 11
18.9
 21
-44.2
 31
0.0
100
AcDbText
 73
 2
  0
TEXT
  5
1A4
100
AcDbEntity
  8
ASSEMBLY_REF_DES_BTM
100
AcDbText
 10
14.769
 20
-57.1565
 30
0.0
 40
1.000000
 41
1.000000
  1
R8
  50
180.0
  7
GOST_TYPE_B
 71
2
 72
 1
 11
15.55
 21
-57.65
 31
0.0
100
AcDbText
 73
 2
  0
TEXT
  5
1A5
100
AcDbEntity
  8
ASSEMBLY_REF_DES_BTM
100
AcDbText
 10
82.29785
 20
-31.30455
 30
0.0
 40
0.700000
 41
1.000000
  1
R20
  50
180.0
  7
GOST_TYPE_B
 71
2
 72
 1
 11
83.05
 21
-31.65
 31
0.0
100
AcDbText
 73
 2
  0
TEXT
  5
1A6
100
AcDbEntity
  8
ASSEMBLY_REF_DES_BTM
100
AcDbText
 10
74.3325
 20
-35.80455
 30
0.0
 40
0.700000
 41
1.000000
  1
R18
  50
180.0
  7
GOST_TYPE_B
 71
2
 72
 1
 11
75.05
 21
-36.15
 31
0.0
100
AcDbText
 73
 2
  0
TEXT
  5
1A7
100
AcDbEntity
  8
ASSEMBLY_REF_DES_BTM
100
AcDbText
 10
16.9281
 20
-44.7596
 30
0.0
 40
1.000000
 41
1.000000
  1
C24
  50
90.0
  7
GOST_TYPE_B
 71
2
 72
 1
 11
16.4346
 21
-45.8346
 31
0.0
100
AcDbText
 73
 2
  0
TEXT
  5
1A8
100
AcDbEntity
  8
ASSEMBLY_REF_DES_BTM
100
AcDbText
 10
37.1735
 20
-37.3565
 30
0.0
 40
1.000000
 41
1.000000
  1
R19
  50
180.0
  7
GOST_TYPE_B
 71
2
 72
 1
 11
38.15
 21
-37.85
 31
0.0
100
AcDbText
 73
 2
  0
TEXT
  5
1A9
100
AcDbEntity
  8
ASSEMBLY_REF_DES_BTM
100
AcDbText
 10
71.6435
 20
-17.273
 30
0.0
 40
1.000000
 41
1.000000
  1
R21
  50
90.0
  7
GOST_TYPE_B
 71
2
 72
 1
 11
71.15
 21
-18.25
 31
0.0
100
AcDbText
 73
 2
  0
TEXT
  5
1AA
100
AcDbEntity
  8
ASSEMBLY_REF_DES_BTM
100
AcDbText
 10
15.3281
 20
-44.8086
 30
0.0
 40
1.000000
 41
1.000000
  1
C25
  50
90.0
  7
GOST_TYPE_B
 71
2
 72
 1
 11
14.8346
 21
-45.8346
 31
0.0
100
AcDbText
 73
 2
  0
TEXT
  5
1AB
100
AcDbEntity
  8
ASSEMBLY_REF_DES_BTM
100
AcDbText
 10
179.9435
 20
-34.5695
 30
0.0
 40
1.000000
 41
1.000000
  1
X8
  50
90.0
  7
GOST_TYPE_B
 71
2
 72
 1
 11
179.45
 21
-35.4
 31
0.0
100
AcDbText
 73
 2
  0
TEXT
  5
1AC
100
AcDbEntity
  8
ASSEMBLY_REF_DES_BTM
100
AcDbText
 10
99.59785
 20
-16.85455
 30
0.0
 40
0.700000
 41
1.000000
  1
R22
  50
180.0
  7
GOST_TYPE_B
 71
2
 72
 1
 11
100.35
 21
-17.2
 31
0.0
100
AcDbText
 73
 2
  0
TEXT
  5
1AD
100
AcDbEntity
  8
ASSEMBLY_REF_DES_BTM
100
AcDbText
 10
74.2818
 20
-33.95455
 30
0.0
 40
0.700000
 41
1.000000
  1
C26
  50
180.0
  7
GOST_TYPE_B
 71
2
 72
 1
 11
75.0
 21
-34.3
 31
0.0
100
AcDbText
 73
 2
  0
TEXT
  5
1AE
100
AcDbEntity
  8
ASSEMBLY_REF_DES_BTM
100
AcDbText
 10
9.79545
 20
-8.5975
 30
0.0
 40
0.700000
 41
1.000000
  1
R23
  50
90.0
  7
GOST_TYPE_B
 71
2
 72
 1
 11
9.45
 21
-9.35
 31
0.0
100
AcDbText
 73
 2
  0
TEXT
  5
1AF
100
AcDbEntity
  8
ASSEMBLY_REF_DES_BTM
100
AcDbText
 10
16.9281
 20
-51.6506
 30
0.0
 40
1.000000
 41
1.000000
  1
C9
  50
90.0
  7
GOST_TYPE_B
 71
2
 72
 1
 11
16.4346
 21
-52.3346
 31
0.0
100
AcDbText
 73
 2
  0
TEXT
  5
1B0
100
AcDbEntity
  8
ASSEMBLY_REF_DES_BTM
100
AcDbText
 10
162.84545
 20
-54.3869
 30
0.0
 40
0.700000
 41
1.000000
  1
R9
  50
90.0
  7
GOST_TYPE_B
 71
2
 72
 1
 11
162.5
 21
-54.9
 31
0.0
100
AcDbText
 73
 2
  0
TEXT
  5
1B1
100
AcDbEntity
  8
ASSEMBLY_REF_DES_BTM
100
AcDbText
 10
88.002948
 20
-22.552396
 30
0.0
 40
0.700000
 41
1.000000
  1
X9
  50
180.0
  7
GOST_TYPE_B
 71
2
 72
 1
 11
88.549998
 21
-22.897846
 31
0.0
100
AcDbText
 73
 2
  0
TEXT
  5
1B2
100
AcDbEntity
  8
ASSEMBLY_REF_DES_BTM
100
AcDbText
 10
76.826
 20
-14.1065
 30
0.0
 40
1.000000
 41
1.000000
  1
VT1
  50
180.0
  7
GOST_TYPE_B
 71
2
 72
 1
 11
77.9
 21
-14.6
 31
0.0
100
AcDbText
 73
 2
  0
LWPOLYLINE
  5
1B3
100
AcDbEntity
  8
BOARD_OUTLINE
100
AcDbPolyline
 90
        4
 70
         1
 43
0.2
 10
-2.0
 20
-96.0
 10
-2.0
 20
4.0
 10
183.0
 20
4.0
 10
183.0
 20
-96.0
  0
CIRCLE
  5
1B4
100
AcDbEntity
  8
MOUNTING_HOLES_LAYER_TOP
100
AcDbCircle
 10
2.0
 20
0.0
 30
0.0
 40
1.5
  0
HATCH
  5
1B5
100
AcDbEntity
  8
MOUNTING_HOLES_LAYER_TOP
100
AcDbHatch
 10
0.0
 20
0.0
 30
0.0
 210
0.0
 220
0.0
 230
1.0
  2
SOLID
 70
         1
 71
        1
 91
        1
  92
     1
  93
     1
 72
     2
 10
2.0
 20
0.0
  40
1.5
  50
     0.0
  51
     360.0
 73
     0
  97
     1
  330
    436
 75
     0
 76
     1
  98
     1
 10
0.0
 20
0.0
  0
CIRCLE
  5
1B6
100
AcDbEntity
  8
MOUNTING_HOLES_LAYER_TOP
100
AcDbCircle
 10
179.0
 20
0.0
 30
0.0
 40
1.5
  0
HATCH
  5
1B7
100
AcDbEntity
  8
MOUNTING_HOLES_LAYER_TOP
100
AcDbHatch
 10
0.0
 20
0.0
 30
0.0
 210
0.0
 220
0.0
 230
1.0
  2
SOLID
 70
         1
 71
        1
 91
        1
  92
     1
  93
     1
 72
     2
 10
179.0
 20
0.0
  40
1.5
  50
     0.0
  51
     360.0
 73
     0
  97
     1
  330
    438
 75
     0
 76
     1
  98
     1
 10
0.0
 20
0.0
  0
CIRCLE
  5
1B8
100
AcDbEntity
  8
MOUNTING_HOLES_LAYER_TOP
100
AcDbCircle
 10
126.25
 20
-6.352084
 30
0.0
 40
1.865
  0
HATCH
  5
1B9
100
AcDbEntity
  8
MOUNTING_HOLES_LAYER_TOP
100
AcDbHatch
 10
0.0
 20
0.0
 30
0.0
 210
0.0
 220
0.0
 230
1.0
  2
SOLID
 70
         1
 71
        1
 91
        1
  92
     1
  93
     1
 72
     2
 10
126.25
 20
-6.352084
  40
1.865
  50
     0.0
  51
     360.0
 73
     0
  97
     1
  330
    440
 75
     0
 76
     1
  98
     1
 10
0.0
 20
0.0
  0
CIRCLE
  5
1BA
100
AcDbEntity
  8
MOUNTING_HOLES_LAYER_TOP
100
AcDbCircle
 10
150.45
 20
-6.352084
 30
0.0
 40
1.865
  0
HATCH
  5
1BB
100
AcDbEntity
  8
MOUNTING_HOLES_LAYER_TOP
100
AcDbHatch
 10
0.0
 20
0.0
 30
0.0
 210
0.0
 220
0.0
 230
1.0
  2
SOLID
 70
         1
 71
        1
 91
        1
  92
     1
  93
     1
 72
     2
 10
150.45
 20
-6.352084
  40
1.865
  50
     0.0
  51
     360.0
 73
     0
  97
     1
  330
    442
 75
     0
 76
     1
  98
     1
 10
0.0
 20
0.0
  0
CIRCLE
  5
1BC
100
AcDbEntity
  8
MOUNTING_HOLES_LAYER_TOP
100
AcDbCircle
 10
179.0
 20
-92.0
 30
0.0
 40
1.5
  0
HATCH
  5
1BD
100
AcDbEntity
  8
MOUNTING_HOLES_LAYER_TOP
100
AcDbHatch
 10
0.0
 20
0.0
 30
0.0
 210
0.0
 220
0.0
 230
1.0
  2
SOLID
 70
         1
 71
        1
 91
        1
  92
     1
  93
     1
 72
     2
 10
179.0
 20
-92.0
  40
1.5
  50
     0.0
  51
     360.0
 73
     0
  97
     1
  330
    444
 75
     0
 76
     1
  98
     1
 10
0.0
 20
0.0
  0
CIRCLE
  5
1BE
100
AcDbEntity
  8
MOUNTING_HOLES_LAYER_TOP
100
AcDbCircle
 10
2.0
 20
-92.0
 30
0.0
 40
1.5
  0
HATCH
  5
1BF
100
AcDbEntity
  8
MOUNTING_HOLES_LAYER_TOP
100
AcDbHatch
 10
0.0
 20
0.0
 30
0.0
 210
0.0
 220
0.0
 230
1.0
  2
SOLID
 70
         1
 71
        1
 91
        1
  92
     1
  93
     1
 72
     2
 10
2.0
 20
-92.0
  40
1.5
  50
     0.0
  51
     360.0
 73
     0
  97
     1
  330
    446
 75
     0
 76
     1
  98
     1
 10
0.0
 20
0.0
  0
CIRCLE
  5
1C0
100
AcDbEntity
  8
MOUNTING_HOLES_LAYER_TOP
100
AcDbCircle
 10
3.0
 20
-23.0
 30
0.0
 40
1.5
  0
HATCH
  5
1C1
100
AcDbEntity
  8
MOUNTING_HOLES_LAYER_TOP
100
AcDbHatch
 10
0.0
 20
0.0
 30
0.0
 210
0.0
 220
0.0
 230
1.0
  2
SOLID
 70
         1
 71
        1
 91
        1
  92
     1
  93
     1
 72
     2
 10
3.0
 20
-23.0
  40
1.5
  50
     0.0
  51
     360.0
 73
     0
  97
     1
  330
    448
 75
     0
 76
     1
  98
     1
 10
0.0
 20
0.0
  0
CIRCLE
  5
1C2
100
AcDbEntity
  8
MOUNTING_HOLES_LAYER_TOP
100
AcDbCircle
 10
3.0
 20
-46.0
 30
0.0
 40
1.5
  0
HATCH
  5
1C3
100
AcDbEntity
  8
MOUNTING_HOLES_LAYER_TOP
100
AcDbHatch
 10
0.0
 20
0.0
 30
0.0
 210
0.0
 220
0.0
 230
1.0
  2
SOLID
 70
         1
 71
        1
 91
        1
  92
     1
  93
     1
 72
     2
 10
3.0
 20
-46.0
  40
1.5
  50
     0.0
  51
     360.0
 73
     0
  97
     1
  330
    450
 75
     0
 76
     1
  98
     1
 10
0.0
 20
0.0
  0
CIRCLE
  5
1C4
100
AcDbEntity
  8
MOUNTING_HOLES_LAYER_TOP
100
AcDbCircle
 10
3.0
 20
-69.0
 30
0.0
 40
1.5
  0
HATCH
  5
1C5
100
AcDbEntity
  8
MOUNTING_HOLES_LAYER_TOP
100
AcDbHatch
 10
0.0
 20
0.0
 30
0.0
 210
0.0
 220
0.0
 230
1.0
  2
SOLID
 70
         1
 71
        1
 91
        1
  92
     1
  93
     1
 72
     2
 10
3.0
 20
-69.0
  40
1.5
  50
     0.0
  51
     360.0
 73
     0
  97
     1
  330
    452
 75
     0
 76
     1
  98
     1
 10
0.0
 20
0.0
  0
CIRCLE
  5
1C6
100
AcDbEntity
  8
MOUNTING_HOLES_LAYER_TOP
100
AcDbCircle
 10
178.0
 20
-23.0
 30
0.0
 40
1.5
  0
HATCH
  5
1C7
100
AcDbEntity
  8
MOUNTING_HOLES_LAYER_TOP
100
AcDbHatch
 10
0.0
 20
0.0
 30
0.0
 210
0.0
 220
0.0
 230
1.0
  2
SOLID
 70
         1
 71
        1
 91
        1
  92
     1
  93
     1
 72
     2
 10
178.0
 20
-23.0
  40
1.5
  50
     0.0
  51
     360.0
 73
     0
  97
     1
  330
    454
 75
     0
 76
     1
  98
     1
 10
0.0
 20
0.0
  0
CIRCLE
  5
1C8
100
AcDbEntity
  8
MOUNTING_HOLES_LAYER_TOP
100
AcDbCircle
 10
178.0
 20
-46.0
 30
0.0
 40
1.5
  0
HATCH
  5
1C9
100
AcDbEntity
  8
MOUNTING_HOLES_LAYER_TOP
100
AcDbHatch
 10
0.0
 20
0.0
 30
0.0
 210
0.0
 220
0.0
 230
1.0
  2
SOLID
 70
         1
 71
        1
 91
        1
  92
     1
  93
     1
 72
     2
 10
178.0
 20
-46.0
  40
1.5
  50
     0.0
  51
     360.0
 73
     0
  97
     1
  330
    456
 75
     0
 76
     1
  98
     1
 10
0.0
 20
0.0
  0
CIRCLE
  5
1CA
100
AcDbEntity
  8
MOUNTING_HOLES_LAYER_TOP
100
AcDbCircle
 10
178.0
 20
-69.0
 30
0.0
 40
1.5
  0
HATCH
  5
1CB
100
AcDbEntity
  8
MOUNTING_HOLES_LAYER_TOP
100
AcDbHatch
 10
0.0
 20
0.0
 30
0.0
 210
0.0
 220
0.0
 230
1.0
  2
SOLID
 70
         1
 71
        1
 91
        1
  92
     1
  93
     1
 72
     2
 10
178.0
 20
-69.0
  40
1.5
  50
     0.0
  51
     360.0
 73
     0
  97
     1
  330
    458
 75
     0
 76
     1
  98
     1
 10
0.0
 20
0.0
  0
CIRCLE
  5
1CC
100
AcDbEntity
  8
MOUNTING_HOLES_LAYER_TOP
100
AcDbCircle
 10
144.93
 20
-85.16
 30
0.0
 40
1.65
  0
HATCH
  5
1CD
100
AcDbEntity
  8
MOUNTING_HOLES_LAYER_TOP
100
AcDbHatch
 10
0.0
 20
0.0
 30
0.0
 210
0.0
 220
0.0
 230
1.0
  2
SOLID
 70
         1
 71
        1
 91
        1
  92
     1
  93
     1
 72
     2
 10
144.93
 20
-85.16
  40
1.65
  50
     0.0
  51
     360.0
 73
     0
  97
     1
  330
    460
 75
     0
 76
     1
  98
     1
 10
0.0
 20
0.0
  0
CIRCLE
  5
1CE
100
AcDbEntity
  8
MOUNTING_HOLES_LAYER_TOP
100
AcDbCircle
 10
156.36
 20
-85.16
 30
0.0
 40
1.65
  0
HATCH
  5
1CF
100
AcDbEntity
  8
MOUNTING_HOLES_LAYER_TOP
100
AcDbHatch
 10
0.0
 20
0.0
 30
0.0
 210
0.0
 220
0.0
 230
1.0
  2
SOLID
 70
         1
 71
        1
 91
        1
  92
     1
  93
     1
 72
     2
 10
156.36
 20
-85.16
  40
1.65
  50
     0.0
  51
     360.0
 73
     0
  97
     1
  330
    462
 75
     0
 76
     1
  98
     1
 10
0.0
 20
0.0
  0
CIRCLE
  5
1D0
100
AcDbEntity
  8
MOUNTING_HOLES_LAYER_TOP
100
AcDbCircle
 10
108.25
 20
-91.2
 30
0.0
 40
0.275
  0
HATCH
  5
1D1
100
AcDbEntity
  8
MOUNTING_HOLES_LAYER_TOP
100
AcDbHatch
 10
0.0
 20
0.0
 30
0.0
 210
0.0
 220
0.0
 230
1.0
  2
SOLID
 70
         1
 71
        1
 91
        1
  92
     1
  93
     1
 72
     2
 10
108.25
 20
-91.2
  40
0.275
  50
     0.0
  51
     360.0
 73
     0
  97
     1
  330
    464
 75
     0
 76
     1
  98
     1
 10
0.0
 20
0.0
  0
CIRCLE
  5
1D2
100
AcDbEntity
  8
MOUNTING_HOLES_LAYER_TOP
100
AcDbCircle
 10
104.25
 20
-91.2
 30
0.0
 40
0.275
  0
HATCH
  5
1D3
100
AcDbEntity
  8
MOUNTING_HOLES_LAYER_TOP
100
AcDbHatch
 10
0.0
 20
0.0
 30
0.0
 210
0.0
 220
0.0
 230
1.0
  2
SOLID
 70
         1
 71
        1
 91
        1
  92
     1
  93
     1
 72
     2
 10
104.25
 20
-91.2
  40
0.275
  50
     0.0
  51
     360.0
 73
     0
  97
     1
  330
    466
 75
     0
 76
     1
  98
     1
 10
0.0
 20
0.0
  0
CIRCLE
  5
1D4
100
AcDbEntity
  8
MOUNTING_HOLES_LAYER_TOP
100
AcDbCircle
 10
168.0
 20
-91.85
 30
0.0
 40
0.6
  0
HATCH
  5
1D5
100
AcDbEntity
  8
MOUNTING_HOLES_LAYER_TOP
100
AcDbHatch
 10
0.0
 20
0.0
 30
0.0
 210
0.0
 220
0.0
 230
1.0
  2
SOLID
 70
         1
 71
        1
 91
        1
  92
     1
  93
     1
 72
     2
 10
168.0
 20
-91.85
  40
0.6
  50
     0.0
  51
     360.0
 73
     0
  97
     1
  330
    468
 75
     0
 76
     1
  98
     1
 10
0.0
 20
0.0
  0
CIRCLE
  5
1D6
100
AcDbEntity
  8
MOUNTING_HOLES_LAYER_TOP
100
AcDbCircle
 10
168.0
 20
-84.85
 30
0.0
 40
0.6
  0
HATCH
  5
1D7
100
AcDbEntity
  8
MOUNTING_HOLES_LAYER_TOP
100
AcDbHatch
 10
0.0
 20
0.0
 30
0.0
 210
0.0
 220
0.0
 230
1.0
  2
SOLID
 70
         1
 71
        1
 91
        1
  92
     1
  93
     1
 72
     2
 10
168.0
 20
-84.85
  40
0.6
  50
     0.0
  51
     360.0
 73
     0
  97
     1
  330
    470
 75
     0
 76
     1
  98
     1
 10
0.0
 20
0.0
  0
CIRCLE
  5
1D8
100
AcDbEntity
  8
MOUNTING_HOLES_LAYER_TOP
100
AcDbCircle
 10
122.8
 20
-86.1
 30
0.0
 40
0.8
  0
HATCH
  5
1D9
100
AcDbEntity
  8
MOUNTING_HOLES_LAYER_TOP
100
AcDbHatch
 10
0.0
 20
0.0
 30
0.0
 210
0.0
 220
0.0
 230
1.0
  2
SOLID
 70
         1
 71
        1
 91
        1
  92
     1
  93
     1
 72
     2
 10
122.8
 20
-86.1
  40
0.8
  50
     0.0
  51
     360.0
 73
     0
  97
     1
  330
    472
 75
     0
 76
     1
  98
     1
 10
0.0
 20
0.0
  0
CIRCLE
  5
1DA
100
AcDbEntity
  8
MOUNTING_HOLES_LAYER_TOP
100
AcDbCircle
 10
127.8
 20
-86.1
 30
0.0
 40
0.8
  0
HATCH
  5
1DB
100
AcDbEntity
  8
MOUNTING_HOLES_LAYER_TOP
100
AcDbHatch
 10
0.0
 20
0.0
 30
0.0
 210
0.0
 220
0.0
 230
1.0
  2
SOLID
 70
         1
 71
        1
 91
        1
  92
     1
  93
     1
 72
     2
 10
127.8
 20
-86.1
  40
0.8
  50
     0.0
  51
     360.0
 73
     0
  97
     1
  330
    474
 75
     0
 76
     1
  98
     1
 10
0.0
 20
0.0
  0
CIRCLE
  5
1DC
100
AcDbEntity
  8
MOUNTING_HOLES_LAYER_TOP
100
AcDbCircle
 10
150.85
 20
-54.402084
 30
0.0
 40
0.55
  0
HATCH
  5
1DD
100
AcDbEntity
  8
MOUNTING_HOLES_LAYER_TOP
100
AcDbHatch
 10
0.0
 20
0.0
 30
0.0
 210
0.0
 220
0.0
 230
1.0
  2
SOLID
 70
         1
 71
        1
 91
        1
  92
     1
  93
     1
 72
     2
 10
150.85
 20
-54.402084
  40
0.55
  50
     0.0
  51
     360.0
 73
     0
  97
     1
  330
    476
 75
     0
 76
     1
  98
     1
 10
0.0
 20
0.0
  0
CIRCLE
  5
1DE
100
AcDbEntity
  8
MOUNTING_HOLES_LAYER_TOP
100
AcDbCircle
 10
125.85
 20
-54.402084
 30
0.0
 40
0.8
  0
HATCH
  5
1DF
100
AcDbEntity
  8
MOUNTING_HOLES_LAYER_TOP
100
AcDbHatch
 10
0.0
 20
0.0
 30
0.0
 210
0.0
 220
0.0
 230
1.0
  2
SOLID
 70
         1
 71
        1
 91
        1
  92
     1
  93
     1
 72
     2
 10
125.85
 20
-54.402084
  40
0.8
  50
     0.0
  51
     360.0
 73
     0
  97
     1
  330
    478
 75
     0
 76
     1
  98
     1
 10
0.0
 20
0.0
  0
CIRCLE
  5
1E0
100
AcDbEntity
  8
PART_HOLES_LAYER_TOP
100
AcDbCircle
 10
179.37
 20
-83.37
 30
0.0
 40
0.45
  0
HATCH
  5
1E1
100
AcDbEntity
  8
PART_HOLES_LAYER_TOP
100
AcDbHatch
 10
0.0
 20
0.0
 30
0.0
 210
0.0
 220
0.0
 230
1.0
  2
SOLID
 70
         1
 71
        1
 91
        1
  92
     1
  93
     1
 72
     2
 10
179.37
 20
-83.37
  40
0.45
  50
     0.0
  51
     360.0
 73
     0
  97
     1
  330
    480
 75
     0
 76
     1
  98
     1
 10
0.0
 20
0.0
  0
CIRCLE
  5
1E2
100
AcDbEntity
  8
PART_HOLES_LAYER_TOP
100
AcDbCircle
 10
179.37
 20
-80.83
 30
0.0
 40
0.45
  0
HATCH
  5
1E3
100
AcDbEntity
  8
PART_HOLES_LAYER_TOP
100
AcDbHatch
 10
0.0
 20
0.0
 30
0.0
 210
0.0
 220
0.0
 230
1.0
  2
SOLID
 70
         1
 71
        1
 91
        1
  92
     1
  93
     1
 72
     2
 10
179.37
 20
-80.83
  40
0.45
  50
     0.0
  51
     360.0
 73
     0
  97
     1
  330
    482
 75
     0
 76
     1
  98
     1
 10
0.0
 20
0.0
  0
CIRCLE
  5
1E4
100
AcDbEntity
  8
PART_HOLES_LAYER_TOP
100
AcDbCircle
 10
179.4
 20
-61.1
 30
0.0
 40
0.45
  0
HATCH
  5
1E5
100
AcDbEntity
  8
PART_HOLES_LAYER_TOP
100
AcDbHatch
 10
0.0
 20
0.0
 30
0.0
 210
0.0
 220
0.0
 230
1.0
  2
SOLID
 70
         1
 71
        1
 91
        1
  92
     1
  93
     1
 72
     2
 10
179.4
 20
-61.1
  40
0.45
  50
     0.0
  51
     360.0
 73
     0
  97
     1
  330
    484
 75
     0
 76
     1
  98
     1
 10
0.0
 20
0.0
  0
CIRCLE
  5
1E6
100
AcDbEntity
  8
PART_HOLES_LAYER_TOP
100
AcDbCircle
 10
179.4
 20
-58.56
 30
0.0
 40
0.45
  0
HATCH
  5
1E7
100
AcDbEntity
  8
PART_HOLES_LAYER_TOP
100
AcDbHatch
 10
0.0
 20
0.0
 30
0.0
 210
0.0
 220
0.0
 230
1.0
  2
SOLID
 70
         1
 71
        1
 91
        1
  92
     1
  93
     1
 72
     2
 10
179.4
 20
-58.56
  40
0.45
  50
     0.0
  51
     360.0
 73
     0
  97
     1
  330
    486
 75
     0
 76
     1
  98
     1
 10
0.0
 20
0.0
  0
CIRCLE
  5
1E8
100
AcDbEntity
  8
PART_HOLES_LAYER_TOP
100
AcDbCircle
 10
179.4
 20
-56.02
 30
0.0
 40
0.45
  0
HATCH
  5
1E9
100
AcDbEntity
  8
PART_HOLES_LAYER_TOP
100
AcDbHatch
 10
0.0
 20
0.0
 30
0.0
 210
0.0
 220
0.0
 230
1.0
  2
SOLID
 70
         1
 71
        1
 91
        1
  92
     1
  93
     1
 72
     2
 10
179.4
 20
-56.02
  40
0.45
  50
     0.0
  51
     360.0
 73
     0
  97
     1
  330
    488
 75
     0
 76
     1
  98
     1
 10
0.0
 20
0.0
  0
CIRCLE
  5
1EA
100
AcDbEntity
  8
PART_HOLES_LAYER_TOP
100
AcDbCircle
 10
179.4
 20
-17.98
 30
0.0
 40
0.45
  0
HATCH
  5
1EB
100
AcDbEntity
  8
PART_HOLES_LAYER_TOP
100
AcDbHatch
 10
0.0
 20
0.0
 30
0.0
 210
0.0
 220
0.0
 230
1.0
  2
SOLID
 70
         1
 71
        1
 91
        1
  92
     1
  93
     1
 72
     2
 10
179.4
 20
-17.98
  40
0.45
  50
     0.0
  51
     360.0
 73
     0
  97
     1
  330
    490
 75
     0
 76
     1
  98
     1
 10
0.0
 20
0.0
  0
CIRCLE
  5
1EC
100
AcDbEntity
  8
PART_HOLES_LAYER_TOP
100
AcDbCircle
 10
179.4
 20
-15.44
 30
0.0
 40
0.45
  0
HATCH
  5
1ED
100
AcDbEntity
  8
PART_HOLES_LAYER_TOP
100
AcDbHatch
 10
0.0
 20
0.0
 30
0.0
 210
0.0
 220
0.0
 230
1.0
  2
SOLID
 70
         1
 71
        1
 91
        1
  92
     1
  93
     1
 72
     2
 10
179.4
 20
-15.44
  40
0.45
  50
     0.0
  51
     360.0
 73
     0
  97
     1
  330
    492
 75
     0
 76
     1
  98
     1
 10
0.0
 20
0.0
  0
CIRCLE
  5
1EE
100
AcDbEntity
  8
PART_HOLES_LAYER_TOP
100
AcDbCircle
 10
179.4
 20
-12.9
 30
0.0
 40
0.45
  0
HATCH
  5
1EF
100
AcDbEntity
  8
PART_HOLES_LAYER_TOP
100
AcDbHatch
 10
0.0
 20
0.0
 30
0.0
 210
0.0
 220
0.0
 230
1.0
  2
SOLID
 70
         1
 71
        1
 91
        1
  92
     1
  93
     1
 72
     2
 10
179.4
 20
-12.9
  40
0.45
  50
     0.0
  51
     360.0
 73
     0
  97
     1
  330
    494
 75
     0
 76
     1
  98
     1
 10
0.0
 20
0.0
  0
CIRCLE
  5
1F0
100
AcDbEntity
  8
PART_HOLES_LAYER_TOP
100
AcDbCircle
 10
179.4
 20
-10.34
 30
0.0
 40
0.45
  0
HATCH
  5
1F1
100
AcDbEntity
  8
PART_HOLES_LAYER_TOP
100
AcDbHatch
 10
0.0
 20
0.0
 30
0.0
 210
0.0
 220
0.0
 230
1.0
  2
SOLID
 70
         1
 71
        1
 91
        1
  92
     1
  93
     1
 72
     2
 10
179.4
 20
-10.34
  40
0.45
  50
     0.0
  51
     360.0
 73
     0
  97
     1
  330
    496
 75
     0
 76
     1
  98
     1
 10
0.0
 20
0.0
  0
CIRCLE
  5
1F2
100
AcDbEntity
  8
PART_HOLES_LAYER_TOP
100
AcDbCircle
 10
179.4
 20
-7.8
 30
0.0
 40
0.45
  0
HATCH
  5
1F3
100
AcDbEntity
  8
PART_HOLES_LAYER_TOP
100
AcDbHatch
 10
0.0
 20
0.0
 30
0.0
 210
0.0
 220
0.0
 230
1.0
  2
SOLID
 70
         1
 71
        1
 91
        1
  92
     1
  93
     1
 72
     2
 10
179.4
 20
-7.8
  40
0.45
  50
     0.0
  51
     360.0
 73
     0
  97
     1
  330
    498
 75
     0
 76
     1
  98
     1
 10
0.0
 20
0.0
  0
CIRCLE
  5
1F4
100
AcDbEntity
  8
PART_HOLES_LAYER_TOP
100
AcDbCircle
 10
179.4
 20
-5.26
 30
0.0
 40
0.45
  0
HATCH
  5
1F5
100
AcDbEntity
  8
PART_HOLES_LAYER_TOP
100
AcDbHatch
 10
0.0
 20
0.0
 30
0.0
 210
0.0
 220
0.0
 230
1.0
  2
SOLID
 70
         1
 71
        1
 91
        1
  92
     1
  93
     1
 72
     2
 10
179.4
 20
-5.26
  40
0.45
  50
     0.0
  51
     360.0
 73
     0
  97
     1
  330
    500
 75
     0
 76
     1
  98
     1
 10
0.0
 20
0.0
  0
CIRCLE
  5
1F6
100
AcDbEntity
  8
PART_HOLES_LAYER_TOP
100
AcDbCircle
 10
179.4
 20
-37.9
 30
0.0
 40
0.45
  0
HATCH
  5
1F7
100
AcDbEntity
  8
PART_HOLES_LAYER_TOP
100
AcDbHatch
 10
0.0
 20
0.0
 30
0.0
 210
0.0
 220
0.0
 230
1.0
  2
SOLID
 70
         1
 71
        1
 91
        1
  92
     1
  93
     1
 72
     2
 10
179.4
 20
-37.9
  40
0.45
  50
     0.0
  51
     360.0
 73
     0
  97
     1
  330
    502
 75
     0
 76
     1
  98
     1
 10
0.0
 20
0.0
  0
CIRCLE
  5
1F8
100
AcDbEntity
  8
PART_HOLES_LAYER_TOP
100
AcDbCircle
 10
179.4
 20
-35.36
 30
0.0
 40
0.45
  0
HATCH
  5
1F9
100
AcDbEntity
  8
PART_HOLES_LAYER_TOP
100
AcDbHatch
 10
0.0
 20
0.0
 30
0.0
 210
0.0
 220
0.0
 230
1.0
  2
SOLID
 70
         1
 71
        1
 91
        1
  92
     1
  93
     1
 72
     2
 10
179.4
 20
-35.36
  40
0.45
  50
     0.0
  51
     360.0
 73
     0
  97
     1
  330
    504
 75
     0
 76
     1
  98
     1
 10
0.0
 20
0.0
  0
CIRCLE
  5
1FA
100
AcDbEntity
  8
PART_HOLES_LAYER_TOP
100
AcDbCircle
 10
179.4
 20
-32.82
 30
0.0
 40
0.45
  0
HATCH
  5
1FB
100
AcDbEntity
  8
PART_HOLES_LAYER_TOP
100
AcDbHatch
 10
0.0
 20
0.0
 30
0.0
 210
0.0
 220
0.0
 230
1.0
  2
SOLID
 70
         1
 71
        1
 91
        1
  92
     1
  93
     1
 72
     2
 10
179.4
 20
-32.82
  40
0.45
  50
     0.0
  51
     360.0
 73
     0
  97
     1
  330
    506
 75
     0
 76
     1
  98
     1
 10
0.0
 20
0.0
  0
CIRCLE
  5
1FC
100
AcDbEntity
  8
SOLDERMASK_PADS_BTM
100
AcDbCircle
 10
126.25
 20
-6.352084
 30
0.0
 40
3.1
  0
CIRCLE
  5
1FD
100
AcDbEntity
  8
SOLDERMASK_PADS_BTM
100
AcDbCircle
 10
150.45
 20
-6.352084
 30
0.0
 40
3.1
  0
CIRCLE
  5
1FE
100
AcDbEntity
  8
SOLDERMASK_PADS_BTM
100
AcDbCircle
 10
174.302482
 20
-94.198188
 30
0.0
 40
0.5
  0
LWPOLYLINE
  5
1FF
100
AcDbEntity
  8
SOLDERMASK_PADS_BTM
100
AcDbPolyline
 90
        4
 70
         1
 43
0.0
 10
114.4
 20
-39.9
 42
1.000000
 10
115.4
 20
-39.9
 10
115.4
 20
-38.9
 42
1.000000
 10
114.4
 20
-38.9
  0
LWPOLYLINE
  5
200
100
AcDbEntity
  8
SOLDERMASK_PADS_BTM
100
AcDbPolyline
 90
        4
 70
         1
 43
0.0
 10
114.4
 20
-32.9
 42
1.000000
 10
115.4
 20
-32.9
 10
115.4
 20
-31.9
 42
1.000000
 10
114.4
 20
-31.9
  0
CIRCLE
  5
201
100
AcDbEntity
  8
SOLDERMASK_PADS_BTM
100
AcDbCircle
 10
6.802482
 20
-94.398188
 30
0.0
 40
0.5
  0
LWPOLYLINE
  5
202
100
AcDbEntity
  8
SOLDERMASK_PADS_BTM
100
AcDbPolyline
 90
        4
 70
         1
 43
0.0
 10
153.275
 20
-69.75
 42
1.000000
 10
153.525
 20
-69.75
 10
153.525
 20
-69.25
 42
1.000000
 10
153.275
 20
-69.25
  0
LWPOLYLINE
  5
203
100
AcDbEntity
  8
SOLDERMASK_PADS_BTM
100
AcDbPolyline
 90
        4
 70
         1
 43
0.0
 10
153.775
 20
-69.75
 42
1.000000
 10
154.025
 20
-69.75
 10
154.025
 20
-69.25
 42
1.000000
 10
153.775
 20
-69.25
  0
LWPOLYLINE
  5
204
100
AcDbEntity
  8
SOLDERMASK_PADS_BTM
100
AcDbPolyline
 90
        4
 70
         1
 43
0.0
 10
154.775
 20
-69.75
 42
1.000000
 10
155.025
 20
-69.75
 10
155.025
 20
-69.25
 42
1.000000
 10
154.775
 20
-69.25
  0
LWPOLYLINE
  5
205
100
AcDbEntity
  8
SOLDERMASK_PADS_BTM
100
AcDbPolyline
 90
        4
 70
         1
 43
0.0
 10
155.275
 20
-69.75
 42
1.000000
 10
155.525
 20
-69.75
 10
155.525
 20
-69.25
 42
1.000000
 10
155.275
 20
-69.25
  0
LWPOLYLINE
  5
206
100
AcDbEntity
  8
SOLDERMASK_PADS_BTM
100
AcDbPolyline
 90
        4
 70
         1
 43
0.0
 10
155.275
 20
-68.75
 42
1.000000
 10
155.525
 20
-68.75
 10
155.525
 20
-68.25
 42
1.000000
 10
155.275
 20
-68.25
  0
LWPOLYLINE
  5
207
100
AcDbEntity
  8
SOLDERMASK_PADS_BTM
100
AcDbPolyline
 90
        4
 70
         1
 43
0.0
 10
154.775
 20
-68.75
 42
1.000000
 10
155.025
 20
-68.75
 10
155.025
 20
-68.25
 42
1.000000
 10
154.775
 20
-68.25
  0
LWPOLYLINE
  5
208
100
AcDbEntity
  8
SOLDERMASK_PADS_BTM
100
AcDbPolyline
 90
        4
 70
         1
 43
0.0
 10
153.775
 20
-68.75
 42
1.000000
 10
154.025
 20
-68.75
 10
154.025
 20
-68.25
 42
1.000000
 10
153.775
 20
-68.25
  0
LWPOLYLINE
  5
209
100
AcDbEntity
  8
SOLDERMASK_PADS_BTM
100
AcDbPolyline
 90
        4
 70
         1
 43
0.0
 10
153.275
 20
-68.75
 42
1.000000
 10
153.525
 20
-68.75
 10
153.525
 20
-68.25
 42
1.000000
 10
153.275
 20
-68.25
  0
LWPOLYLINE
  5
20A
100
AcDbEntity
  8
SOLDERMASK_PADS_BTM
100
AcDbPolyline
 90
        4
 70
         1
 43
0.0
 10
154.2
 20
-69.875
 10
154.2
 20
-69.125
 10
154.6
 20
-69.125
 10
154.6
 20
-69.875
  0
LWPOLYLINE
  5
20B
100
AcDbEntity
  8
SOLDERMASK_PADS_BTM
100
AcDbPolyline
 90
        4
 70
         1
 43
0.0
 10
154.2
 20
-68.875
 10
154.2
 20
-68.125
 10
154.6
 20
-68.125
 10
154.6
 20
-68.875
  0
LWPOLYLINE
  5
20C
100
AcDbEntity
  8
SOLDERMASK_PADS_BTM
100
AcDbPolyline
 90
        4
 70
         1
 43
0.0
 10
25.55
 20
-54.6
 42
1.000000
 10
25.55
 20
-54.15
 10
24.45
 20
-54.15
 42
1.000000
 10
24.45
 20
-54.6
  0
LWPOLYLINE
  5
20D
100
AcDbEntity
  8
SOLDERMASK_PADS_BTM
100
AcDbPolyline
 90
        4
 70
         1
 43
0.0
 10
25.55
 20
-53.95
 42
1.000000
 10
25.55
 20
-53.5
 10
24.45
 20
-53.5
 42
1.000000
 10
24.45
 20
-53.95
  0
LWPOLYLINE
  5
20E
100
AcDbEntity
  8
SOLDERMASK_PADS_BTM
100
AcDbPolyline
 90
        4
 70
         1
 43
0.0
 10
25.55
 20
-53.3
 42
1.000000
 10
25.55
 20
-52.85
 10
24.45
 20
-52.85
 42
1.000000
 10
24.45
 20
-53.3
  0
LWPOLYLINE
  5
20F
100
AcDbEntity
  8
SOLDERMASK_PADS_BTM
100
AcDbPolyline
 90
        4
 70
         1
 43
0.0
 10
25.55
 20
-52.65
 42
1.000000
 10
25.55
 20
-52.2
 10
24.45
 20
-52.2
 42
1.000000
 10
24.45
 20
-52.65
  0
LWPOLYLINE
  5
210
100
AcDbEntity
  8
SOLDERMASK_PADS_BTM
100
AcDbPolyline
 90
        4
 70
         1
 43
0.0
 10
25.55
 20
-52.0
 42
1.000000
 10
25.55
 20
-51.55
 10
24.45
 20
-51.55
 42
1.000000
 10
24.45
 20
-52.0
  0
LWPOLYLINE
  5
211
100
AcDbEntity
  8
SOLDERMASK_PADS_BTM
100
AcDbPolyline
 90
        4
 70
         1
 43
0.0
 10
25.55
 20
-51.35
 42
1.000000
 10
25.55
 20
-50.9
 10
24.45
 20
-50.9
 42
1.000000
 10
24.45
 20
-51.35
  0
LWPOLYLINE
  5
212
100
AcDbEntity
  8
SOLDERMASK_PADS_BTM
100
AcDbPolyline
 90
        4
 70
         1
 43
0.0
 10
25.55
 20
-50.7
 42
1.000000
 10
25.55
 20
-50.25
 10
24.45
 20
-50.25
 42
1.000000
 10
24.45
 20
-50.7
  0
LWPOLYLINE
  5
213
100
AcDbEntity
  8
SOLDERMASK_PADS_BTM
100
AcDbPolyline
 90
        4
 70
         1
 43
0.0
 10
25.55
 20
-50.05
 42
1.000000
 10
25.55
 20
-49.6
 10
24.45
 20
-49.6
 42
1.000000
 10
24.45
 20
-50.05
  0
LWPOLYLINE
  5
214
100
AcDbEntity
  8
SOLDERMASK_PADS_BTM
100
AcDbPolyline
 90
        4
 70
         1
 43
0.0
 10
25.55
 20
-49.4
 42
1.000000
 10
25.55
 20
-48.95
 10
24.45
 20
-48.95
 42
1.000000
 10
24.45
 20
-49.4
  0
LWPOLYLINE
  5
215
100
AcDbEntity
  8
SOLDERMASK_PADS_BTM
100
AcDbPolyline
 90
        4
 70
         1
 43
0.0
 10
25.55
 20
-48.75
 42
1.000000
 10
25.55
 20
-48.3
 10
24.45
 20
-48.3
 42
1.000000
 10
24.45
 20
-48.75
  0
LWPOLYLINE
  5
216
100
AcDbEntity
  8
SOLDERMASK_PADS_BTM
100
AcDbPolyline
 90
        4
 70
         1
 43
0.0
 10
25.55
 20
-48.1
 42
1.000000
 10
25.55
 20
-47.65
 10
24.45
 20
-47.65
 42
1.000000
 10
24.45
 20
-48.1
  0
LWPOLYLINE
  5
217
100
AcDbEntity
  8
SOLDERMASK_PADS_BTM
100
AcDbPolyline
 90
        4
 70
         1
 43
0.0
 10
25.55
 20
-47.45
 42
1.000000
 10
25.55
 20
-47.0
 10
24.45
 20
-47.0
 42
1.000000
 10
24.45
 20
-47.45
  0
LWPOLYLINE
  5
218
100
AcDbEntity
  8
SOLDERMASK_PADS_BTM
100
AcDbPolyline
 90
        4
 70
         1
 43
0.0
 10
19.75
 20
-47.45
 42
1.000000
 10
19.75
 20
-47.0
 10
18.65
 20
-47.0
 42
1.000000
 10
18.65
 20
-47.45
  0
LWPOLYLINE
  5
219
100
AcDbEntity
  8
SOLDERMASK_PADS_BTM
100
AcDbPolyline
 90
        4
 70
         1
 43
0.0
 10
19.75
 20
-48.1
 42
1.000000
 10
19.75
 20
-47.65
 10
18.65
 20
-47.65
 42
1.000000
 10
18.65
 20
-48.1
  0
LWPOLYLINE
  5
21A
100
AcDbEntity
  8
SOLDERMASK_PADS_BTM
100
AcDbPolyline
 90
        4
 70
         1
 43
0.0
 10
19.75
 20
-48.75
 42
1.000000
 10
19.75
 20
-48.3
 10
18.65
 20
-48.3
 42
1.000000
 10
18.65
 20
-48.75
  0
LWPOLYLINE
  5
21B
100
AcDbEntity
  8
SOLDERMASK_PADS_BTM
100
AcDbPolyline
 90
        4
 70
         1
 43
0.0
 10
19.75
 20
-49.4
 42
1.000000
 10
19.75
 20
-48.95
 10
18.65
 20
-48.95
 42
1.000000
 10
18.65
 20
-49.4
  0
LWPOLYLINE
  5
21C
100
AcDbEntity
  8
SOLDERMASK_PADS_BTM
100
AcDbPolyline
 90
        4
 70
         1
 43
0.0
 10
19.75
 20
-50.05
 42
1.000000
 10
19.75
 20
-49.6
 10
18.65
 20
-49.6
 42
1.000000
 10
18.65
 20
-50.05
  0
LWPOLYLINE
  5
21D
100
AcDbEntity
  8
SOLDERMASK_PADS_BTM
100
AcDbPolyline
 90
        4
 70
         1
 43
0.0
 10
19.75
 20
-50.7
 42
1.000000
 10
19.75
 20
-50.25
 10
18.65
 20
-50.25
 42
1.000000
 10
18.65
 20
-50.7
  0
LWPOLYLINE
  5
21E
100
AcDbEntity
  8
SOLDERMASK_PADS_BTM
100
AcDbPolyline
 90
        4
 70
         1
 43
0.0
 10
19.75
 20
-51.35
 42
1.000000
 10
19.75
 20
-50.9
 10
18.65
 20
-50.9
 42
1.000000
 10
18.65
 20
-51.35
  0
LWPOLYLINE
  5
21F
100
AcDbEntity
  8
SOLDERMASK_PADS_BTM
100
AcDbPolyline
 90
        4
 70
         1
 43
0.0
 10
19.75
 20
-52.0
 42
1.000000
 10
19.75
 20
-51.55
 10
18.65
 20
-51.55
 42
1.000000
 10
18.65
 20
-52.0
  0
LWPOLYLINE
  5
220
100
AcDbEntity
  8
SOLDERMASK_PADS_BTM
100
AcDbPolyline
 90
        4
 70
         1
 43
0.0
 10
19.75
 20
-52.65
 42
1.000000
 10
19.75
 20
-52.2
 10
18.65
 20
-52.2
 42
1.000000
 10
18.65
 20
-52.65
  0
LWPOLYLINE
  5
221
100
AcDbEntity
  8
SOLDERMASK_PADS_BTM
100
AcDbPolyline
 90
        4
 70
         1
 43
0.0
 10
19.75
 20
-53.3
 42
1.000000
 10
19.75
 20
-52.85
 10
18.65
 20
-52.85
 42
1.000000
 10
18.65
 20
-53.3
  0
LWPOLYLINE
  5
222
100
AcDbEntity
  8
SOLDERMASK_PADS_BTM
100
AcDbPolyline
 90
        4
 70
         1
 43
0.0
 10
19.75
 20
-53.95
 42
1.000000
 10
19.75
 20
-53.5
 10
18.65
 20
-53.5
 42
1.000000
 10
18.65
 20
-53.95
  0
LWPOLYLINE
  5
223
100
AcDbEntity
  8
SOLDERMASK_PADS_BTM
100
AcDbPolyline
 90
        4
 70
         1
 43
0.0
 10
19.75
 20
-54.6
 42
1.000000
 10
19.75
 20
-54.15
 10
18.65
 20
-54.15
 42
1.000000
 10
18.65
 20
-54.6
  0
LWPOLYLINE
  5
224
100
AcDbEntity
  8
SOLDERMASK_PADS_BTM
100
AcDbPolyline
 90
        4
 70
         1
 43
0.0
 10
20.85
 20
-53.3
 10
20.85
 20
-48.3
 10
23.35
 20
-48.3
 10
23.35
 20
-53.3
  0
LWPOLYLINE
  5
225
100
AcDbEntity
  8
SOLDERMASK_PADS_BTM
100
AcDbPolyline
 90
        4
 70
         1
 43
0.0
 10
102.75
 20
-89.325
 10
102.75
 20
-88.675
 10
103.25
 20
-88.675
 10
103.25
 20
-89.325
  0
LWPOLYLINE
  5
226
100
AcDbEntity
  8
SOLDERMASK_PADS_BTM
100
AcDbPolyline
 90
        4
 70
         1
 43
0.0
 10
102.75
 20
-88.125
 10
102.75
 20
-87.475
 10
103.25
 20
-87.475
 10
103.25
 20
-88.125
  0
LWPOLYLINE
  5
227
100
AcDbEntity
  8
SOLDERMASK_PADS_BTM
100
AcDbPolyline
 90
        4
 70
         1
 43
0.0
 10
170.475
 20
-77.45
 10
170.475
 20
-76.95
 10
171.125
 20
-76.95
 10
171.125
 20
-77.45
  0
LWPOLYLINE
  5
228
100
AcDbEntity
  8
SOLDERMASK_PADS_BTM
100
AcDbPolyline
 90
        4
 70
         1
 43
0.0
 10
171.675
 20
-77.45
 10
171.675
 20
-76.95
 10
172.325
 20
-76.95
 10
172.325
 20
-77.45
  0
LWPOLYLINE
  5
229
100
AcDbEntity
  8
SOLDERMASK_PADS_BTM
100
AcDbPolyline
 90
        4
 70
         1
 43
0.0
 10
13.325
 20
-56.55
 42
1.000000
 10
13.325
 20
-55.95
 10
12.675
 20
-55.95
 42
1.000000
 10
12.675
 20
-56.55
  0
LWPOLYLINE
  5
22A
100
AcDbEntity
  8
SOLDERMASK_PADS_BTM
100
AcDbPolyline
 90
        4
 70
         1
 43
0.0
 10
13.325
 20
-54.65
 42
1.000000
 10
13.325
 20
-54.05
 10
12.675
 20
-54.05
 42
1.000000
 10
12.675
 20
-54.65
  0
LWPOLYLINE
  5
22B
100
AcDbEntity
  8
SOLDERMASK_PADS_BTM
100
AcDbPolyline
 90
        4
 70
         1
 43
0.0
 10
11.325
 20
-55.6
 42
1.000000
 10
11.325
 20
-55.0
 10
10.675
 20
-55.0
 42
1.000000
 10
10.675
 20
-55.6
  0
LWPOLYLINE
  5
22C
100
AcDbEntity
  8
SOLDERMASK_PADS_BTM
100
AcDbPolyline
 90
        4
 70
         1
 43
0.0
 10
33.6
 20
-54.15
 10
33.6
 20
-52.05
 10
35.7
 20
-52.05
 10
35.7
 20
-54.15
  0
LWPOLYLINE
  5
22D
100
AcDbEntity
  8
SOLDERMASK_PADS_BTM
100
AcDbPolyline
 90
        4
 70
         1
 43
0.0
 10
38.1
 20
-54.15
 10
38.1
 20
-52.05
 10
40.2
 20
-52.05
 10
40.2
 20
-54.15
  0
LWPOLYLINE
  5
22E
100
AcDbEntity
  8
SOLDERMASK_PADS_BTM
100
AcDbPolyline
 90
        4
 70
         1
 43
0.0
 10
10.675
 20
-50.75
 42
1.000000
 10
10.675
 20
-51.35
 10
11.325
 20
-51.35
 42
1.000000
 10
11.325
 20
-50.75
  0
LWPOLYLINE
  5
22F
100
AcDbEntity
  8
SOLDERMASK_PADS_BTM
100
AcDbPolyline
 90
        4
 70
         1
 43
0.0
 10
10.675
 20
-52.65
 42
1.000000
 10
10.675
 20
-53.25
 10
11.325
 20
-53.25
 42
1.000000
 10
11.325
 20
-52.65
  0
LWPOLYLINE
  5
230
100
AcDbEntity
  8
SOLDERMASK_PADS_BTM
100
AcDbPolyline
 90
        4
 70
         1
 43
0.0
 10
12.675
 20
-51.7
 42
1.000000
 10
12.675
 20
-52.3
 10
13.325
 20
-52.3
 42
1.000000
 10
13.325
 20
-51.7
  0
LWPOLYLINE
  5
231
100
AcDbEntity
  8
SOLDERMASK_PADS_BTM
100
AcDbPolyline
 90
        8
 70
         1
 43
0.0
 10
150.45
 20
-70.25
 42
0.414214
 10
150.35
 20
-70.15
 10
149.85
 20
-70.15
 42
0.414214
 10
149.75
 20
-70.25
 10
149.75
 20
-70.95
 42
0.414214
 10
149.85
 20
-71.05
 10
150.35
 20
-71.05
 42
0.414214
 10
150.45
 20
-70.95
  0
LWPOLYLINE
  5
232
100
AcDbEntity
  8
SOLDERMASK_PADS_BTM
100
AcDbPolyline
 90
        8
 70
         1
 43
0.0
 10
151.85
 20
-70.25
 42
0.414214
 10
151.75
 20
-70.15
 10
151.25
 20
-70.15
 42
0.414214
 10
151.15
 20
-70.25
 10
151.15
 20
-70.95
 42
0.414214
 10
151.25
 20
-71.05
 10
151.75
 20
-71.05
 42
0.414214
 10
151.85
 20
-70.95
  0
LWPOLYLINE
  5
233
100
AcDbEntity
  8
SOLDERMASK_PADS_BTM
100
AcDbPolyline
 90
        8
 70
         1
 43
0.0
 10
31.15
 20
-52.4
 42
0.414214
 10
31.05
 20
-52.3
 10
29.45
 20
-52.3
 42
0.414214
 10
29.35
 20
-52.4
 10
29.35
 20
-53.0
 42
0.414214
 10
29.45
 20
-53.1
 10
31.05
 20
-53.1
 42
0.414214
 10
31.15
 20
-53.0
  0
LWPOLYLINE
  5
234
100
AcDbEntity
  8
SOLDERMASK_PADS_BTM
100
AcDbPolyline
 90
        8
 70
         1
 43
0.0
 10
31.15
 20
-54.0
 42
0.414214
 10
31.05
 20
-53.9
 10
29.45
 20
-53.9
 42
0.414214
 10
29.35
 20
-54.0
 10
29.35
 20
-54.6
 42
0.414214
 10
29.45
 20
-54.7
 10
31.05
 20
-54.7
 42
0.414214
 10
31.15
 20
-54.6
  0
LWPOLYLINE
  5
235
100
AcDbEntity
  8
SOLDERMASK_PADS_BTM
100
AcDbPolyline
 90
        8
 70
         1
 43
0.0
 10
110.45
 20
-88.4
 42
0.414214
 10
110.35
 20
-88.3
 10
109.85
 20
-88.3
 42
0.414214
 10
109.75
 20
-88.4
 10
109.75
 20
-89.1
 42
0.414214
 10
109.85
 20
-89.2
 10
110.35
 20
-89.2
 42
0.414214
 10
110.45
 20
-89.1
  0
LWPOLYLINE
  5
236
100
AcDbEntity
  8
SOLDERMASK_PADS_BTM
100
AcDbPolyline
 90
        8
 70
         1
 43
0.0
 10
108.95
 20
-88.4
 42
0.414214
 10
108.85
 20
-88.3
 10
108.35
 20
-88.3
 42
0.414214
 10
108.25
 20
-88.4
 10
108.25
 20
-89.1
 42
0.414214
 10
108.35
 20
-89.2
 10
108.85
 20
-89.2
 42
0.414214
 10
108.95
 20
-89.1
  0
LWPOLYLINE
  5
237
100
AcDbEntity
  8
SOLDERMASK_PADS_BTM
100
AcDbPolyline
 90
        4
 70
         1
 43
0.0
 10
155.0
 20
-91.7
 10
155.0
 20
-87.1
 10
159.2
 20
-87.1
 10
159.2
 20
-91.7
  0
LWPOLYLINE
  5
238
100
AcDbEntity
  8
SOLDERMASK_PADS_BTM
100
AcDbPolyline
 90
        4
 70
         1
 43
0.0
 10
142.1
 20
-91.7
 10
142.1
 20
-87.1
 10
146.3
 20
-87.1
 10
146.3
 20
-91.7
  0
LWPOLYLINE
  5
239
100
AcDbEntity
  8
SOLDERMASK_PADS_BTM
100
AcDbPolyline
 90
        4
 70
         1
 43
0.0
 10
146.58
 20
-73.34
 42
1.000000
 10
145.82
 20
-73.34
 10
145.82
 20
-76.76
 42
1.000000
 10
146.58
 20
-76.76
  0
LWPOLYLINE
  5
23A
100
AcDbEntity
  8
SOLDERMASK_PADS_BTM
100
AcDbPolyline
 90
        4
 70
         1
 43
0.0
 10
147.85
 20
-73.34
 42
1.000000
 10
147.09
 20
-73.34
 10
147.09
 20
-76.76
 42
1.000000
 10
147.85
 20
-76.76
  0
LWPOLYLINE
  5
23B
100
AcDbEntity
  8
SOLDERMASK_PADS_BTM
100
AcDbPolyline
 90
        4
 70
         1
 43
0.0
 10
149.12
 20
-73.34
 42
1.000000
 10
148.36
 20
-73.34
 10
148.36
 20
-76.76
 42
1.000000
 10
149.12
 20
-76.76
  0
LWPOLYLINE
  5
23C
100
AcDbEntity
  8
SOLDERMASK_PADS_BTM
100
AcDbPolyline
 90
        4
 70
         1
 43
0.0
 10
150.39
 20
-73.34
 42
1.000000
 10
149.63
 20
-73.34
 10
149.63
 20
-76.76
 42
1.000000
 10
150.39
 20
-76.76
  0
LWPOLYLINE
  5
23D
100
AcDbEntity
  8
SOLDERMASK_PADS_BTM
100
AcDbPolyline
 90
        4
 70
         1
 43
0.0
 10
151.66
 20
-73.34
 42
1.000000
 10
150.9
 20
-73.34
 10
150.9
 20
-76.76
 42
1.000000
 10
151.66
 20
-76.76
  0
LWPOLYLINE
  5
23E
100
AcDbEntity
  8
SOLDERMASK_PADS_BTM
100
AcDbPolyline
 90
        4
 70
         1
 43
0.0
 10
152.93
 20
-73.34
 42
1.000000
 10
152.17
 20
-73.34
 10
152.17
 20
-76.76
 42
1.000000
 10
152.93
 20
-76.76
  0
LWPOLYLINE
  5
23F
100
AcDbEntity
  8
SOLDERMASK_PADS_BTM
100
AcDbPolyline
 90
        4
 70
         1
 43
0.0
 10
154.2
 20
-73.34
 42
1.000000
 10
153.44
 20
-73.34
 10
153.44
 20
-76.76
 42
1.000000
 10
154.2
 20
-76.76
  0
LWPOLYLINE
  5
240
100
AcDbEntity
  8
SOLDERMASK_PADS_BTM
100
AcDbPolyline
 90
        4
 70
         1
 43
0.0
 10
155.57
 20
-73.34
 42
1.000000
 10
154.81
 20
-73.34
 10
154.81
 20
-76.76
 42
1.000000
 10
155.57
 20
-76.76
  0
LWPOLYLINE
  5
241
100
AcDbEntity
  8
SOLDERMASK_PADS_BTM
100
AcDbPolyline
 90
        4
 70
         1
 43
0.0
 10
178.67
 20
-84.07
 10
178.67
 20
-82.67
 10
180.07
 20
-82.67
 10
180.07
 20
-84.07
  0
CIRCLE
  5
242
100
AcDbEntity
  8
SOLDERMASK_PADS_BTM
100
AcDbCircle
 10
179.37
 20
-80.83
 30
0.0
 40
0.7
  0
LWPOLYLINE
  5
243
100
AcDbEntity
  8
SOLDERMASK_PADS_BTM
100
AcDbPolyline
 90
        8
 70
         1
 43
0.0
 10
16.65
 20
-60.25
 42
0.414214
 10
16.55
 20
-60.15
 10
16.05
 20
-60.15
 42
0.414214
 10
15.95
 20
-60.25
 10
15.95
 20
-60.95
 42
0.414214
 10
16.05
 20
-61.05
 10
16.55
 20
-61.05
 42
0.414214
 10
16.65
 20
-60.95
  0
LWPOLYLINE
  5
244
100
AcDbEntity
  8
SOLDERMASK_PADS_BTM
100
AcDbPolyline
 90
        8
 70
         1
 43
0.0
 10
15.25
 20
-60.25
 42
0.414214
 10
15.15
 20
-60.15
 10
14.65
 20
-60.15
 42
0.414214
 10
14.55
 20
-60.25
 10
14.55
 20
-60.95
 42
0.414214
 10
14.65
 20
-61.05
 10
15.15
 20
-61.05
 42
0.414214
 10
15.25
 20
-60.95
  0
LWPOLYLINE
  5
245
100
AcDbEntity
  8
SOLDERMASK_PADS_BTM
100
AcDbPolyline
 90
        8
 70
         1
 43
0.0
 10
22.8
 20
-61.45
 42
0.414214
 10
22.9
 20
-61.55
 10
23.4
 20
-61.55
 42
0.414214
 10
23.5
 20
-61.45
 10
23.5
 20
-60.75
 42
0.414214
 10
23.4
 20
-60.65
 10
22.9
 20
-60.65
 42
0.414214
 10
22.8
 20
-60.75
  0
LWPOLYLINE
  5
246
100
AcDbEntity
  8
SOLDERMASK_PADS_BTM
100
AcDbPolyline
 90
        8
 70
         1
 43
0.0
 10
24.3
 20
-61.45
 42
0.414214
 10
24.4
 20
-61.55
 10
24.9
 20
-61.55
 42
0.414214
 10
25.0
 20
-61.45
 10
25.0
 20
-60.75
 42
0.414214
 10
24.9
 20
-60.65
 10
24.4
 20
-60.65
 42
0.414214
 10
24.3
 20
-60.75
  0
LWPOLYLINE
  5
247
100
AcDbEntity
  8
SOLDERMASK_PADS_BTM
100
AcDbPolyline
 90
        4
 70
         1
 43
0.0
 10
106.05
 20
-91.1
 42
1.000000
 10
106.45
 20
-91.1
 10
106.45
 20
-90.1
 42
1.000000
 10
106.05
 20
-90.1
  0
LWPOLYLINE
  5
248
100
AcDbEntity
  8
SOLDERMASK_PADS_BTM
100
AcDbPolyline
 90
        4
 70
         1
 43
0.0
 10
105.4
 20
-91.1
 42
1.000000
 10
105.8
 20
-91.1
 10
105.8
 20
-90.1
 42
1.000000
 10
105.4
 20
-90.1
  0
LWPOLYLINE
  5
249
100
AcDbEntity
  8
SOLDERMASK_PADS_BTM
100
AcDbPolyline
 90
        4
 70
         1
 43
0.0
 10
104.75
 20
-91.1
 42
1.000000
 10
105.15
 20
-91.1
 10
105.15
 20
-90.1
 42
1.000000
 10
104.75
 20
-90.1
  0
LWPOLYLINE
  5
24A
100
AcDbEntity
  8
SOLDERMASK_PADS_BTM
100
AcDbPolyline
 90
        4
 70
         1
 43
0.0
 10
106.7
 20
-91.1
 42
1.000000
 10
107.1
 20
-91.1
 10
107.1
 20
-90.1
 42
1.000000
 10
106.7
 20
-90.1
  0
LWPOLYLINE
  5
24B
100
AcDbEntity
  8
SOLDERMASK_PADS_BTM
100
AcDbPolyline
 90
        4
 70
         1
 43
0.0
 10
108.75
 20
-94.05
 10
108.75
 20
-92.65
 10
110.15
 20
-92.65
 10
110.15
 20
-94.05
  0
LWPOLYLINE
  5
24C
100
AcDbEntity
  8
SOLDERMASK_PADS_BTM
100
AcDbPolyline
 90
        4
 70
         1
 43
0.0
 10
108.75
 20
-91.55
 10
108.75
 20
-90.15
 10
110.15
 20
-90.15
 10
110.15
 20
-91.55
  0
LWPOLYLINE
  5
24D
100
AcDbEntity
  8
SOLDERMASK_PADS_BTM
100
AcDbPolyline
 90
        4
 70
         1
 43
0.0
 10
102.35
 20
-91.55
 10
102.35
 20
-90.15
 10
103.75
 20
-90.15
 10
103.75
 20
-91.55
  0
LWPOLYLINE
  5
24E
100
AcDbEntity
  8
SOLDERMASK_PADS_BTM
100
AcDbPolyline
 90
        4
 70
         1
 43
0.0
 10
102.35
 20
-94.05
 10
102.35
 20
-92.65
 10
103.75
 20
-92.65
 10
103.75
 20
-94.05
  0
LWPOLYLINE
  5
24F
100
AcDbEntity
  8
SOLDERMASK_PADS_BTM
100
AcDbPolyline
 90
        4
 70
         1
 43
0.0
 10
104.25
 20
-95.2
 10
104.25
 20
-94.2
 10
105.25
 20
-94.2
 10
105.25
 20
-95.2
  0
LWPOLYLINE
  5
250
100
AcDbEntity
  8
SOLDERMASK_PADS_BTM
100
AcDbPolyline
 90
        4
 70
         1
 43
0.0
 10
107.25
 20
-95.2
 10
107.25
 20
-94.2
 10
108.25
 20
-94.2
 10
108.25
 20
-95.2
  0
LWPOLYLINE
  5
251
100
AcDbEntity
  8
SOLDERMASK_PADS_BTM
100
AcDbPolyline
 90
        4
 70
         1
 43
0.0
 10
107.35
 20
-91.1
 42
1.000000
 10
107.75
 20
-91.1
 10
107.75
 20
-90.1
 42
1.000000
 10
107.35
 20
-90.1
  0
LWPOLYLINE
  5
252
100
AcDbEntity
  8
SOLDERMASK_PADS_BTM
100
AcDbPolyline
 90
        8
 70
         1
 43
0.0
 10
27.55
 20
-59.75
 42
0.414214
 10
27.65
 20
-59.85
 10
28.15
 20
-59.85
 42
0.414214
 10
28.25
 20
-59.75
 10
28.25
 20
-59.05
 42
0.414214
 10
28.15
 20
-58.95
 10
27.65
 20
-58.95
 42
0.414214
 10
27.55
 20
-59.05
  0
LWPOLYLINE
  5
253
100
AcDbEntity
  8
SOLDERMASK_PADS_BTM
100
AcDbPolyline
 90
        8
 70
         1
 43
0.0
 10
28.95
 20
-59.75
 42
0.414214
 10
29.05
 20
-59.85
 10
29.55
 20
-59.85
 42
0.414214
 10
29.65
 20
-59.75
 10
29.65
 20
-59.05
 42
0.414214
 10
29.55
 20
-58.95
 10
29.05
 20
-58.95
 42
0.414214
 10
28.95
 20
-59.05
  0
LWPOLYLINE
  5
254
100
AcDbEntity
  8
SOLDERMASK_PADS_BTM
100
AcDbPolyline
 90
        8
 70
         1
 43
0.0
 10
26.65
 20
-59.8
 42
0.414214
 10
26.75
 20
-59.7
 10
26.75
 20
-59.2
 42
0.414214
 10
26.65
 20
-59.1
 10
25.95
 20
-59.1
 42
0.414214
 10
25.85
 20
-59.2
 10
25.85
 20
-59.7
 42
0.414214
 10
25.95
 20
-59.8
  0
LWPOLYLINE
  5
255
100
AcDbEntity
  8
SOLDERMASK_PADS_BTM
100
AcDbPolyline
 90
        8
 70
         1
 43
0.0
 10
26.65
 20
-58.3
 42
0.414214
 10
26.75
 20
-58.2
 10
26.75
 20
-57.7
 42
0.414214
 10
26.65
 20
-57.6
 10
25.95
 20
-57.6
 42
0.414214
 10
25.85
 20
-57.7
 10
25.85
 20
-58.2
 42
0.414214
 10
25.95
 20
-58.3
  0
LWPOLYLINE
  5
256
100
AcDbEntity
  8
SOLDERMASK_PADS_BTM
100
AcDbPolyline
 90
        4
 70
         1
 43
0.0
 10
166.75
 20
-82.8
 10
166.75
 20
-80.3
 10
169.25
 20
-80.3
 10
169.25
 20
-82.8
  0
LWPOLYLINE
  5
257
100
AcDbEntity
  8
SOLDERMASK_PADS_BTM
100
AcDbPolyline
 90
        4
 70
         1
 43
0.0
 10
163.55
 20
-90.0
 10
163.55
 20
-87.5
 10
166.05
 20
-87.5
 10
166.05
 20
-90.0
  0
LWPOLYLINE
  5
258
100
AcDbEntity
  8
SOLDERMASK_PADS_BTM
100
AcDbPolyline
 90
        4
 70
         1
 43
0.0
 10
169.95
 20
-92.5
 10
169.95
 20
-90.0
 10
172.45
 20
-90.0
 10
172.45
 20
-92.5
  0
LWPOLYLINE
  5
259
100
AcDbEntity
  8
SOLDERMASK_PADS_BTM
100
AcDbPolyline
 90
        8
 70
         1
 43
0.0
 10
16.65
 20
-58.85
 42
0.414214
 10
16.55
 20
-58.75
 10
16.05
 20
-58.75
 42
0.414214
 10
15.95
 20
-58.85
 10
15.95
 20
-59.55
 42
0.414214
 10
16.05
 20
-59.65
 10
16.55
 20
-59.65
 42
0.414214
 10
16.65
 20
-59.55
  0
LWPOLYLINE
  5
25A
100
AcDbEntity
  8
SOLDERMASK_PADS_BTM
100
AcDbPolyline
 90
        8
 70
         1
 43
0.0
 10
15.25
 20
-58.85
 42
0.414214
 10
15.15
 20
-58.75
 10
14.65
 20
-58.75
 42
0.414214
 10
14.55
 20
-58.85
 10
14.55
 20
-59.55
 42
0.414214
 10
14.65
 20
-59.65
 10
15.15
 20
-59.65
 42
0.414214
 10
15.25
 20
-59.55
  0
LWPOLYLINE
  5
25B
100
AcDbEntity
  8
SOLDERMASK_PADS_BTM
100
AcDbPolyline
 90
        8
 70
         1
 43
0.0
 10
22.8
 20
-59.85
 42
0.414214
 10
22.9
 20
-59.95
 10
23.4
 20
-59.95
 42
0.414214
 10
23.5
 20
-59.85
 10
23.5
 20
-59.15
 42
0.414214
 10
23.4
 20
-59.05
 10
22.9
 20
-59.05
 42
0.414214
 10
22.8
 20
-59.15
  0
LWPOLYLINE
  5
25C
100
AcDbEntity
  8
SOLDERMASK_PADS_BTM
100
AcDbPolyline
 90
        8
 70
         1
 43
0.0
 10
24.3
 20
-59.85
 42
0.414214
 10
24.4
 20
-59.95
 10
24.9
 20
-59.95
 42
0.414214
 10
25.0
 20
-59.85
 10
25.0
 20
-59.15
 42
0.414214
 10
24.9
 20
-59.05
 10
24.4
 20
-59.05
 42
0.414214
 10
24.3
 20
-59.15
  0
LWPOLYLINE
  5
25D
100
AcDbEntity
  8
SOLDERMASK_PADS_BTM
100
AcDbPolyline
 90
        4
 70
         1
 43
0.0
 10
125.85
 20
-82.85
 42
1.000000
 10
126.75
 20
-82.85
 10
126.75
 20
-81.25
 42
1.000000
 10
125.85
 20
-81.25
  0
LWPOLYLINE
  5
25E
100
AcDbEntity
  8
SOLDERMASK_PADS_BTM
100
AcDbPolyline
 90
        4
 70
         1
 43
0.0
 10
123.85
 20
-82.85
 42
1.000000
 10
124.75
 20
-82.85
 10
124.75
 20
-81.25
 42
1.000000
 10
123.85
 20
-81.25
  0
LWPOLYLINE
  5
25F
100
AcDbEntity
  8
SOLDERMASK_PADS_BTM
100
AcDbPolyline
 90
        4
 70
         1
 43
0.0
 10
121.35
 20
-82.85
 42
1.000000
 10
122.25
 20
-82.85
 10
122.25
 20
-81.25
 42
1.000000
 10
121.35
 20
-81.25
  0
LWPOLYLINE
  5
260
100
AcDbEntity
  8
SOLDERMASK_PADS_BTM
100
AcDbPolyline
 90
        4
 70
         1
 43
0.0
 10
116.8
 20
-87.5
 10
116.8
 20
-82.5
 10
119.3
 20
-82.5
 10
119.3
 20
-87.5
  0
LWPOLYLINE
  5
261
100
AcDbEntity
  8
SOLDERMASK_PADS_BTM
100
AcDbPolyline
 90
        4
 70
         1
 43
0.0
 10
131.3
 20
-87.5
 10
131.3
 20
-82.5
 10
133.8
 20
-82.5
 10
133.8
 20
-87.5
  0
LWPOLYLINE
  5
262
100
AcDbEntity
  8
SOLDERMASK_PADS_BTM
100
AcDbPolyline
 90
        4
 70
         1
 43
0.0
 10
128.35
 20
-82.85
 42
1.000000
 10
129.25
 20
-82.85
 10
129.25
 20
-81.25
 42
1.000000
 10
128.35
 20
-81.25
  0
LWPOLYLINE
  5
263
100
AcDbEntity
  8
SOLDERMASK_PADS_BTM
100
AcDbPolyline
 90
        8
 70
         1
 43
0.0
 10
18.55
 20
-57.85
 42
0.414214
 10
18.65
 20
-57.75
 10
18.65
 20
-57.25
 42
0.414214
 10
18.55
 20
-57.15
 10
17.85
 20
-57.15
 42
0.414214
 10
17.75
 20
-57.25
 10
17.75
 20
-57.75
 42
0.414214
 10
17.85
 20
-57.85
  0
LWPOLYLINE
  5
264
100
AcDbEntity
  8
SOLDERMASK_PADS_BTM
100
AcDbPolyline
 90
        8
 70
         1
 43
0.0
 10
18.55
 20
-56.45
 42
0.414214
 10
18.65
 20
-56.35
 10
18.65
 20
-55.85
 42
0.414214
 10
18.55
 20
-55.75
 10
17.85
 20
-55.75
 42
0.414214
 10
17.75
 20
-55.85
 10
17.75
 20
-56.35
 42
0.414214
 10
17.85
 20
-56.45
  0
LWPOLYLINE
  5
265
100
AcDbEntity
  8
SOLDERMASK_PADS_BTM
100
AcDbPolyline
 90
        8
 70
         1
 43
0.0
 10
27.6
 20
-58.25
 42
0.414214
 10
27.7
 20
-58.35
 10
28.2
 20
-58.35
 42
0.414214
 10
28.3
 20
-58.25
 10
28.3
 20
-57.55
 42
0.414214
 10
28.2
 20
-57.45
 10
27.7
 20
-57.45
 42
0.414214
 10
27.6
 20
-57.55
  0
LWPOLYLINE
  5
266
100
AcDbEntity
  8
SOLDERMASK_PADS_BTM
100
AcDbPolyline
 90
        8
 70
         1
 43
0.0
 10
29.1
 20
-58.25
 42
0.414214
 10
29.2
 20
-58.35
 10
29.7
 20
-58.35
 42
0.414214
 10
29.8
 20
-58.25
 10
29.8
 20
-57.55
 42
0.414214
 10
29.7
 20
-57.45
 10
29.2
 20
-57.45
 42
0.414214
 10
29.1
 20
-57.55
  0
LWPOLYLINE
  5
267
100
AcDbEntity
  8
SOLDERMASK_PADS_BTM
100
AcDbPolyline
 90
        4
 70
         1
 43
0.0
 10
132.7
 20
-69.325
 10
132.7
 20
-68.075
 10
134.5
 20
-68.075
 10
134.5
 20
-69.325
  0
LWPOLYLINE
  5
268
100
AcDbEntity
  8
SOLDERMASK_PADS_BTM
100
AcDbPolyline
 90
        4
 70
         1
 43
0.0
 10
132.7
 20
-74.925
 10
132.7
 20
-73.675
 10
134.5
 20
-73.675
 10
134.5
 20
-74.925
  0
LWPOLYLINE
  5
269
100
AcDbEntity
  8
SOLDERMASK_PADS_BTM
100
AcDbPolyline
 90
        4
 70
         1
 43
0.0
 10
137.85
 20
-72.3
 42
1.000000
 10
137.85
 20
-71.7
 10
136.95
 20
-71.7
 42
1.000000
 10
136.95
 20
-72.3
  0
LWPOLYLINE
  5
26A
100
AcDbEntity
  8
SOLDERMASK_PADS_BTM
100
AcDbPolyline
 90
        4
 70
         1
 43
0.0
 10
137.85
 20
-71.3
 42
1.000000
 10
137.85
 20
-70.7
 10
136.95
 20
-70.7
 42
1.000000
 10
136.95
 20
-71.3
  0
LWPOLYLINE
  5
26B
100
AcDbEntity
  8
SOLDERMASK_PADS_BTM
100
AcDbPolyline
 90
        4
 70
         1
 43
0.0
 10
137.85
 20
-70.3
 42
1.000000
 10
137.85
 20
-69.7
 10
136.95
 20
-69.7
 42
1.000000
 10
136.95
 20
-70.3
  0
LWPOLYLINE
  5
26C
100
AcDbEntity
  8
SOLDERMASK_PADS_BTM
100
AcDbPolyline
 90
        4
 70
         1
 43
0.0
 10
137.85
 20
-73.3
 42
1.000000
 10
137.85
 20
-72.7
 10
136.95
 20
-72.7
 42
1.000000
 10
136.95
 20
-73.3
  0
LWPOLYLINE
  5
26D
100
AcDbEntity
  8
SOLDERMASK_PADS_BTM
100
AcDbPolyline
 90
        8
 70
         1
 43
0.0
 10
166.1
 20
-53.85
 42
0.414214
 10
166.0
 20
-53.95
 10
166.0
 20
-54.45
 42
0.414214
 10
166.1
 20
-54.55
 10
166.8
 20
-54.55
 42
0.414214
 10
166.9
 20
-54.45
 10
166.9
 20
-53.95
 42
0.414214
 10
166.8
 20
-53.85
  0
LWPOLYLINE
  5
26E
100
AcDbEntity
  8
SOLDERMASK_PADS_BTM
100
AcDbPolyline
 90
        8
 70
         1
 43
0.0
 10
166.1
 20
-55.25
 42
0.414214
 10
166.0
 20
-55.35
 10
166.0
 20
-55.85
 42
0.414214
 10
166.1
 20
-55.95
 10
166.8
 20
-55.95
 42
0.414214
 10
166.9
 20
-55.85
 10
166.9
 20
-55.35
 42
0.414214
 10
166.8
 20
-55.25
  0
LWPOLYLINE
  5
26F
100
AcDbEntity
  8
SOLDERMASK_PADS_BTM
100
AcDbPolyline
 90
        8
 70
         1
 43
0.0
 10
22.8
 20
-58.25
 42
0.414214
 10
22.9
 20
-58.35
 10
23.4
 20
-58.35
 42
0.414214
 10
23.5
 20
-58.25
 10
23.5
 20
-57.55
 42
0.414214
 10
23.4
 20
-57.45
 10
22.9
 20
-57.45
 42
0.414214
 10
22.8
 20
-57.55
  0
LWPOLYLINE
  5
270
100
AcDbEntity
  8
SOLDERMASK_PADS_BTM
100
AcDbPolyline
 90
        8
 70
         1
 43
0.0
 10
24.3
 20
-58.25
 42
0.414214
 10
24.4
 20
-58.35
 10
24.9
 20
-58.35
 42
0.414214
 10
25.0
 20
-58.25
 10
25.0
 20
-57.55
 42
0.414214
 10
24.9
 20
-57.45
 10
24.4
 20
-57.45
 42
0.414214
 10
24.3
 20
-57.55
  0
LWPOLYLINE
  5
271
100
AcDbEntity
  8
SOLDERMASK_PADS_BTM
100
AcDbPolyline
 90
        4
 70
         1
 43
0.0
 10
178.7
 20
-61.8
 10
178.7
 20
-60.4
 10
180.1
 20
-60.4
 10
180.1
 20
-61.8
  0
CIRCLE
  5
272
100
AcDbEntity
  8
SOLDERMASK_PADS_BTM
100
AcDbCircle
 10
179.4
 20
-58.56
 30
0.0
 40
0.7
  0
CIRCLE
  5
273
100
AcDbEntity
  8
SOLDERMASK_PADS_BTM
100
AcDbCircle
 10
179.4
 20
-56.02
 30
0.0
 40
0.7
  0
LWPOLYLINE
  5
274
100
AcDbEntity
  8
SOLDERMASK_PADS_BTM
100
AcDbPolyline
 90
        8
 70
         1
 43
0.0
 10
164.6
 20
-55.9
 42
0.414214
 10
164.7
 20
-55.8
 10
164.7
 20
-55.3
 42
0.414214
 10
164.6
 20
-55.2
 10
163.9
 20
-55.2
 42
0.414214
 10
163.8
 20
-55.3
 10
163.8
 20
-55.8
 42
0.414214
 10
163.9
 20
-55.9
  0
LWPOLYLINE
  5
275
100
AcDbEntity
  8
SOLDERMASK_PADS_BTM
100
AcDbPolyline
 90
        8
 70
         1
 43
0.0
 10
164.6
 20
-54.5
 42
0.414214
 10
164.7
 20
-54.4
 10
164.7
 20
-53.9
 42
0.414214
 10
164.6
 20
-53.8
 10
163.9
 20
-53.8
 42
0.414214
 10
163.8
 20
-53.9
 10
163.8
 20
-54.4
 42
0.414214
 10
163.9
 20
-54.5
  0
LWPOLYLINE
  5
276
100
AcDbEntity
  8
SOLDERMASK_PADS_BTM
100
AcDbPolyline
 90
        8
 70
         1
 43
0.0
 10
14.45
 20
-51.25
 42
0.414214
 10
14.35
 20
-51.35
 10
14.35
 20
-51.85
 42
0.414214
 10
14.45
 20
-51.95
 10
15.15
 20
-51.95
 42
0.414214
 10
15.25
 20
-51.85
 10
15.25
 20
-51.35
 42
0.414214
 10
15.15
 20
-51.25
  0
LWPOLYLINE
  5
277
100
AcDbEntity
  8
SOLDERMASK_PADS_BTM
100
AcDbPolyline
 90
        8
 70
         1
 43
0.0
 10
14.45
 20
-52.65
 42
0.414214
 10
14.35
 20
-52.75
 10
14.35
 20
-53.25
 42
0.414214
 10
14.45
 20
-53.35
 10
15.15
 20
-53.35
 42
0.414214
 10
15.25
 20
-53.25
 10
15.25
 20
-52.75
 42
0.414214
 10
15.15
 20
-52.65
  0
LWPOLYLINE
  5
278
100
AcDbEntity
  8
SOLDERMASK_PADS_BTM
100
AcDbPolyline
 90
        8
 70
         1
 43
0.0
 10
31.55
 20
-50.45
 42
0.414214
 10
31.65
 20
-50.55
 10
32.15
 20
-50.55
 42
0.414214
 10
32.25
 20
-50.45
 10
32.25
 20
-49.75
 42
0.414214
 10
32.15
 20
-49.65
 10
31.65
 20
-49.65
 42
0.414214
 10
31.55
 20
-49.75
  0
LWPOLYLINE
  5
279
100
AcDbEntity
  8
SOLDERMASK_PADS_BTM
100
AcDbPolyline
 90
        8
 70
         1
 43
0.0
 10
32.95
 20
-50.45
 42
0.414214
 10
33.05
 20
-50.55
 10
33.55
 20
-50.55
 42
0.414214
 10
33.65
 20
-50.45
 10
33.65
 20
-49.75
 42
0.414214
 10
33.55
 20
-49.65
 10
33.05
 20
-49.65
 42
0.414214
 10
32.95
 20
-49.75
  0
LWPOLYLINE
  5
27A
100
AcDbEntity
  8
SOLDERMASK_PADS_BTM
100
AcDbPolyline
 90
        8
 70
         1
 43
0.0
 10
28.15
 20
-50.45
 42
0.414214
 10
28.25
 20
-50.55
 10
28.75
 20
-50.55
 42
0.414214
 10
28.85
 20
-50.45
 10
28.85
 20
-49.75
 42
0.414214
 10
28.75
 20
-49.65
 10
28.25
 20
-49.65
 42
0.414214
 10
28.15
 20
-49.75
  0
LWPOLYLINE
  5
27B
100
AcDbEntity
  8
SOLDERMASK_PADS_BTM
100
AcDbPolyline
 90
        8
 70
         1
 43
0.0
 10
29.55
 20
-50.45
 42
0.414214
 10
29.65
 20
-50.55
 10
30.15
 20
-50.55
 42
0.414214
 10
30.25
 20
-50.45
 10
30.25
 20
-49.75
 42
0.414214
 10
30.15
 20
-49.65
 10
29.65
 20
-49.65
 42
0.414214
 10
29.55
 20
-49.75
  0
LWPOLYLINE
  5
27C
100
AcDbEntity
  8
SOLDERMASK_PADS_BTM
100
AcDbPolyline
 90
        8
 70
         1
 43
0.0
 10
31.55
 20
-48.55
 42
0.414214
 10
31.65
 20
-48.65
 10
32.15
 20
-48.65
 42
0.414214
 10
32.25
 20
-48.55
 10
32.25
 20
-47.85
 42
0.414214
 10
32.15
 20
-47.75
 10
31.65
 20
-47.75
 42
0.414214
 10
31.55
 20
-47.85
  0
LWPOLYLINE
  5
27D
100
AcDbEntity
  8
SOLDERMASK_PADS_BTM
100
AcDbPolyline
 90
        8
 70
         1
 43
0.0
 10
32.95
 20
-48.55
 42
0.414214
 10
33.05
 20
-48.65
 10
33.55
 20
-48.65
 42
0.414214
 10
33.65
 20
-48.55
 10
33.65
 20
-47.85
 42
0.414214
 10
33.55
 20
-47.75
 10
33.05
 20
-47.75
 42
0.414214
 10
32.95
 20
-47.85
  0
LWPOLYLINE
  5
27E
100
AcDbEntity
  8
SOLDERMASK_PADS_BTM
100
AcDbPolyline
 90
        8
 70
         1
 43
0.0
 10
16.05
 20
-54.2
 42
0.414214
 10
15.95
 20
-54.3
 10
15.95
 20
-54.8
 42
0.414214
 10
16.05
 20
-54.9
 10
16.75
 20
-54.9
 42
0.414214
 10
16.85
 20
-54.8
 10
16.85
 20
-54.3
 42
0.414214
 10
16.75
 20
-54.2
  0
LWPOLYLINE
  5
27F
100
AcDbEntity
  8
SOLDERMASK_PADS_BTM
100
AcDbPolyline
 90
        8
 70
         1
 43
0.0
 10
16.05
 20
-55.7
 42
0.414214
 10
15.95
 20
-55.8
 10
15.95
 20
-56.3
 42
0.414214
 10
16.05
 20
-56.4
 10
16.75
 20
-56.4
 42
0.414214
 10
16.85
 20
-56.3
 10
16.85
 20
-55.8
 42
0.414214
 10
16.75
 20
-55.7
  0
LWPOLYLINE
  5
280
100
AcDbEntity
  8
SOLDERMASK_PADS_BTM
100
AcDbPolyline
 90
        8
 70
         1
 43
0.0
 10
20.45
 20
-58.4
 42
0.414214
 10
20.55
 20
-58.3
 10
20.55
 20
-57.8
 42
0.414214
 10
20.45
 20
-57.7
 10
19.75
 20
-57.7
 42
0.414214
 10
19.65
 20
-57.8
 10
19.65
 20
-58.3
 42
0.414214
 10
19.75
 20
-58.4
  0
LWPOLYLINE
  5
281
100
AcDbEntity
  8
SOLDERMASK_PADS_BTM
100
AcDbPolyline
 90
        8
 70
         1
 43
0.0
 10
20.45
 20
-56.9
 42
0.414214
 10
20.55
 20
-56.8
 10
20.55
 20
-56.3
 42
0.414214
 10
20.45
 20
-56.2
 10
19.75
 20
-56.2
 42
0.414214
 10
19.65
 20
-56.3
 10
19.65
 20
-56.8
 42
0.414214
 10
19.75
 20
-56.9
  0
LWPOLYLINE
  5
282
100
AcDbEntity
  8
SOLDERMASK_PADS_BTM
100
AcDbPolyline
 90
        8
 70
         1
 43
0.0
 10
28.15
 20
-48.55
 42
0.414214
 10
28.25
 20
-48.65
 10
28.75
 20
-48.65
 42
0.414214
 10
28.85
 20
-48.55
 10
28.85
 20
-47.85
 42
0.414214
 10
28.75
 20
-47.75
 10
28.25
 20
-47.75
 42
0.414214
 10
28.15
 20
-47.85
  0
LWPOLYLINE
  5
283
100
AcDbEntity
  8
SOLDERMASK_PADS_BTM
100
AcDbPolyline
 90
        8
 70
         1
 43
0.0
 10
29.55
 20
-48.55
 42
0.414214
 10
29.65
 20
-48.65
 10
30.15
 20
-48.65
 42
0.414214
 10
30.25
 20
-48.55
 10
30.25
 20
-47.85
 42
0.414214
 10
30.15
 20
-47.75
 10
29.65
 20
-47.75
 42
0.414214
 10
29.55
 20
-47.85
  0
LWPOLYLINE
  5
284
100
AcDbEntity
  8
SOLDERMASK_PADS_BTM
100
AcDbPolyline
 90
        8
 70
         1
 43
0.0
 10
14.45
 20
-54.2
 42
0.414214
 10
14.35
 20
-54.3
 10
14.35
 20
-54.8
 42
0.414214
 10
14.45
 20
-54.9
 10
15.15
 20
-54.9
 42
0.414214
 10
15.25
 20
-54.8
 10
15.25
 20
-54.3
 42
0.414214
 10
15.15
 20
-54.2
  0
LWPOLYLINE
  5
285
100
AcDbEntity
  8
SOLDERMASK_PADS_BTM
100
AcDbPolyline
 90
        8
 70
         1
 43
0.0
 10
14.45
 20
-55.7
 42
0.414214
 10
14.35
 20
-55.8
 10
14.35
 20
-56.3
 42
0.414214
 10
14.45
 20
-56.4
 10
15.15
 20
-56.4
 42
0.414214
 10
15.25
 20
-56.3
 10
15.25
 20
-55.8
 42
0.414214
 10
15.15
 20
-55.7
  0
LWPOLYLINE
  5
286
100
AcDbEntity
  8
SOLDERMASK_PADS_BTM
100
AcDbPolyline
 90
        8
 70
         1
 43
0.0
 10
16.75
 20
-49.85
 42
0.414214
 10
16.85
 20
-49.75
 10
16.85
 20
-49.25
 42
0.414214
 10
16.75
 20
-49.15
 10
16.05
 20
-49.15
 42
0.414214
 10
15.95
 20
-49.25
 10
15.95
 20
-49.75
 42
0.414214
 10
16.05
 20
-49.85
  0
LWPOLYLINE
  5
287
100
AcDbEntity
  8
SOLDERMASK_PADS_BTM
100
AcDbPolyline
 90
        8
 70
         1
 43
0.0
 10
16.75
 20
-48.45
 42
0.414214
 10
16.85
 20
-48.35
 10
16.85
 20
-47.85
 42
0.414214
 10
16.75
 20
-47.75
 10
16.05
 20
-47.75
 42
0.414214
 10
15.95
 20
-47.85
 10
15.95
 20
-48.35
 42
0.414214
 10
16.05
 20
-48.45
  0
LWPOLYLINE
  5
288
100
AcDbEntity
  8
SOLDERMASK_PADS_BTM
100
AcDbPolyline
 90
        4
 70
         1
 43
0.0
 10
127.051607
 20
-59.2028
 42
1.000000
 10
127.651607
 20
-59.2028
 10
127.651607
 20
-57.8028
 42
1.000000
 10
127.051607
 20
-57.8028
  0
LWPOLYLINE
  5
289
100
AcDbEntity
  8
SOLDERMASK_PADS_BTM
100
AcDbPolyline
 90
        4
 70
         1
 43
0.0
 10
127.851607
 20
-59.2028
 42
1.000000
 10
128.451607
 20
-59.2028
 10
128.451607
 20
-57.8028
 42
1.000000
 10
127.851607
 20
-57.8028
  0
LWPOLYLINE
  5
28A
100
AcDbEntity
  8
SOLDERMASK_PADS_BTM
100
AcDbPolyline
 90
        4
 70
         1
 43
0.0
 10
128.651607
 20
-59.2028
 42
1.000000
 10
129.251607
 20
-59.2028
 10
129.251607
 20
-57.8028
 42
1.000000
 10
128.651607
 20
-57.8028
  0
LWPOLYLINE
  5
28B
100
AcDbEntity
  8
SOLDERMASK_PADS_BTM
100
AcDbPolyline
 90
        4
 70
         1
 43
0.0
 10
129.451607
 20
-59.2028
 42
1.000000
 10
130.051607
 20
-59.2028
 10
130.051607
 20
-57.8028
 42
1.000000
 10
129.451607
 20
-57.8028
  0
LWPOLYLINE
  5
28C
100
AcDbEntity
  8
SOLDERMASK_PADS_BTM
100
AcDbPolyline
 90
        4
 70
         1
 43
0.0
 10
130.251607
 20
-59.2028
 42
1.000000
 10
130.851607
 20
-59.2028
 10
130.851607
 20
-57.8028
 42
1.000000
 10
130.251607
 20
-57.8028
  0
LWPOLYLINE
  5
28D
100
AcDbEntity
  8
SOLDERMASK_PADS_BTM
100
AcDbPolyline
 90
        4
 70
         1
 43
0.0
 10
131.051607
 20
-59.2028
 42
1.000000
 10
131.651607
 20
-59.2028
 10
131.651607
 20
-57.8028
 42
1.000000
 10
131.051607
 20
-57.8028
  0
LWPOLYLINE
  5
28E
100
AcDbEntity
  8
SOLDERMASK_PADS_BTM
100
AcDbPolyline
 90
        4
 70
         1
 43
0.0
 10
135.84925
 20
-59.199149
 42
1.000000
 10
136.44925
 20
-59.199149
 10
136.44925
 20
-57.799149
 42
1.000000
 10
135.84925
 20
-57.799149
  0
LWPOLYLINE
  5
28F
100
AcDbEntity
  8
SOLDERMASK_PADS_BTM
100
AcDbPolyline
 90
        4
 70
         1
 43
0.0
 10
136.64925
 20
-59.199149
 42
1.000000
 10
137.24925
 20
-59.199149
 10
137.24925
 20
-57.799149
 42
1.000000
 10
136.64925
 20
-57.799149
  0
LWPOLYLINE
  5
290
100
AcDbEntity
  8
SOLDERMASK_PADS_BTM
100
AcDbPolyline
 90
        4
 70
         1
 43
0.0
 10
137.44925
 20
-59.199149
 42
1.000000
 10
138.04925
 20
-59.199149
 10
138.04925
 20
-57.799149
 42
1.000000
 10
137.44925
 20
-57.799149
  0
LWPOLYLINE
  5
291
100
AcDbEntity
  8
SOLDERMASK_PADS_BTM
100
AcDbPolyline
 90
        4
 70
         1
 43
0.0
 10
138.24925
 20
-59.199149
 42
1.000000
 10
138.84925
 20
-59.199149
 10
138.84925
 20
-57.799149
 42
1.000000
 10
138.24925
 20
-57.799149
  0
LWPOLYLINE
  5
292
100
AcDbEntity
  8
SOLDERMASK_PADS_BTM
100
AcDbPolyline
 90
        4
 70
         1
 43
0.0
 10
139.04925
 20
-59.199149
 42
1.000000
 10
139.64925
 20
-59.199149
 10
139.64925
 20
-57.799149
 42
1.000000
 10
139.04925
 20
-57.799149
  0
LWPOLYLINE
  5
293
100
AcDbEntity
  8
SOLDERMASK_PADS_BTM
100
AcDbPolyline
 90
        4
 70
         1
 43
0.0
 10
139.84925
 20
-59.199149
 42
1.000000
 10
140.44925
 20
-59.199149
 10
140.44925
 20
-57.799149
 42
1.000000
 10
139.84925
 20
-57.799149
  0
LWPOLYLINE
  5
294
100
AcDbEntity
  8
SOLDERMASK_PADS_BTM
100
AcDbPolyline
 90
        4
 70
         1
 43
0.0
 10
140.64925
 20
-59.199149
 42
1.000000
 10
141.24925
 20
-59.199149
 10
141.24925
 20
-57.799149
 42
1.000000
 10
140.64925
 20
-57.799149
  0
LWPOLYLINE
  5
295
100
AcDbEntity
  8
SOLDERMASK_PADS_BTM
100
AcDbPolyline
 90
        4
 70
         1
 43
0.0
 10
141.44925
 20
-59.199149
 42
1.000000
 10
142.04925
 20
-59.199149
 10
142.04925
 20
-57.799149
 42
1.000000
 10
141.44925
 20
-57.799149
  0
LWPOLYLINE
  5
296
100
AcDbEntity
  8
SOLDERMASK_PADS_BTM
100
AcDbPolyline
 90
        4
 70
         1
 43
0.0
 10
142.24925
 20
-59.199149
 42
1.000000
 10
142.84925
 20
-59.199149
 10
142.84925
 20
-57.799149
 42
1.000000
 10
142.24925
 20
-57.799149
  0
LWPOLYLINE
  5
297
100
AcDbEntity
  8
SOLDERMASK_PADS_BTM
100
AcDbPolyline
 90
        4
 70
         1
 43
0.0
 10
143.04925
 20
-59.199149
 42
1.000000
 10
143.64925
 20
-59.199149
 10
143.64925
 20
-57.799149
 42
1.000000
 10
143.04925
 20
-57.799149
  0
LWPOLYLINE
  5
298
100
AcDbEntity
  8
SOLDERMASK_PADS_BTM
100
AcDbPolyline
 90
        4
 70
         1
 43
0.0
 10
143.84925
 20
-59.199149
 42
1.000000
 10
144.44925
 20
-59.199149
 10
144.44925
 20
-57.799149
 42
1.000000
 10
143.84925
 20
-57.799149
  0
LWPOLYLINE
  5
299
100
AcDbEntity
  8
SOLDERMASK_PADS_BTM
100
AcDbPolyline
 90
        4
 70
         1
 43
0.0
 10
144.64925
 20
-59.199149
 42
1.000000
 10
145.24925
 20
-59.199149
 10
145.24925
 20
-57.799149
 42
1.000000
 10
144.64925
 20
-57.799149
  0
LWPOLYLINE
  5
29A
100
AcDbEntity
  8
SOLDERMASK_PADS_BTM
100
AcDbPolyline
 90
        4
 70
         1
 43
0.0
 10
145.44925
 20
-59.199149
 42
1.000000
 10
146.04925
 20
-59.199149
 10
146.04925
 20
-57.799149
 42
1.000000
 10
145.44925
 20
-57.799149
  0
LWPOLYLINE
  5
29B
100
AcDbEntity
  8
SOLDERMASK_PADS_BTM
100
AcDbPolyline
 90
        4
 70
         1
 43
0.0
 10
146.24925
 20
-59.199149
 42
1.000000
 10
146.84925
 20
-59.199149
 10
146.84925
 20
-57.799149
 42
1.000000
 10
146.24925
 20
-57.799149
  0
LWPOLYLINE
  5
29C
100
AcDbEntity
  8
SOLDERMASK_PADS_BTM
100
AcDbPolyline
 90
        4
 70
         1
 43
0.0
 10
147.04925
 20
-59.199149
 42
1.000000
 10
147.64925
 20
-59.199149
 10
147.64925
 20
-57.799149
 42
1.000000
 10
147.04925
 20
-57.799149
  0
LWPOLYLINE
  5
29D
100
AcDbEntity
  8
SOLDERMASK_PADS_BTM
100
AcDbPolyline
 90
        4
 70
         1
 43
0.0
 10
147.84925
 20
-59.199149
 42
1.000000
 10
148.44925
 20
-59.199149
 10
148.44925
 20
-57.799149
 42
1.000000
 10
147.84925
 20
-57.799149
  0
LWPOLYLINE
  5
29E
100
AcDbEntity
  8
SOLDERMASK_PADS_BTM
100
AcDbPolyline
 90
        4
 70
         1
 43
0.0
 10
148.64925
 20
-59.199149
 42
1.000000
 10
149.24925
 20
-59.199149
 10
149.24925
 20
-57.799149
 42
1.000000
 10
148.64925
 20
-57.799149
  0
LWPOLYLINE
  5
29F
100
AcDbEntity
  8
SOLDERMASK_PADS_BTM
100
AcDbPolyline
 90
        4
 70
         1
 43
0.0
 10
149.44925
 20
-59.199149
 42
1.000000
 10
150.04925
 20
-59.199149
 10
150.04925
 20
-57.799149
 42
1.000000
 10
149.44925
 20
-57.799149
  0
LWPOLYLINE
  5
2A0
100
AcDbEntity
  8
SOLDERMASK_PADS_BTM
100
AcDbPolyline
 90
        4
 70
         1
 43
0.0
 10
126.646375
 20
-50.999285
 42
1.000000
 10
127.246375
 20
-50.999285
 10
127.246375
 20
-49.599285
 42
1.000000
 10
126.646375
 20
-49.599285
  0
LWPOLYLINE
  5
2A1
100
AcDbEntity
  8
SOLDERMASK_PADS_BTM
100
AcDbPolyline
 90
        4
 70
         1
 43
0.0
 10
127.446375
 20
-50.999285
 42
1.000000
 10
128.046375
 20
-50.999285
 10
128.046375
 20
-49.599285
 42
1.000000
 10
127.446375
 20
-49.599285
  0
LWPOLYLINE
  5
2A2
100
AcDbEntity
  8
SOLDERMASK_PADS_BTM
100
AcDbPolyline
 90
        4
 70
         1
 43
0.0
 10
128.246375
 20
-50.999285
 42
1.000000
 10
128.846375
 20
-50.999285
 10
128.846375
 20
-49.599285
 42
1.000000
 10
128.246375
 20
-49.599285
  0
LWPOLYLINE
  5
2A3
100
AcDbEntity
  8
SOLDERMASK_PADS_BTM
100
AcDbPolyline
 90
        4
 70
         1
 43
0.0
 10
129.046375
 20
-50.999285
 42
1.000000
 10
129.646375
 20
-50.999285
 10
129.646375
 20
-49.599285
 42
1.000000
 10
129.046375
 20
-49.599285
  0
LWPOLYLINE
  5
2A4
100
AcDbEntity
  8
SOLDERMASK_PADS_BTM
100
AcDbPolyline
 90
        4
 70
         1
 43
0.0
 10
129.846375
 20
-50.999285
 42
1.000000
 10
130.446375
 20
-50.999285
 10
130.446375
 20
-49.599285
 42
1.000000
 10
129.846375
 20
-49.599285
  0
LWPOLYLINE
  5
2A5
100
AcDbEntity
  8
SOLDERMASK_PADS_BTM
100
AcDbPolyline
 90
        4
 70
         1
 43
0.0
 10
130.646375
 20
-50.999285
 42
1.000000
 10
131.246375
 20
-50.999285
 10
131.246375
 20
-49.599285
 42
1.000000
 10
130.646375
 20
-49.599285
  0
LWPOLYLINE
  5
2A6
100
AcDbEntity
  8
SOLDERMASK_PADS_BTM
100
AcDbPolyline
 90
        4
 70
         1
 43
0.0
 10
132.246375
 20
-50.999285
 42
1.000000
 10
132.846375
 20
-50.999285
 10
132.846375
 20
-49.599285
 42
1.000000
 10
132.246375
 20
-49.599285
  0
LWPOLYLINE
  5
2A7
100
AcDbEntity
  8
SOLDERMASK_PADS_BTM
100
AcDbPolyline
 90
        4
 70
         1
 43
0.0
 10
136.246349
 20
-51.003741
 42
1.000000
 10
136.846349
 20
-51.003741
 10
136.846349
 20
-49.603741
 42
1.000000
 10
136.246349
 20
-49.603741
  0
LWPOLYLINE
  5
2A8
100
AcDbEntity
  8
SOLDERMASK_PADS_BTM
100
AcDbPolyline
 90
        4
 70
         1
 43
0.0
 10
137.046349
 20
-51.003741
 42
1.000000
 10
137.646349
 20
-51.003741
 10
137.646349
 20
-49.603741
 42
1.000000
 10
137.046349
 20
-49.603741
  0
LWPOLYLINE
  5
2A9
100
AcDbEntity
  8
SOLDERMASK_PADS_BTM
100
AcDbPolyline
 90
        4
 70
         1
 43
0.0
 10
137.846349
 20
-51.003741
 42
1.000000
 10
138.446349
 20
-51.003741
 10
138.446349
 20
-49.603741
 42
1.000000
 10
137.846349
 20
-49.603741
  0
LWPOLYLINE
  5
2AA
100
AcDbEntity
  8
SOLDERMASK_PADS_BTM
100
AcDbPolyline
 90
        4
 70
         1
 43
0.0
 10
138.646349
 20
-51.003741
 42
1.000000
 10
139.246349
 20
-51.003741
 10
139.246349
 20
-49.603741
 42
1.000000
 10
138.646349
 20
-49.603741
  0
LWPOLYLINE
  5
2AB
100
AcDbEntity
  8
SOLDERMASK_PADS_BTM
100
AcDbPolyline
 90
        4
 70
         1
 43
0.0
 10
139.446349
 20
-51.003741
 42
1.000000
 10
140.046349
 20
-51.003741
 10
140.046349
 20
-49.603741
 42
1.000000
 10
139.446349
 20
-49.603741
  0
LWPOLYLINE
  5
2AC
100
AcDbEntity
  8
SOLDERMASK_PADS_BTM
100
AcDbPolyline
 90
        4
 70
         1
 43
0.0
 10
140.246349
 20
-51.003741
 42
1.000000
 10
140.846349
 20
-51.003741
 10
140.846349
 20
-49.603741
 42
1.000000
 10
140.246349
 20
-49.603741
  0
LWPOLYLINE
  5
2AD
100
AcDbEntity
  8
SOLDERMASK_PADS_BTM
100
AcDbPolyline
 90
        4
 70
         1
 43
0.0
 10
141.046349
 20
-51.003741
 42
1.000000
 10
141.646349
 20
-51.003741
 10
141.646349
 20
-49.603741
 42
1.000000
 10
141.046349
 20
-49.603741
  0
LWPOLYLINE
  5
2AE
100
AcDbEntity
  8
SOLDERMASK_PADS_BTM
100
AcDbPolyline
 90
        4
 70
         1
 43
0.0
 10
141.846349
 20
-51.003741
 42
1.000000
 10
142.446349
 20
-51.003741
 10
142.446349
 20
-49.603741
 42
1.000000
 10
141.846349
 20
-49.603741
  0
LWPOLYLINE
  5
2AF
100
AcDbEntity
  8
SOLDERMASK_PADS_BTM
100
AcDbPolyline
 90
        4
 70
         1
 43
0.0
 10
142.646349
 20
-51.003741
 42
1.000000
 10
143.246349
 20
-51.003741
 10
143.246349
 20
-49.603741
 42
1.000000
 10
142.646349
 20
-49.603741
  0
LWPOLYLINE
  5
2B0
100
AcDbEntity
  8
SOLDERMASK_PADS_BTM
100
AcDbPolyline
 90
        4
 70
         1
 43
0.0
 10
143.446349
 20
-51.003741
 42
1.000000
 10
144.046349
 20
-51.003741
 10
144.046349
 20
-49.603741
 42
1.000000
 10
143.446349
 20
-49.603741
  0
LWPOLYLINE
  5
2B1
100
AcDbEntity
  8
SOLDERMASK_PADS_BTM
100
AcDbPolyline
 90
        4
 70
         1
 43
0.0
 10
144.246349
 20
-51.003741
 42
1.000000
 10
144.846349
 20
-51.003741
 10
144.846349
 20
-49.603741
 42
1.000000
 10
144.246349
 20
-49.603741
  0
LWPOLYLINE
  5
2B2
100
AcDbEntity
  8
SOLDERMASK_PADS_BTM
100
AcDbPolyline
 90
        4
 70
         1
 43
0.0
 10
145.046349
 20
-51.003741
 42
1.000000
 10
145.646349
 20
-51.003741
 10
145.646349
 20
-49.603741
 42
1.000000
 10
145.046349
 20
-49.603741
  0
LWPOLYLINE
  5
2B3
100
AcDbEntity
  8
SOLDERMASK_PADS_BTM
100
AcDbPolyline
 90
        4
 70
         1
 43
0.0
 10
145.846349
 20
-51.003741
 42
1.000000
 10
146.446349
 20
-51.003741
 10
146.446349
 20
-49.603741
 42
1.000000
 10
145.846349
 20
-49.603741
  0
LWPOLYLINE
  5
2B4
100
AcDbEntity
  8
SOLDERMASK_PADS_BTM
100
AcDbPolyline
 90
        4
 70
         1
 43
0.0
 10
146.646349
 20
-51.003741
 42
1.000000
 10
147.246349
 20
-51.003741
 10
147.246349
 20
-49.603741
 42
1.000000
 10
146.646349
 20
-49.603741
  0
LWPOLYLINE
  5
2B5
100
AcDbEntity
  8
SOLDERMASK_PADS_BTM
100
AcDbPolyline
 90
        4
 70
         1
 43
0.0
 10
147.446349
 20
-51.003741
 42
1.000000
 10
148.046349
 20
-51.003741
 10
148.046349
 20
-49.603741
 42
1.000000
 10
147.446349
 20
-49.603741
  0
LWPOLYLINE
  5
2B6
100
AcDbEntity
  8
SOLDERMASK_PADS_BTM
100
AcDbPolyline
 90
        4
 70
         1
 43
0.0
 10
148.246349
 20
-51.003741
 42
1.000000
 10
148.846349
 20
-51.003741
 10
148.846349
 20
-49.603741
 42
1.000000
 10
148.246349
 20
-49.603741
  0
LWPOLYLINE
  5
2B7
100
AcDbEntity
  8
SOLDERMASK_PADS_BTM
100
AcDbPolyline
 90
        4
 70
         1
 43
0.0
 10
149.046349
 20
-51.003741
 42
1.000000
 10
149.646349
 20
-51.003741
 10
149.646349
 20
-49.603741
 42
1.000000
 10
149.046349
 20
-49.603741
  0
LWPOLYLINE
  5
2B8
100
AcDbEntity
  8
SOLDERMASK_PADS_BTM
100
AcDbPolyline
 90
        4
 70
         1
 43
0.0
 10
126.251607
 20
-59.2028
 42
1.000000
 10
126.851607
 20
-59.2028
 10
126.851607
 20
-57.8028
 42
1.000000
 10
126.251607
 20
-57.8028
  0
LWPOLYLINE
  5
2B9
100
AcDbEntity
  8
SOLDERMASK_PADS_BTM
100
AcDbPolyline
 90
        4
 70
         1
 43
0.0
 10
131.851607
 20
-59.2028
 42
1.000000
 10
132.451607
 20
-59.2028
 10
132.451607
 20
-57.8028
 42
1.000000
 10
131.851607
 20
-57.8028
  0
LWPOLYLINE
  5
2BA
100
AcDbEntity
  8
SOLDERMASK_PADS_BTM
100
AcDbPolyline
 90
        4
 70
         1
 43
0.0
 10
131.446375
 20
-50.999285
 42
1.000000
 10
132.046375
 20
-50.999285
 10
132.046375
 20
-49.599285
 42
1.000000
 10
131.446375
 20
-49.599285
  0
LWPOLYLINE
  5
2BB
100
AcDbEntity
  8
SOLDERMASK_PADS_BTM
100
AcDbPolyline
 90
        4
 70
         1
 43
0.0
 10
149.846349
 20
-51.003741
 42
1.000000
 10
150.446349
 20
-51.003741
 10
150.446349
 20
-49.603741
 42
1.000000
 10
149.846349
 20
-49.603741
  0
LWPOLYLINE
  5
2BC
100
AcDbEntity
  8
SOLDERMASK_PADS_BTM
100
AcDbPolyline
 90
        4
 70
         1
 43
0.0
 10
178.7
 20
-18.68
 10
178.7
 20
-17.28
 10
180.1
 20
-17.28
 10
180.1
 20
-18.68
  0
CIRCLE
  5
2BD
100
AcDbEntity
  8
SOLDERMASK_PADS_BTM
100
AcDbCircle
 10
179.4
 20
-15.44
 30
0.0
 40
0.7
  0
CIRCLE
  5
2BE
100
AcDbEntity
  8
SOLDERMASK_PADS_BTM
100
AcDbCircle
 10
179.4
 20
-12.9
 30
0.0
 40
0.7
  0
LWPOLYLINE
  5
2BF
100
AcDbEntity
  8
SOLDERMASK_PADS_BTM
100
AcDbPolyline
 90
        8
 70
         1
 43
0.0
 10
13.55
 20
-48.2
 42
0.414214
 10
13.65
 20
-48.1
 10
13.65
 20
-47.6
 42
0.414214
 10
13.55
 20
-47.5
 10
12.85
 20
-47.5
 42
0.414214
 10
12.75
 20
-47.6
 10
12.75
 20
-48.1
 42
0.414214
 10
12.85
 20
-48.2
  0
LWPOLYLINE
  5
2C0
100
AcDbEntity
  8
SOLDERMASK_PADS_BTM
100
AcDbPolyline
 90
        8
 70
         1
 43
0.0
 10
13.55
 20
-46.7
 42
0.414214
 10
13.65
 20
-46.6
 10
13.65
 20
-46.1
 42
0.414214
 10
13.55
 20
-46.0
 10
12.85
 20
-46.0
 42
0.414214
 10
12.75
 20
-46.1
 10
12.75
 20
-46.6
 42
0.414214
 10
12.85
 20
-46.7
  0
LWPOLYLINE
  5
2C1
100
AcDbEntity
  8
SOLDERMASK_PADS_BTM
100
AcDbPolyline
 90
        8
 70
         1
 43
0.0
 10
15.15
 20
-49.85
 42
0.414214
 10
15.25
 20
-49.75
 10
15.25
 20
-49.25
 42
0.414214
 10
15.15
 20
-49.15
 10
14.45
 20
-49.15
 42
0.414214
 10
14.35
 20
-49.25
 10
14.35
 20
-49.75
 42
0.414214
 10
14.45
 20
-49.85
  0
LWPOLYLINE
  5
2C2
100
AcDbEntity
  8
SOLDERMASK_PADS_BTM
100
AcDbPolyline
 90
        8
 70
         1
 43
0.0
 10
15.15
 20
-48.45
 42
0.414214
 10
15.25
 20
-48.35
 10
15.25
 20
-47.85
 42
0.414214
 10
15.15
 20
-47.75
 10
14.45
 20
-47.75
 42
0.414214
 10
14.35
 20
-47.85
 10
14.35
 20
-48.35
 42
0.414214
 10
14.45
 20
-48.45
  0
LWPOLYLINE
  5
2C3
100
AcDbEntity
  8
SOLDERMASK_PADS_BTM
100
AcDbPolyline
 90
        4
 70
         1
 43
0.0
 10
112.848303
 20
-9.549573
 42
1.000000
 10
112.048303
 20
-9.549573
 10
112.048303
 20
-14.749573
 42
1.000000
 10
112.848303
 20
-14.749573
  0
LWPOLYLINE
  5
2C4
100
AcDbEntity
  8
SOLDERMASK_PADS_BTM
100
AcDbPolyline
 90
        4
 70
         1
 43
0.0
 10
111.848303
 20
-9.549573
 42
1.000000
 10
111.048303
 20
-9.549573
 10
111.048303
 20
-14.749573
 42
1.000000
 10
111.848303
 20
-14.749573
  0
LWPOLYLINE
  5
2C5
100
AcDbEntity
  8
SOLDERMASK_PADS_BTM
100
AcDbPolyline
 90
        4
 70
         1
 43
0.0
 10
110.848303
 20
-9.549573
 42
1.000000
 10
110.048303
 20
-9.549573
 10
110.048303
 20
-14.749573
 42
1.000000
 10
110.848303
 20
-14.749573
  0
LWPOLYLINE
  5
2C6
100
AcDbEntity
  8
SOLDERMASK_PADS_BTM
100
AcDbPolyline
 90
        4
 70
         1
 43
0.0
 10
109.848303
 20
-9.549573
 42
1.000000
 10
109.048303
 20
-9.549573
 10
109.048303
 20
-14.749573
 42
1.000000
 10
109.848303
 20
-14.749573
  0
LWPOLYLINE
  5
2C7
100
AcDbEntity
  8
SOLDERMASK_PADS_BTM
100
AcDbPolyline
 90
        4
 70
         1
 43
0.0
 10
113.4
 20
-14.45
 10
113.4
 20
-11.85
 10
117.0
 20
-11.85
 10
117.0
 20
-14.45
  0
LWPOLYLINE
  5
2C8
100
AcDbEntity
  8
SOLDERMASK_PADS_BTM
100
AcDbPolyline
 90
        4
 70
         1
 43
0.0
 10
104.9
 20
-14.45
 10
104.9
 20
-11.85
 10
108.5
 20
-11.85
 10
108.5
 20
-14.45
  0
LWPOLYLINE
  5
2C9
100
AcDbEntity
  8
SOLDERMASK_PADS_BTM
100
AcDbPolyline
 90
        8
 70
         1
 43
0.0
 10
21.65
 20
-43.2
 42
0.414214
 10
21.55
 20
-43.3
 10
21.55
 20
-43.8
 42
0.414214
 10
21.65
 20
-43.9
 10
22.35
 20
-43.9
 42
0.414214
 10
22.45
 20
-43.8
 10
22.45
 20
-43.3
 42
0.414214
 10
22.35
 20
-43.2
  0
LWPOLYLINE
  5
2CA
100
AcDbEntity
  8
SOLDERMASK_PADS_BTM
100
AcDbPolyline
 90
        8
 70
         1
 43
0.0
 10
21.65
 20
-44.7
 42
0.414214
 10
21.55
 20
-44.8
 10
21.55
 20
-45.3
 42
0.414214
 10
21.65
 20
-45.4
 10
22.35
 20
-45.4
 42
0.414214
 10
22.45
 20
-45.3
 10
22.45
 20
-44.8
 42
0.414214
 10
22.35
 20
-44.7
  0
LWPOLYLINE
  5
2CB
100
AcDbEntity
  8
SOLDERMASK_PADS_BTM
100
AcDbPolyline
 90
        8
 70
         1
 43
0.0
 10
11.25
 20
-49.85
 42
0.414214
 10
11.35
 20
-49.95
 10
11.85
 20
-49.95
 42
0.414214
 10
11.95
 20
-49.85
 10
11.95
 20
-49.15
 42
0.414214
 10
11.85
 20
-49.05
 10
11.35
 20
-49.05
 42
0.414214
 10
11.25
 20
-49.15
  0
LWPOLYLINE
  5
2CC
100
AcDbEntity
  8
SOLDERMASK_PADS_BTM
100
AcDbPolyline
 90
        8
 70
         1
 43
0.0
 10
12.65
 20
-49.85
 42
0.414214
 10
12.75
 20
-49.95
 10
13.25
 20
-49.95
 42
0.414214
 10
13.35
 20
-49.85
 10
13.35
 20
-49.15
 42
0.414214
 10
13.25
 20
-49.05
 10
12.75
 20
-49.05
 42
0.414214
 10
12.65
 20
-49.15
  0
LWPOLYLINE
  5
2CD
100
AcDbEntity
  8
SOLDERMASK_PADS_BTM
100
AcDbPolyline
 90
        4
 70
         1
 43
0.0
 10
62.848303
 20
-9.549573
 42
1.000000
 10
62.048303
 20
-9.549573
 10
62.048303
 20
-14.749573
 42
1.000000
 10
62.848303
 20
-14.749573
  0
LWPOLYLINE
  5
2CE
100
AcDbEntity
  8
SOLDERMASK_PADS_BTM
100
AcDbPolyline
 90
        4
 70
         1
 43
0.0
 10
61.848303
 20
-9.549573
 42
1.000000
 10
61.048303
 20
-9.549573
 10
61.048303
 20
-14.749573
 42
1.000000
 10
61.848303
 20
-14.749573
  0
LWPOLYLINE
  5
2CF
100
AcDbEntity
  8
SOLDERMASK_PADS_BTM
100
AcDbPolyline
 90
        4
 70
         1
 43
0.0
 10
60.848303
 20
-9.549573
 42
1.000000
 10
60.048303
 20
-9.549573
 10
60.048303
 20
-14.749573
 42
1.000000
 10
60.848303
 20
-14.749573
  0
LWPOLYLINE
  5
2D0
100
AcDbEntity
  8
SOLDERMASK_PADS_BTM
100
AcDbPolyline
 90
        4
 70
         1
 43
0.0
 10
59.848303
 20
-9.549573
 42
1.000000
 10
59.048303
 20
-9.549573
 10
59.048303
 20
-14.749573
 42
1.000000
 10
59.848303
 20
-14.749573
  0
LWPOLYLINE
  5
2D1
100
AcDbEntity
  8
SOLDERMASK_PADS_BTM
100
AcDbPolyline
 90
        4
 70
         1
 43
0.0
 10
63.4
 20
-14.45
 10
63.4
 20
-11.85
 10
67.0
 20
-11.85
 10
67.0
 20
-14.45
  0
LWPOLYLINE
  5
2D2
100
AcDbEntity
  8
SOLDERMASK_PADS_BTM
100
AcDbPolyline
 90
        4
 70
         1
 43
0.0
 10
54.9
 20
-14.45
 10
54.9
 20
-11.85
 10
58.5
 20
-11.85
 10
58.5
 20
-14.45
  0
LWPOLYLINE
  5
2D3
100
AcDbEntity
  8
SOLDERMASK_PADS_BTM
100
AcDbPolyline
 90
        8
 70
         1
 43
0.0
 10
25.4
 20
-42.9
 42
0.414214
 10
25.5
 20
-43.0
 10
26.0
 20
-43.0
 42
0.414214
 10
26.1
 20
-42.9
 10
26.1
 20
-42.2
 42
0.414214
 10
26.0
 20
-42.1
 10
25.5
 20
-42.1
 42
0.414214
 10
25.4
 20
-42.2
  0
LWPOLYLINE
  5
2D4
100
AcDbEntity
  8
SOLDERMASK_PADS_BTM
100
AcDbPolyline
 90
        8
 70
         1
 43
0.0
 10
26.9
 20
-42.9
 42
0.414214
 10
27.0
 20
-43.0
 10
27.5
 20
-43.0
 42
0.414214
 10
27.6
 20
-42.9
 10
27.6
 20
-42.2
 42
0.414214
 10
27.5
 20
-42.1
 10
27.0
 20
-42.1
 42
0.414214
 10
26.9
 20
-42.2
  0
LWPOLYLINE
  5
2D5
100
AcDbEntity
  8
SOLDERMASK_PADS_BTM
100
AcDbPolyline
 90
        8
 70
         1
 43
0.0
 10
24.05
 20
-56.35
 42
0.414214
 10
24.15
 20
-56.45
 10
24.65
 20
-56.45
 42
0.414214
 10
24.75
 20
-56.35
 10
24.75
 20
-55.65
 42
0.414214
 10
24.65
 20
-55.55
 10
24.15
 20
-55.55
 42
0.414214
 10
24.05
 20
-55.65
  0
LWPOLYLINE
  5
2D6
100
AcDbEntity
  8
SOLDERMASK_PADS_BTM
100
AcDbPolyline
 90
        8
 70
         1
 43
0.0
 10
25.45
 20
-56.35
 42
0.414214
 10
25.55
 20
-56.45
 10
26.05
 20
-56.45
 42
0.414214
 10
26.15
 20
-56.35
 10
26.15
 20
-55.65
 42
0.414214
 10
26.05
 20
-55.55
 10
25.55
 20
-55.55
 42
0.414214
 10
25.45
 20
-55.65
  0
LWPOLYLINE
  5
2D7
100
AcDbEntity
  8
SOLDERMASK_PADS_BTM
100
AcDbPolyline
 90
        8
 70
         1
 43
0.0
 10
31.55
 20
-46.65
 42
0.414214
 10
31.65
 20
-46.75
 10
32.15
 20
-46.75
 42
0.414214
 10
32.25
 20
-46.65
 10
32.25
 20
-45.95
 42
0.414214
 10
32.15
 20
-45.85
 10
31.65
 20
-45.85
 42
0.414214
 10
31.55
 20
-45.95
  0
LWPOLYLINE
  5
2D8
100
AcDbEntity
  8
SOLDERMASK_PADS_BTM
100
AcDbPolyline
 90
        8
 70
         1
 43
0.0
 10
32.95
 20
-46.65
 42
0.414214
 10
33.05
 20
-46.75
 10
33.55
 20
-46.75
 42
0.414214
 10
33.65
 20
-46.65
 10
33.65
 20
-45.95
 42
0.414214
 10
33.55
 20
-45.85
 10
33.05
 20
-45.85
 42
0.414214
 10
32.95
 20
-45.95
  0
LWPOLYLINE
  5
2D9
100
AcDbEntity
  8
SOLDERMASK_PADS_BTM
100
AcDbPolyline
 90
        8
 70
         1
 43
0.0
 10
29.35
 20
-44.05
 42
0.414214
 10
29.25
 20
-43.95
 10
28.75
 20
-43.95
 42
0.414214
 10
28.65
 20
-44.05
 10
28.65
 20
-44.75
 42
0.414214
 10
28.75
 20
-44.85
 10
29.25
 20
-44.85
 42
0.414214
 10
29.35
 20
-44.75
  0
LWPOLYLINE
  5
2DA
100
AcDbEntity
  8
SOLDERMASK_PADS_BTM
100
AcDbPolyline
 90
        8
 70
         1
 43
0.0
 10
27.95
 20
-44.05
 42
0.414214
 10
27.85
 20
-43.95
 10
27.35
 20
-43.95
 42
0.414214
 10
27.25
 20
-44.05
 10
27.25
 20
-44.75
 42
0.414214
 10
27.35
 20
-44.85
 10
27.85
 20
-44.85
 42
0.414214
 10
27.95
 20
-44.75
  0
LWPOLYLINE
  5
2DB
100
AcDbEntity
  8
SOLDERMASK_PADS_BTM
100
AcDbPolyline
 90
        4
 70
         1
 43
0.0
 10
178.7
 20
-11.04
 10
178.7
 20
-9.64
 10
180.1
 20
-9.64
 10
180.1
 20
-11.04
  0
CIRCLE
  5
2DC
100
AcDbEntity
  8
SOLDERMASK_PADS_BTM
100
AcDbCircle
 10
179.4
 20
-7.8
 30
0.0
 40
0.7
  0
CIRCLE
  5
2DD
100
AcDbEntity
  8
SOLDERMASK_PADS_BTM
100
AcDbCircle
 10
179.4
 20
-5.26
 30
0.0
 40
0.7
  0
LWPOLYLINE
  5
2DE
100
AcDbEntity
  8
SOLDERMASK_PADS_BTM
100
AcDbPolyline
 90
        8
 70
         1
 43
0.0
 10
19.9
 20
-42.25
 42
0.414214
 10
19.8
 20
-42.15
 10
19.3
 20
-42.15
 42
0.414214
 10
19.2
 20
-42.25
 10
19.2
 20
-42.95
 42
0.414214
 10
19.3
 20
-43.05
 10
19.8
 20
-43.05
 42
0.414214
 10
19.9
 20
-42.95
  0
LWPOLYLINE
  5
2DF
100
AcDbEntity
  8
SOLDERMASK_PADS_BTM
100
AcDbPolyline
 90
        8
 70
         1
 43
0.0
 10
18.4
 20
-42.25
 42
0.414214
 10
18.3
 20
-42.15
 10
17.8
 20
-42.15
 42
0.414214
 10
17.7
 20
-42.25
 10
17.7
 20
-42.95
 42
0.414214
 10
17.8
 20
-43.05
 10
18.3
 20
-43.05
 42
0.414214
 10
18.4
 20
-42.95
  0
LWPOLYLINE
  5
2E0
100
AcDbEntity
  8
SOLDERMASK_PADS_BTM
100
AcDbPolyline
 90
        8
 70
         1
 43
0.0
 10
24.05
 20
-45.55
 42
0.414214
 10
24.15
 20
-45.45
 10
24.15
 20
-44.95
 42
0.414214
 10
24.05
 20
-44.85
 10
23.35
 20
-44.85
 42
0.414214
 10
23.25
 20
-44.95
 10
23.25
 20
-45.45
 42
0.414214
 10
23.35
 20
-45.55
  0
LWPOLYLINE
  5
2E1
100
AcDbEntity
  8
SOLDERMASK_PADS_BTM
100
AcDbPolyline
 90
        8
 70
         1
 43
0.0
 10
24.05
 20
-44.15
 42
0.414214
 10
24.15
 20
-44.05
 10
24.15
 20
-43.55
 42
0.414214
 10
24.05
 20
-43.45
 10
23.35
 20
-43.45
 42
0.414214
 10
23.25
 20
-43.55
 10
23.25
 20
-44.05
 42
0.414214
 10
23.35
 20
-44.15
  0
LWPOLYLINE
  5
2E2
100
AcDbEntity
  8
SOLDERMASK_PADS_BTM
100
AcDbPolyline
 90
        8
 70
         1
 43
0.0
 10
28.15
 20
-46.65
 42
0.414214
 10
28.25
 20
-46.75
 10
28.75
 20
-46.75
 42
0.414214
 10
28.85
 20
-46.65
 10
28.85
 20
-45.95
 42
0.414214
 10
28.75
 20
-45.85
 10
28.25
 20
-45.85
 42
0.414214
 10
28.15
 20
-45.95
  0
LWPOLYLINE
  5
2E3
100
AcDbEntity
  8
SOLDERMASK_PADS_BTM
100
AcDbPolyline
 90
        8
 70
         1
 43
0.0
 10
29.55
 20
-46.65
 42
0.414214
 10
29.65
 20
-46.75
 10
30.15
 20
-46.75
 42
0.414214
 10
30.25
 20
-46.65
 10
30.25
 20
-45.95
 42
0.414214
 10
30.15
 20
-45.85
 10
29.65
 20
-45.85
 42
0.414214
 10
29.55
 20
-45.95
  0
LWPOLYLINE
  5
2E4
100
AcDbEntity
  8
SOLDERMASK_PADS_BTM
100
AcDbPolyline
 90
        8
 70
         1
 43
0.0
 10
14.6
 20
-42.95
 42
0.414214
 10
14.7
 20
-43.05
 10
15.2
 20
-43.05
 42
0.414214
 10
15.3
 20
-42.95
 10
15.3
 20
-42.25
 42
0.414214
 10
15.2
 20
-42.15
 10
14.7
 20
-42.15
 42
0.414214
 10
14.6
 20
-42.25
  0
LWPOLYLINE
  5
2E5
100
AcDbEntity
  8
SOLDERMASK_PADS_BTM
100
AcDbPolyline
 90
        8
 70
         1
 43
0.0
 10
16.1
 20
-42.95
 42
0.414214
 10
16.2
 20
-43.05
 10
16.7
 20
-43.05
 42
0.414214
 10
16.8
 20
-42.95
 10
16.8
 20
-42.25
 42
0.414214
 10
16.7
 20
-42.15
 10
16.2
 20
-42.15
 42
0.414214
 10
16.1
 20
-42.25
  0
LWPOLYLINE
  5
2E6
100
AcDbEntity
  8
SOLDERMASK_PADS_BTM
100
AcDbPolyline
 90
        8
 70
         1
 43
0.0
 10
19.95
 20
-45.25
 42
0.414214
 10
19.85
 20
-45.15
 10
19.35
 20
-45.15
 42
0.414214
 10
19.25
 20
-45.25
 10
19.25
 20
-45.95
 42
0.414214
 10
19.35
 20
-46.05
 10
19.85
 20
-46.05
 42
0.414214
 10
19.95
 20
-45.95
  0
LWPOLYLINE
  5
2E7
100
AcDbEntity
  8
SOLDERMASK_PADS_BTM
100
AcDbPolyline
 90
        8
 70
         1
 43
0.0
 10
18.55
 20
-45.25
 42
0.414214
 10
18.45
 20
-45.15
 10
17.95
 20
-45.15
 42
0.414214
 10
17.85
 20
-45.25
 10
17.85
 20
-45.95
 42
0.414214
 10
17.95
 20
-46.05
 10
18.45
 20
-46.05
 42
0.414214
 10
18.55
 20
-45.95
  0
LWPOLYLINE
  5
2E8
100
AcDbEntity
  8
SOLDERMASK_PADS_BTM
100
AcDbPolyline
 90
        8
 70
         1
 43
0.0
 10
16.8
 20
-40.75
 42
0.414214
 10
16.7
 20
-40.65
 10
16.2
 20
-40.65
 42
0.414214
 10
16.1
 20
-40.75
 10
16.1
 20
-41.45
 42
0.414214
 10
16.2
 20
-41.55
 10
16.7
 20
-41.55
 42
0.414214
 10
16.8
 20
-41.45
  0
LWPOLYLINE
  5
2E9
100
AcDbEntity
  8
SOLDERMASK_PADS_BTM
100
AcDbPolyline
 90
        8
 70
         1
 43
0.0
 10
15.3
 20
-40.75
 42
0.414214
 10
15.2
 20
-40.65
 10
14.7
 20
-40.65
 42
0.414214
 10
14.6
 20
-40.75
 10
14.6
 20
-41.45
 42
0.414214
 10
14.7
 20
-41.55
 10
15.2
 20
-41.55
 42
0.414214
 10
15.3
 20
-41.45
  0
LWPOLYLINE
  5
2EA
100
AcDbEntity
  8
SOLDERMASK_PADS_BTM
100
AcDbPolyline
 90
        8
 70
         1
 43
0.0
 10
19.95
 20
-43.85
 42
0.414214
 10
19.85
 20
-43.75
 10
19.35
 20
-43.75
 42
0.414214
 10
19.25
 20
-43.85
 10
19.25
 20
-44.55
 42
0.414214
 10
19.35
 20
-44.65
 10
19.85
 20
-44.65
 42
0.414214
 10
19.95
 20
-44.55
  0
LWPOLYLINE
  5
2EB
100
AcDbEntity
  8
SOLDERMASK_PADS_BTM
100
AcDbPolyline
 90
        8
 70
         1
 43
0.0
 10
18.55
 20
-43.85
 42
0.414214
 10
18.45
 20
-43.75
 10
17.95
 20
-43.75
 42
0.414214
 10
17.85
 20
-43.85
 10
17.85
 20
-44.55
 42
0.414214
 10
17.95
 20
-44.65
 10
18.45
 20
-44.65
 42
0.414214
 10
18.55
 20
-44.55
  0
LWPOLYLINE
  5
2EC
100
AcDbEntity
  8
SOLDERMASK_PADS_BTM
100
AcDbPolyline
 90
        8
 70
         1
 43
0.0
 10
16.7
 20
-57.25
 42
0.414214
 10
16.6
 20
-57.15
 10
16.1
 20
-57.15
 42
0.414214
 10
16.0
 20
-57.25
 10
16.0
 20
-57.95
 42
0.414214
 10
16.1
 20
-58.05
 10
16.6
 20
-58.05
 42
0.414214
 10
16.7
 20
-57.95
  0
LWPOLYLINE
  5
2ED
100
AcDbEntity
  8
SOLDERMASK_PADS_BTM
100
AcDbPolyline
 90
        8
 70
         1
 43
0.0
 10
15.2
 20
-57.25
 42
0.414214
 10
15.1
 20
-57.15
 10
14.6
 20
-57.15
 42
0.414214
 10
14.5
 20
-57.25
 10
14.5
 20
-57.95
 42
0.414214
 10
14.6
 20
-58.05
 10
15.1
 20
-58.05
 42
0.414214
 10
15.2
 20
-57.95
  0
LWPOLYLINE
  5
2EE
100
AcDbEntity
  8
SOLDERMASK_PADS_BTM
100
AcDbPolyline
 90
        8
 70
         1
 43
0.0
 10
81.9
 20
-32.05
 42
0.414214
 10
82.0
 20
-32.15
 10
82.5
 20
-32.15
 42
0.414214
 10
82.6
 20
-32.05
 10
82.6
 20
-31.35
 42
0.414214
 10
82.5
 20
-31.25
 10
82.0
 20
-31.25
 42
0.414214
 10
81.9
 20
-31.35
  0
LWPOLYLINE
  5
2EF
100
AcDbEntity
  8
SOLDERMASK_PADS_BTM
100
AcDbPolyline
 90
        8
 70
         1
 43
0.0
 10
83.4
 20
-32.05
 42
0.414214
 10
83.5
 20
-32.15
 10
84.0
 20
-32.15
 42
0.414214
 10
84.1
 20
-32.05
 10
84.1
 20
-31.35
 42
0.414214
 10
84.0
 20
-31.25
 10
83.5
 20
-31.25
 42
0.414214
 10
83.4
 20
-31.35
  0
LWPOLYLINE
  5
2F0
100
AcDbEntity
  8
SOLDERMASK_PADS_BTM
100
AcDbPolyline
 90
        8
 70
         1
 43
0.0
 10
73.9
 20
-36.55
 42
0.414214
 10
74.0
 20
-36.65
 10
74.5
 20
-36.65
 42
0.414214
 10
74.6
 20
-36.55
 10
74.6
 20
-35.85
 42
0.414214
 10
74.5
 20
-35.75
 10
74.0
 20
-35.75
 42
0.414214
 10
73.9
 20
-35.85
  0
LWPOLYLINE
  5
2F1
100
AcDbEntity
  8
SOLDERMASK_PADS_BTM
100
AcDbPolyline
 90
        8
 70
         1
 43
0.0
 10
75.4
 20
-36.55
 42
0.414214
 10
75.5
 20
-36.65
 10
76.0
 20
-36.65
 42
0.414214
 10
76.1
 20
-36.55
 10
76.1
 20
-35.85
 42
0.414214
 10
76.0
 20
-35.75
 10
75.5
 20
-35.75
 42
0.414214
 10
75.4
 20
-35.85
  0
LWPOLYLINE
  5
2F2
100
AcDbEntity
  8
SOLDERMASK_PADS_BTM
100
AcDbPolyline
 90
        8
 70
         1
 43
0.0
 10
16.75
 20
-46.85
 42
0.414214
 10
16.85
 20
-46.75
 10
16.85
 20
-46.25
 42
0.414214
 10
16.75
 20
-46.15
 10
16.05
 20
-46.15
 42
0.414214
 10
15.95
 20
-46.25
 10
15.95
 20
-46.75
 42
0.414214
 10
16.05
 20
-46.85
  0
LWPOLYLINE
  5
2F3
100
AcDbEntity
  8
SOLDERMASK_PADS_BTM
100
AcDbPolyline
 90
        8
 70
         1
 43
0.0
 10
16.75
 20
-45.45
 42
0.414214
 10
16.85
 20
-45.35
 10
16.85
 20
-44.85
 42
0.414214
 10
16.75
 20
-44.75
 10
16.05
 20
-44.75
 42
0.414214
 10
15.95
 20
-44.85
 10
15.95
 20
-45.35
 42
0.414214
 10
16.05
 20
-45.45
  0
LWPOLYLINE
  5
2F4
100
AcDbEntity
  8
SOLDERMASK_PADS_BTM
100
AcDbPolyline
 90
        8
 70
         1
 43
0.0
 10
37.0
 20
-38.25
 42
0.414214
 10
37.1
 20
-38.35
 10
37.6
 20
-38.35
 42
0.414214
 10
37.7
 20
-38.25
 10
37.7
 20
-37.55
 42
0.414214
 10
37.6
 20
-37.45
 10
37.1
 20
-37.45
 42
0.414214
 10
37.0
 20
-37.55
  0
LWPOLYLINE
  5
2F5
100
AcDbEntity
  8
SOLDERMASK_PADS_BTM
100
AcDbPolyline
 90
        8
 70
         1
 43
0.0
 10
38.5
 20
-38.25
 42
0.414214
 10
38.6
 20
-38.35
 10
39.1
 20
-38.35
 42
0.414214
 10
39.2
 20
-38.25
 10
39.2
 20
-37.55
 42
0.414214
 10
39.1
 20
-37.45
 10
38.6
 20
-37.45
 42
0.414214
 10
38.5
 20
-37.55
  0
LWPOLYLINE
  5
2F6
100
AcDbEntity
  8
SOLDERMASK_PADS_BTM
100
AcDbPolyline
 90
        8
 70
         1
 43
0.0
 10
71.55
 20
-19.4
 42
0.414214
 10
71.65
 20
-19.3
 10
71.65
 20
-18.8
 42
0.414214
 10
71.55
 20
-18.7
 10
70.85
 20
-18.7
 42
0.414214
 10
70.75
 20
-18.8
 10
70.75
 20
-19.3
 42
0.414214
 10
70.85
 20
-19.4
  0
LWPOLYLINE
  5
2F7
100
AcDbEntity
  8
SOLDERMASK_PADS_BTM
100
AcDbPolyline
 90
        8
 70
         1
 43
0.0
 10
71.55
 20
-17.9
 42
0.414214
 10
71.65
 20
-17.8
 10
71.65
 20
-17.3
 42
0.414214
 10
71.55
 20
-17.2
 10
70.85
 20
-17.2
 42
0.414214
 10
70.75
 20
-17.3
 10
70.75
 20
-17.8
 42
0.414214
 10
70.85
 20
-17.9
  0
LWPOLYLINE
  5
2F8
100
AcDbEntity
  8
SOLDERMASK_PADS_BTM
100
AcDbPolyline
 90
        8
 70
         1
 43
0.0
 10
15.15
 20
-46.85
 42
0.414214
 10
15.25
 20
-46.75
 10
15.25
 20
-46.25
 42
0.414214
 10
15.15
 20
-46.15
 10
14.45
 20
-46.15
 42
0.414214
 10
14.35
 20
-46.25
 10
14.35
 20
-46.75
 42
0.414214
 10
14.45
 20
-46.85
  0
LWPOLYLINE
  5
2F9
100
AcDbEntity
  8
SOLDERMASK_PADS_BTM
100
AcDbPolyline
 90
        8
 70
         1
 43
0.0
 10
15.15
 20
-45.45
 42
0.414214
 10
15.25
 20
-45.35
 10
15.25
 20
-44.85
 42
0.414214
 10
15.15
 20
-44.75
 10
14.45
 20
-44.75
 42
0.414214
 10
14.35
 20
-44.85
 10
14.35
 20
-45.35
 42
0.414214
 10
14.45
 20
-45.45
  0
LWPOLYLINE
  5
2FA
100
AcDbEntity
  8
SOLDERMASK_PADS_BTM
100
AcDbPolyline
 90
        4
 70
         1
 43
0.0
 10
178.7
 20
-38.6
 10
178.7
 20
-37.2
 10
180.1
 20
-37.2
 10
180.1
 20
-38.6
  0
CIRCLE
  5
2FB
100
AcDbEntity
  8
SOLDERMASK_PADS_BTM
100
AcDbCircle
 10
179.4
 20
-35.36
 30
0.0
 40
0.7
  0
CIRCLE
  5
2FC
100
AcDbEntity
  8
SOLDERMASK_PADS_BTM
100
AcDbCircle
 10
179.4
 20
-32.82
 30
0.0
 40
0.7
  0
LWPOLYLINE
  5
2FD
100
AcDbEntity
  8
SOLDERMASK_PADS_BTM
100
AcDbPolyline
 90
        8
 70
         1
 43
0.0
 10
101.5
 20
-16.8
 42
0.414214
 10
101.4
 20
-16.7
 10
100.9
 20
-16.7
 42
0.414214
 10
100.8
 20
-16.8
 10
100.8
 20
-17.5
 42
0.414214
 10
100.9
 20
-17.6
 10
101.4
 20
-17.6
 42
0.414214
 10
101.5
 20
-17.5
  0
LWPOLYLINE
  5
2FE
100
AcDbEntity
  8
SOLDERMASK_PADS_BTM
100
AcDbPolyline
 90
        8
 70
         1
 43
0.0
 10
100.0
 20
-16.8
 42
0.414214
 10
99.9
 20
-16.7
 10
99.4
 20
-16.7
 42
0.414214
 10
99.3
 20
-16.8
 10
99.3
 20
-17.5
 42
0.414214
 10
99.4
 20
-17.6
 10
99.9
 20
-17.6
 42
0.414214
 10
100.0
 20
-17.5
  0
LWPOLYLINE
  5
2FF
100
AcDbEntity
  8
SOLDERMASK_PADS_BTM
100
AcDbPolyline
 90
        8
 70
         1
 43
0.0
 10
74.65
 20
-33.95
 42
0.414214
 10
74.55
 20
-33.85
 10
74.05
 20
-33.85
 42
0.414214
 10
73.95
 20
-33.95
 10
73.95
 20
-34.65
 42
0.414214
 10
74.05
 20
-34.75
 10
74.55
 20
-34.75
 42
0.414214
 10
74.65
 20
-34.65
  0
LWPOLYLINE
  5
300
100
AcDbEntity
  8
SOLDERMASK_PADS_BTM
100
AcDbPolyline
 90
        8
 70
         1
 43
0.0
 10
76.05
 20
-33.95
 42
0.414214
 10
75.95
 20
-33.85
 10
75.45
 20
-33.85
 42
0.414214
 10
75.35
 20
-33.95
 10
75.35
 20
-34.65
 42
0.414214
 10
75.45
 20
-34.75
 10
75.95
 20
-34.75
 42
0.414214
 10
76.05
 20
-34.65
  0
LWPOLYLINE
  5
301
100
AcDbEntity
  8
SOLDERMASK_PADS_BTM
100
AcDbPolyline
 90
        8
 70
         1
 43
0.0
 10
9.85
 20
-10.5
 42
0.414214
 10
9.95
 20
-10.4
 10
9.95
 20
-9.9
 42
0.414214
 10
9.85
 20
-9.8
 10
9.15
 20
-9.8
 42
0.414214
 10
9.05
 20
-9.9
 10
9.05
 20
-10.4
 42
0.414214
 10
9.15
 20
-10.5
  0
LWPOLYLINE
  5
302
100
AcDbEntity
  8
SOLDERMASK_PADS_BTM
100
AcDbPolyline
 90
        8
 70
         1
 43
0.0
 10
9.85
 20
-9.0
 42
0.414214
 10
9.95
 20
-8.9
 10
9.95
 20
-8.4
 42
0.414214
 10
9.85
 20
-8.3
 10
9.15
 20
-8.3
 42
0.414214
 10
9.05
 20
-8.4
 10
9.05
 20
-8.9
 42
0.414214
 10
9.15
 20
-9.0
  0
CIRCLE
  5
303
100
AcDbEntity
  8
SOLDERMASK_PADS_BTM
100
AcDbCircle
 10
6.802482
 20
2.601812
 30
0.0
 40
0.5
  0
LWPOLYLINE
  5
304
100
AcDbEntity
  8
SOLDERMASK_PADS_BTM
100
AcDbPolyline
 90
        8
 70
         1
 43
0.0
 10
16.05
 20
-51.25
 42
0.414214
 10
15.95
 20
-51.35
 10
15.95
 20
-51.85
 42
0.414214
 10
16.05
 20
-51.95
 10
16.75
 20
-51.95
 42
0.414214
 10
16.85
 20
-51.85
 10
16.85
 20
-51.35
 42
0.414214
 10
16.75
 20
-51.25
  0
LWPOLYLINE
  5
305
100
AcDbEntity
  8
SOLDERMASK_PADS_BTM
100
AcDbPolyline
 90
        8
 70
         1
 43
0.0
 10
16.05
 20
-52.65
 42
0.414214
 10
15.95
 20
-52.75
 10
15.95
 20
-53.25
 42
0.414214
 10
16.05
 20
-53.35
 10
16.75
 20
-53.35
 42
0.414214
 10
16.85
 20
-53.25
 10
16.85
 20
-52.75
 42
0.414214
 10
16.75
 20
-52.65
  0
LWPOLYLINE
  5
306
100
AcDbEntity
  8
SOLDERMASK_PADS_BTM
100
AcDbPolyline
 90
        8
 70
         1
 43
0.0
 10
162.1
 20
-55.25
 42
0.414214
 10
162.0
 20
-55.35
 10
162.0
 20
-55.85
 42
0.414214
 10
162.1
 20
-55.95
 10
162.8
 20
-55.95
 42
0.414214
 10
162.9
 20
-55.85
 10
162.9
 20
-55.35
 42
0.414214
 10
162.8
 20
-55.25
  0
LWPOLYLINE
  5
307
100
AcDbEntity
  8
SOLDERMASK_PADS_BTM
100
AcDbPolyline
 90
        8
 70
         1
 43
0.0
 10
162.1
 20
-53.75
 42
0.414214
 10
162.0
 20
-53.85
 10
162.0
 20
-54.35
 42
0.414214
 10
162.1
 20
-54.45
 10
162.8
 20
-54.45
 42
0.414214
 10
162.9
 20
-54.35
 10
162.9
 20
-53.85
 42
0.414214
 10
162.8
 20
-53.75
  0
LWPOLYLINE
  5
308
100
AcDbEntity
  8
SOLDERMASK_PADS_BTM
100
AcDbPolyline
 90
        4
 70
         1
 43
0.0
 10
73.449998
 20
-24.847846
 10
73.449998
 20
-21.347846
 10
75.949998
 20
-21.347846
 10
75.949998
 20
-24.847846
  0
LWPOLYLINE
  5
309
100
AcDbEntity
  8
SOLDERMASK_PADS_BTM
100
AcDbPolyline
 90
        4
 70
         1
 43
0.0
 10
102.149998
 20
-24.847846
 10
102.149998
 20
-21.347846
 10
104.649998
 20
-21.347846
 10
104.649998
 20
-24.847846
  0
LWPOLYLINE
  5
30A
100
AcDbEntity
  8
SOLDERMASK_PADS_BTM
100
AcDbPolyline
 90
        4
 70
         1
 43
0.0
 10
76.675373
 20
-21.400003
 42
1.000000
 10
76.925373
 20
-21.400003
 10
76.925373
 20
-20.400003
 42
1.000000
 10
76.675373
 20
-20.400003
  0
LWPOLYLINE
  5
30B
100
AcDbEntity
  8
SOLDERMASK_PADS_BTM
100
AcDbPolyline
 90
        4
 70
         1
 43
0.0
 10
77.175373
 20
-21.400003
 42
1.000000
 10
77.425373
 20
-21.400003
 10
77.425373
 20
-20.400003
 42
1.000000
 10
77.175373
 20
-20.400003
  0
LWPOLYLINE
  5
30C
100
AcDbEntity
  8
SOLDERMASK_PADS_BTM
100
AcDbPolyline
 90
        4
 70
         1
 43
0.0
 10
77.675373
 20
-21.400003
 42
1.000000
 10
77.925373
 20
-21.400003
 10
77.925373
 20
-20.400003
 42
1.000000
 10
77.675373
 20
-20.400003
  0
LWPOLYLINE
  5
30D
100
AcDbEntity
  8
SOLDERMASK_PADS_BTM
100
AcDbPolyline
 90
        4
 70
         1
 43
0.0
 10
78.175373
 20
-21.400003
 42
1.000000
 10
78.425373
 20
-21.400003
 10
78.425373
 20
-20.400003
 42
1.000000
 10
78.175373
 20
-20.400003
  0
LWPOLYLINE
  5
30E
100
AcDbEntity
  8
SOLDERMASK_PADS_BTM
100
AcDbPolyline
 90
        4
 70
         1
 43
0.0
 10
78.675373
 20
-21.400003
 42
1.000000
 10
78.925373
 20
-21.400003
 10
78.925373
 20
-20.400003
 42
1.000000
 10
78.675373
 20
-20.400003
  0
LWPOLYLINE
  5
30F
100
AcDbEntity
  8
SOLDERMASK_PADS_BTM
100
AcDbPolyline
 90
        4
 70
         1
 43
0.0
 10
79.175373
 20
-21.400003
 42
1.000000
 10
79.425373
 20
-21.400003
 10
79.425373
 20
-20.400003
 42
1.000000
 10
79.175373
 20
-20.400003
  0
LWPOLYLINE
  5
310
100
AcDbEntity
  8
SOLDERMASK_PADS_BTM
100
AcDbPolyline
 90
        4
 70
         1
 43
0.0
 10
79.675373
 20
-21.400003
 42
1.000000
 10
79.925373
 20
-21.400003
 10
79.925373
 20
-20.400003
 42
1.000000
 10
79.675373
 20
-20.400003
  0
LWPOLYLINE
  5
311
100
AcDbEntity
  8
SOLDERMASK_PADS_BTM
100
AcDbPolyline
 90
        4
 70
         1
 43
0.0
 10
80.175373
 20
-21.400003
 42
1.000000
 10
80.425373
 20
-21.400003
 10
80.425373
 20
-20.400003
 42
1.000000
 10
80.175373
 20
-20.400003
  0
LWPOLYLINE
  5
312
100
AcDbEntity
  8
SOLDERMASK_PADS_BTM
100
AcDbPolyline
 90
        4
 70
         1
 43
0.0
 10
80.675373
 20
-21.400003
 42
1.000000
 10
80.925373
 20
-21.400003
 10
80.925373
 20
-20.400003
 42
1.000000
 10
80.675373
 20
-20.400003
  0
LWPOLYLINE
  5
313
100
AcDbEntity
  8
SOLDERMASK_PADS_BTM
100
AcDbPolyline
 90
        4
 70
         1
 43
0.0
 10
81.175373
 20
-21.400003
 42
1.000000
 10
81.425373
 20
-21.400003
 10
81.425373
 20
-20.400003
 42
1.000000
 10
81.175373
 20
-20.400003
  0
LWPOLYLINE
  5
314
100
AcDbEntity
  8
SOLDERMASK_PADS_BTM
100
AcDbPolyline
 90
        4
 70
         1
 43
0.0
 10
81.675373
 20
-21.400003
 42
1.000000
 10
81.925373
 20
-21.400003
 10
81.925373
 20
-20.400003
 42
1.000000
 10
81.675373
 20
-20.400003
  0
LWPOLYLINE
  5
315
100
AcDbEntity
  8
SOLDERMASK_PADS_BTM
100
AcDbPolyline
 90
        4
 70
         1
 43
0.0
 10
82.175373
 20
-21.400003
 42
1.000000
 10
82.425373
 20
-21.400003
 10
82.425373
 20
-20.400003
 42
1.000000
 10
82.175373
 20
-20.400003
  0
LWPOLYLINE
  5
316
100
AcDbEntity
  8
SOLDERMASK_PADS_BTM
100
AcDbPolyline
 90
        4
 70
         1
 43
0.0
 10
82.675373
 20
-21.400003
 42
1.000000
 10
82.925373
 20
-21.400003
 10
82.925373
 20
-20.400003
 42
1.000000
 10
82.675373
 20
-20.400003
  0
LWPOLYLINE
  5
317
100
AcDbEntity
  8
SOLDERMASK_PADS_BTM
100
AcDbPolyline
 90
        4
 70
         1
 43
0.0
 10
83.175373
 20
-21.400003
 42
1.000000
 10
83.425373
 20
-21.400003
 10
83.425373
 20
-20.400003
 42
1.000000
 10
83.175373
 20
-20.400003
  0
LWPOLYLINE
  5
318
100
AcDbEntity
  8
SOLDERMASK_PADS_BTM
100
AcDbPolyline
 90
        4
 70
         1
 43
0.0
 10
83.675373
 20
-21.400003
 42
1.000000
 10
83.925373
 20
-21.400003
 10
83.925373
 20
-20.400003
 42
1.000000
 10
83.675373
 20
-20.400003
  0
LWPOLYLINE
  5
319
100
AcDbEntity
  8
SOLDERMASK_PADS_BTM
100
AcDbPolyline
 90
        4
 70
         1
 43
0.0
 10
84.175373
 20
-21.400003
 42
1.000000
 10
84.425373
 20
-21.400003
 10
84.425373
 20
-20.400003
 42
1.000000
 10
84.175373
 20
-20.400003
  0
LWPOLYLINE
  5
31A
100
AcDbEntity
  8
SOLDERMASK_PADS_BTM
100
AcDbPolyline
 90
        4
 70
         1
 43
0.0
 10
84.675373
 20
-21.400003
 42
1.000000
 10
84.925373
 20
-21.400003
 10
84.925373
 20
-20.400003
 42
1.000000
 10
84.675373
 20
-20.400003
  0
LWPOLYLINE
  5
31B
100
AcDbEntity
  8
SOLDERMASK_PADS_BTM
100
AcDbPolyline
 90
        4
 70
         1
 43
0.0
 10
85.175373
 20
-21.400003
 42
1.000000
 10
85.425373
 20
-21.400003
 10
85.425373
 20
-20.400003
 42
1.000000
 10
85.175373
 20
-20.400003
  0
LWPOLYLINE
  5
31C
100
AcDbEntity
  8
SOLDERMASK_PADS_BTM
100
AcDbPolyline
 90
        4
 70
         1
 43
0.0
 10
85.675373
 20
-21.400003
 42
1.000000
 10
85.925373
 20
-21.400003
 10
85.925373
 20
-20.400003
 42
1.000000
 10
85.675373
 20
-20.400003
  0
LWPOLYLINE
  5
31D
100
AcDbEntity
  8
SOLDERMASK_PADS_BTM
100
AcDbPolyline
 90
        4
 70
         1
 43
0.0
 10
86.175373
 20
-21.400003
 42
1.000000
 10
86.425373
 20
-21.400003
 10
86.425373
 20
-20.400003
 42
1.000000
 10
86.175373
 20
-20.400003
  0
LWPOLYLINE
  5
31E
100
AcDbEntity
  8
SOLDERMASK_PADS_BTM
100
AcDbPolyline
 90
        4
 70
         1
 43
0.0
 10
86.675373
 20
-21.400003
 42
1.000000
 10
86.925373
 20
-21.400003
 10
86.925373
 20
-20.400003
 42
1.000000
 10
86.675373
 20
-20.400003
  0
LWPOLYLINE
  5
31F
100
AcDbEntity
  8
SOLDERMASK_PADS_BTM
100
AcDbPolyline
 90
        4
 70
         1
 43
0.0
 10
87.175373
 20
-21.400003
 42
1.000000
 10
87.425373
 20
-21.400003
 10
87.425373
 20
-20.400003
 42
1.000000
 10
87.175373
 20
-20.400003
  0
LWPOLYLINE
  5
320
100
AcDbEntity
  8
SOLDERMASK_PADS_BTM
100
AcDbPolyline
 90
        4
 70
         1
 43
0.0
 10
87.675373
 20
-21.400003
 42
1.000000
 10
87.925373
 20
-21.400003
 10
87.925373
 20
-20.400003
 42
1.000000
 10
87.675373
 20
-20.400003
  0
LWPOLYLINE
  5
321
100
AcDbEntity
  8
SOLDERMASK_PADS_BTM
100
AcDbPolyline
 90
        4
 70
         1
 43
0.0
 10
88.175373
 20
-21.400003
 42
1.000000
 10
88.425373
 20
-21.400003
 10
88.425373
 20
-20.400003
 42
1.000000
 10
88.175373
 20
-20.400003
  0
LWPOLYLINE
  5
322
100
AcDbEntity
  8
SOLDERMASK_PADS_BTM
100
AcDbPolyline
 90
        4
 70
         1
 43
0.0
 10
88.675373
 20
-21.400003
 42
1.000000
 10
88.925373
 20
-21.400003
 10
88.925373
 20
-20.400003
 42
1.000000
 10
88.675373
 20
-20.400003
  0
LWPOLYLINE
  5
323
100
AcDbEntity
  8
SOLDERMASK_PADS_BTM
100
AcDbPolyline
 90
        4
 70
         1
 43
0.0
 10
89.175373
 20
-21.400003
 42
1.000000
 10
89.425373
 20
-21.400003
 10
89.425373
 20
-20.400003
 42
1.000000
 10
89.175373
 20
-20.400003
  0
LWPOLYLINE
  5
324
100
AcDbEntity
  8
SOLDERMASK_PADS_BTM
100
AcDbPolyline
 90
        4
 70
         1
 43
0.0
 10
89.675373
 20
-21.400003
 42
1.000000
 10
89.925373
 20
-21.400003
 10
89.925373
 20
-20.400003
 42
1.000000
 10
89.675373
 20
-20.400003
  0
LWPOLYLINE
  5
325
100
AcDbEntity
  8
SOLDERMASK_PADS_BTM
100
AcDbPolyline
 90
        4
 70
         1
 43
0.0
 10
90.175373
 20
-21.400003
 42
1.000000
 10
90.425373
 20
-21.400003
 10
90.425373
 20
-20.400003
 42
1.000000
 10
90.175373
 20
-20.400003
  0
LWPOLYLINE
  5
326
100
AcDbEntity
  8
SOLDERMASK_PADS_BTM
100
AcDbPolyline
 90
        4
 70
         1
 43
0.0
 10
90.675373
 20
-21.400003
 42
1.000000
 10
90.925373
 20
-21.400003
 10
90.925373
 20
-20.400003
 42
1.000000
 10
90.675373
 20
-20.400003
  0
LWPOLYLINE
  5
327
100
AcDbEntity
  8
SOLDERMASK_PADS_BTM
100
AcDbPolyline
 90
        4
 70
         1
 43
0.0
 10
91.175373
 20
-21.400003
 42
1.000000
 10
91.425373
 20
-21.400003
 10
91.425373
 20
-20.400003
 42
1.000000
 10
91.175373
 20
-20.400003
  0
LWPOLYLINE
  5
328
100
AcDbEntity
  8
SOLDERMASK_PADS_BTM
100
AcDbPolyline
 90
        4
 70
         1
 43
0.0
 10
91.675373
 20
-21.400003
 42
1.000000
 10
91.925373
 20
-21.400003
 10
91.925373
 20
-20.400003
 42
1.000000
 10
91.675373
 20
-20.400003
  0
LWPOLYLINE
  5
329
100
AcDbEntity
  8
SOLDERMASK_PADS_BTM
100
AcDbPolyline
 90
        4
 70
         1
 43
0.0
 10
92.175373
 20
-21.400003
 42
1.000000
 10
92.425373
 20
-21.400003
 10
92.425373
 20
-20.400003
 42
1.000000
 10
92.175373
 20
-20.400003
  0
LWPOLYLINE
  5
32A
100
AcDbEntity
  8
SOLDERMASK_PADS_BTM
100
AcDbPolyline
 90
        4
 70
         1
 43
0.0
 10
92.675373
 20
-21.400003
 42
1.000000
 10
92.925373
 20
-21.400003
 10
92.925373
 20
-20.400003
 42
1.000000
 10
92.675373
 20
-20.400003
  0
LWPOLYLINE
  5
32B
100
AcDbEntity
  8
SOLDERMASK_PADS_BTM
100
AcDbPolyline
 90
        4
 70
         1
 43
0.0
 10
93.175373
 20
-21.400003
 42
1.000000
 10
93.425373
 20
-21.400003
 10
93.425373
 20
-20.400003
 42
1.000000
 10
93.175373
 20
-20.400003
  0
LWPOLYLINE
  5
32C
100
AcDbEntity
  8
SOLDERMASK_PADS_BTM
100
AcDbPolyline
 90
        4
 70
         1
 43
0.0
 10
93.675373
 20
-21.400003
 42
1.000000
 10
93.925373
 20
-21.400003
 10
93.925373
 20
-20.400003
 42
1.000000
 10
93.675373
 20
-20.400003
  0
LWPOLYLINE
  5
32D
100
AcDbEntity
  8
SOLDERMASK_PADS_BTM
100
AcDbPolyline
 90
        4
 70
         1
 43
0.0
 10
94.175373
 20
-21.400003
 42
1.000000
 10
94.425373
 20
-21.400003
 10
94.425373
 20
-20.400003
 42
1.000000
 10
94.175373
 20
-20.400003
  0
LWPOLYLINE
  5
32E
100
AcDbEntity
  8
SOLDERMASK_PADS_BTM
100
AcDbPolyline
 90
        4
 70
         1
 43
0.0
 10
94.675373
 20
-21.400003
 42
1.000000
 10
94.925373
 20
-21.400003
 10
94.925373
 20
-20.400003
 42
1.000000
 10
94.675373
 20
-20.400003
  0
LWPOLYLINE
  5
32F
100
AcDbEntity
  8
SOLDERMASK_PADS_BTM
100
AcDbPolyline
 90
        4
 70
         1
 43
0.0
 10
95.175373
 20
-21.400003
 42
1.000000
 10
95.425373
 20
-21.400003
 10
95.425373
 20
-20.400003
 42
1.000000
 10
95.175373
 20
-20.400003
  0
LWPOLYLINE
  5
330
100
AcDbEntity
  8
SOLDERMASK_PADS_BTM
100
AcDbPolyline
 90
        4
 70
         1
 43
0.0
 10
95.675373
 20
-21.400003
 42
1.000000
 10
95.925373
 20
-21.400003
 10
95.925373
 20
-20.400003
 42
1.000000
 10
95.675373
 20
-20.400003
  0
LWPOLYLINE
  5
331
100
AcDbEntity
  8
SOLDERMASK_PADS_BTM
100
AcDbPolyline
 90
        4
 70
         1
 43
0.0
 10
96.175373
 20
-21.400003
 42
1.000000
 10
96.425373
 20
-21.400003
 10
96.425373
 20
-20.400003
 42
1.000000
 10
96.175373
 20
-20.400003
  0
LWPOLYLINE
  5
332
100
AcDbEntity
  8
SOLDERMASK_PADS_BTM
100
AcDbPolyline
 90
        4
 70
         1
 43
0.0
 10
96.674998
 20
-21.397846
 42
1.000000
 10
96.924998
 20
-21.397846
 10
96.924998
 20
-20.397846
 42
1.000000
 10
96.674998
 20
-20.397846
  0
LWPOLYLINE
  5
333
100
AcDbEntity
  8
SOLDERMASK_PADS_BTM
100
AcDbPolyline
 90
        4
 70
         1
 43
0.0
 10
97.174998
 20
-21.397846
 42
1.000000
 10
97.424998
 20
-21.397846
 10
97.424998
 20
-20.397846
 42
1.000000
 10
97.174998
 20
-20.397846
  0
LWPOLYLINE
  5
334
100
AcDbEntity
  8
SOLDERMASK_PADS_BTM
100
AcDbPolyline
 90
        4
 70
         1
 43
0.0
 10
97.674998
 20
-21.397846
 42
1.000000
 10
97.924998
 20
-21.397846
 10
97.924998
 20
-20.397846
 42
1.000000
 10
97.674998
 20
-20.397846
  0
LWPOLYLINE
  5
335
100
AcDbEntity
  8
SOLDERMASK_PADS_BTM
100
AcDbPolyline
 90
        4
 70
         1
 43
0.0
 10
98.174998
 20
-21.397846
 42
1.000000
 10
98.424998
 20
-21.397846
 10
98.424998
 20
-20.397846
 42
1.000000
 10
98.174998
 20
-20.397846
  0
LWPOLYLINE
  5
336
100
AcDbEntity
  8
SOLDERMASK_PADS_BTM
100
AcDbPolyline
 90
        4
 70
         1
 43
0.0
 10
98.674998
 20
-21.397846
 42
1.000000
 10
98.924998
 20
-21.397846
 10
98.924998
 20
-20.397846
 42
1.000000
 10
98.674998
 20
-20.397846
  0
LWPOLYLINE
  5
337
100
AcDbEntity
  8
SOLDERMASK_PADS_BTM
100
AcDbPolyline
 90
        4
 70
         1
 43
0.0
 10
99.174998
 20
-21.397846
 42
1.000000
 10
99.424998
 20
-21.397846
 10
99.424998
 20
-20.397846
 42
1.000000
 10
99.174998
 20
-20.397846
  0
LWPOLYLINE
  5
338
100
AcDbEntity
  8
SOLDERMASK_PADS_BTM
100
AcDbPolyline
 90
        4
 70
         1
 43
0.0
 10
99.674998
 20
-21.397846
 42
1.000000
 10
99.924998
 20
-21.397846
 10
99.924998
 20
-20.397846
 42
1.000000
 10
99.674998
 20
-20.397846
  0
LWPOLYLINE
  5
339
100
AcDbEntity
  8
SOLDERMASK_PADS_BTM
100
AcDbPolyline
 90
        4
 70
         1
 43
0.0
 10
100.174998
 20
-21.397846
 42
1.000000
 10
100.424998
 20
-21.397846
 10
100.424998
 20
-20.397846
 42
1.000000
 10
100.174998
 20
-20.397846
  0
LWPOLYLINE
  5
33A
100
AcDbEntity
  8
SOLDERMASK_PADS_BTM
100
AcDbPolyline
 90
        4
 70
         1
 43
0.0
 10
100.674998
 20
-21.397846
 42
1.000000
 10
100.924998
 20
-21.397846
 10
100.924998
 20
-20.397846
 42
1.000000
 10
100.674998
 20
-20.397846
  0
LWPOLYLINE
  5
33B
100
AcDbEntity
  8
SOLDERMASK_PADS_BTM
100
AcDbPolyline
 90
        4
 70
         1
 43
0.0
 10
101.174998
 20
-21.397846
 42
1.000000
 10
101.424998
 20
-21.397846
 10
101.424998
 20
-20.397846
 42
1.000000
 10
101.174998
 20
-20.397846
  0
LWPOLYLINE
  5
33C
100
AcDbEntity
  8
SOLDERMASK_PADS_BTM
100
AcDbPolyline
 90
        4
 70
         1
 43
0.0
 10
79.15
 20
-13.275
 42
1.000000
 10
78.55
 20
-13.275
 10
78.55
 20
-13.925
 42
1.000000
 10
79.15
 20
-13.925
  0
LWPOLYLINE
  5
33D
100
AcDbEntity
  8
SOLDERMASK_PADS_BTM
100
AcDbPolyline
 90
        4
 70
         1
 43
0.0
 10
78.2
 20
-15.275
 42
1.000000
 10
77.6
 20
-15.275
 10
77.6
 20
-15.925
 42
1.000000
 10
78.2
 20
-15.925
  0
LWPOLYLINE
  5
33E
100
AcDbEntity
  8
SOLDERMASK_PADS_BTM
100
AcDbPolyline
 90
        4
 70
         1
 43
0.0
 10
77.25
 20
-13.275
 42
1.000000
 10
76.65
 20
-13.275
 10
76.65
 20
-13.925
 42
1.000000
 10
77.25
 20
-13.925
  0
ENDSEC
  0
SECTION
  2
OBJECTS
  0
DICTIONARY
  5
16
100
AcDbDictionary
  3
ACAD_GROUP
350
17
  3
ACAD_MLINESTYLE
350
18
  0
DICTIONARY
  5
17
102
{ACAD_REACTORS
330
16
102
}
100
AcDbDictionary
  0
DICTIONARY
  5
18
102
{ACAD_REACTORS
330
16
102
}
100
AcDbDictionary
  3
STANDARD
350
19
  0
MLINESTYLE
  5
19
102
{ACAD_REACTORS
330
18
102
}
100
AcDbMlineStyle
  2
STANDARD
 70
         0
  3

 62
         0
 51
90.0
 52
90.0
 71
        2
 49
0.5
 62
         256
  6
BYLAYER
 49
-0.5
 62
         256
  6
BYLAYER
  0
DICTIONARY
  5
1A
102
{ACAD_REACTORS
330
16
102
}
100
AcDbDictionary
  0
ENDSEC
  0
EOF
