  0
SECTION
  2
HEADER
  9
$ACADVER
  1
AC1014
  9
$ACADMAINTVER
 70
         0
  9
$DWGCODEPAGE
  3
ANSI_1252
  9
$INSBASE
 10
0.0
 20
0.0
 30
0.0
  9
$EXTMIN
 10
-87.253428
 20
-7.456431
 30
0.0
  9
$EXTMAX
 10
0.1
 20
68.281953
 30
0.0
  9
$LIMMIN
 10
0.0
 20
0.0
  9
$LIMMAX
 10
0.0
 20
0.0
  9
$ORTHOMODE
 70
         0
  9
$REGENMODE
 70
         1
  9
$FILLMODE
 70
         1
  9
$QTEXTMODE
 70
         0
  9
$MIRRTEXT
 70
         1
  9
$DRAGMODE
 70
         2
  9
$LTSCALE
 40
1.0
  9
$OSMODE
 70
         0
  9
$ATTMODE
 70
         1
  9
$TEXTSIZE
 40
0.2
  9
$TRACEWID
 40
0.05
  9
$TEXTSTYLE
  7
STANDARD
  9
$CLAYER
  8
0
  9
$CELTYPE
  6
CONTINUOUS
  9
$CECOLOR
 62
       256
  9
$CELTSCALE
 40
1.0
  9
$DELOBJ
 70
         1
  9
$DISPSILH
 70
         0
  9
$DIMSCALE
 40
1.0
  9
$DIMASZ
 40
0.18
  9
$DIMEXO
 40
0.0625
  9
$DIMDLI
 40
0.38
  9
$DIMRND
 40
0.0
  9
$DIMDLE
 40
0.0
  9
$DIMEXE
 40
0.18
  9
$DIMTP
 40
0.0
  9
$DIMTM
 40
0.0
  9
$DIMTXT
 40
0.18
  9
$DIMCEN
 40
0.09
  9
$DIMTSZ
 40
0.0
  9
$DIMTOL
 70
         0
  9
$DIMLIM
 70
         0
  9
$DIMTIH
 70
         1
  9
$DIMTOH
 70
         1
  9
$DIMSE1
 70
         0
  9
$DIMSE2
 70
         0
  9
$DIMTAD
 70
         0
  9
$DIMZIN
 70
         0
  9
$DIMBLK
  1

  9
$DIMASO
 70
         1
  9
$DIMSHO
 70
         1
  9
$DIMPOST
  1

  9
$DIMAPOST
  1

  9
$DIMALT
 70
         0
  9
$DIMALTD
 70
         2
  9
$DIMALTF
 40
25.4
  9
$DIMLFAC
 40
1.0
  9
$DIMTOFL
 70
         0
  9
$DIMTVP
 40
0.0
  9
$DIMTIX
 70
         0
  9
$DIMSOXD
 70
         0
  9
$DIMSAH
 70
         0
  9
$DIMBLK1
  1

  9
$DIMBLK2
  1

  9
$DIMSTYLE
  2
STANDARD
  9
$DIMCLRD
 70
         0
  9
$DIMCLRE
 70
         0
  9
$DIMCLRT
 70
         0
  9
$DIMTFAC
 40
1.0
  9
$DIMGAP
 40
0.09
  9
$DIMJUST
 70
         0
  9
$DIMSD1
 70
         0
  9
$DIMSD2
 70
         0
  9
$DIMTOLJ
 70
         1
  9
$DIMTZIN
 70
         0
  9
$DIMALTZ
 70
         0
  9
$DIMALTTZ
 70
         0
  9
$DIMFIT
 70
         3
  9
$DIMUPT
 70
         0
  9
$DIMUNIT
 70
         2
  9
$DIMDEC
 70
         4
  9
$DIMTDEC
 70
         4
  9
$DIMALTU
 70
         2
  9
$DIMALTTD
 70
         2
  9
$DIMTXSTY
  7
STANDARD
  9
$DIMAUNIT
 70
         0
  9
$LUNITS
 70
         2
  9
$LUPREC
 70
         4
  9
$SKETCHINC
 40
0.1
  9
$FILLETRAD
 40
0.0
  9
$AUNITS
 70
         0
  9
$AUPREC
 70
         0
  9
$MENU
  1
acad
  9
$ELEVATION
 40
0.0
  9
$PELEVATION
 40
0.0
  9
$THICKNESS
 40
0.0
  9
$LIMCHECK
 70
         0
  9
$BLIPMODE
 70
         1
  9
$CHAMFERA
 40
0.0
  9
$CHAMFERB
 40
0.0
  9
$CHAMFERC
 40
0.0
  9
$CHAMFERD
 40
0.0
  9
$SKPOLY
 70
         0
  9
$TDCREATE
 40
20191225.145842
  9
$TDUPDATE
 40
0.0
  9
$TDINDWG
 40
0.0
  9
$TDUSRTIMER
 40
0.0
  9
$USRTIMER
 70
         1
  9
$ANGBASE
 50
0.0
  9
$ANGDIR
 70
         0
  9
$PDMODE
 70
         0
  9
$PDSIZE
 40
0.0
  9
$PLINEWID
 40
0.0
  9
$COORDS
 70
         0
  9
$SPLFRAME
 70
         0
  9
$SPLINETYPE
 70
         6
  9
$SPLINESEGS
 70
         8
  9
$ATTDIA
 70
         0
  9
$ATTREQ
 70
         1
  9
$HANDLING
 70
         1
  9
$HANDSEED
  5
1AA
  9
$SURFTAB1
 70
         6
  9
$SURFTAB2
 70
         6
  9
$SURFTYPE
 70
         6
  9
$SURFU
 70
         6
  9
$SURFV
 70
         6
  9
$UCSNAME
  2

  9
$UCSORG
 10
0.0
 20
0.0
 30
0.0
  9
$UCSXDIR
 10
1.0
 20
0.0
 30
0.0
  9
$UCSYDIR
 10
0.0
 20
1.0
 30
0.0
  9
$PUCSNAME
  2

  9
$PUCSORG
 10
0.0
 20
0.0
 30
0.0
  9
$PUCSXDIR
 10
1.0
 20
0.0
 30
0.0
  9
$PUCSYDIR
 10
0.0
 20
1.0
 30
0.0
  9
$USERI1
 70
         -3
  9
$USERI2
 70
         0
  9
$USERI3
 70
         0
  9
$USERI4
 70
         0
  9
$USERI5
 70
         0
  9
$USERR1
 40
0.0
  9
$USERR2
 40
0.0
  9
$USERR3
 40
0.0
  9
$USERR4
 40
0.0
  9
$USERR5
 40
0.0
  9
$WORLDVIEW
 70
         1
  9
$SHADEDGE
 70
         3
  9
$SHADEDIF
 70
        70
  9
$TILEMODE
 70
         1
  9
$MAXACTVP
 70
         16
  9
$PINSBASE
 10
0.0
 20
0.0
 30
0.0
  9
$PLIMCHECK
 70
         0
  9
$PEXTMIN
 10
100000000000000000000.0
 20
100000000000000000000.0
 30
100000000000000000000.0
  9
$PEXTMAX
 10
-100000000000000000000.0
 20
-100000000000000000000.0
 30
-100000000000000000000.0
  9
$PLIMMIN
 10
0.0
 20
0.0
  9
$PLIMMAX
 10
12.0
 20
9.0
  9
$UNITMODE
 70
         0
  9
$VISRETAIN
 70
         0
  9
$PLINEGEN
 70
         1
  9
$PSLTSCALE
 70
         0
  9
$TREEDEPTH
 70
      3020
  9
$PICKSTYLE
 70
         1
  9
$CMLSTYLE
  2
STANDARD
  9
$CMLJUST
 70
         0
  9
$CMLSCALE
 40
1.0
  9
$PROXYGRAPHICS
 70
         0
  9
$MEASUREMENT
 70
         0
  0
ENDSEC
  0
SECTION
  2
CLASSES
  0
CLASS
  1
LWPOLYLINE
  2
AcDbPolyline
  3
"AutoCAD"
 90
        0
280
         0
281
         1
  0
CLASS
  1
IMAGE
  2
AcDbRasterImage
  3
ISM
 90
      127
280
         0
281
         1
  0
CLASS
  1
OLE2FRAME
  2
AcDbOle2Frame
  3
""
 90
        0
280
         0
281
         1
  0
CLASS
  1
HATCH
  2
AcDbHatch
  3
"ACAD_SEDONA"
 90
        0
280
         0
281
         1
  0
CLASS
  1
DICTIONARYVAR
  2
AcDbDictionaryVar
  3
"AutoCAD"
 90
        0
280
         0
281
         0
  0
CLASS
  1
RASTERVARIABLES
  2
AcDbRasterVariables
  3
ISM
 90
        0
280
         0
281
         0
  0
CLASS
  1
IMAGEDEF
  2
AcDbRasterImageDef
  3
ISM
 90
        0
280
         0
281
         0
  0
CLASS
  1
IMAGEDEF_REACTOR
  2
AcDbRasterImageDefReactor
  3
ISM
 90
        1
280
         0
281
         0
  0
CLASS
  1
IDBUFFER
  2
AcDbIdBuffer
  3
"Acad"
 90
        0
280
         0
281
         0
  0
CLASS
  1
SPATIAL_FILTER
  2
AcDbSpatialFilter
  3
"Acad"
 90
        0
280
         0
281
         0
  0
CLASS
  1
XRECORD
  2
AcDbXrecord
  3
"<Built In>"
 90
        0
280
         0
281
         0
  0
CLASS
  1
SORTENTSTABLE
  2
AcDbSortentsTable
  3
"AutoCAD"
 90
        0
280
         0
281
         0
  0
CLASS
  1
LAYER_INDEX
  2
AcDbLayerIndex
  3
"Acad"
 90
        0
280
         0
281
         0
  0
CLASS
  1
SPATIAL_INDEX
  2
AcDbSpatialIndex
  3
"Acad"
 90
        0
280
         0
281
         0
  0
CLASS
  1
OBJECT_PTR
  2
CAseDLPNTableRecord
  3
"ASE-LPNTableRecord"
 90
        1
280
         0
281
         0
  0
CLASS
  1
LAYOUT
  2
AcDbLayout
  3
"AutoCAD 2000"
 90
        0
280
         0
281
         0
  0
CLASS
  1
PLOTSETTINGS
  2
AcDbPlotSettings
  3
"AutoCAD 2000"
 90
        0
280
         0
281
         0
  0
CLASS
  1
ACDBDICTIONARYWDFLT
  2
AcDbDictionaryWithDefault
  3
"AutoCAD 2000"
 90
        0
280
         0
281
         0
  0
CLASS
  1
ACDBPLACEHOLDER
  2
AcDbPlaceHolder
  3
"AutoCAD 2000"
 90
        0
280
         0
281
         0
  0
CLASS
  1
VBA_PROJECT
  2
AcDbVbaProject
  3
"acadvba"
 90
        0
280
         0
281
         0
  0
CLASS
  1
WIPEOUT
  2
AcDbWipeout
  3
WipeOut|AutoCAD Express Tool|expresstools@autodesk.com
 90
      127
280
         0
281
         1
  0
CLASS
  1
WIPEOUTVARIABLES
  2
AcDbWipeoutVariables
  3
WipeOut|AutoCAD Express Tool|expresstools@autodesk.com
 90
        0
280
         0
281
         0
  0
CLASS
  1
RTEXT
  2
RText
  3
RText|AutoCAD Express Tool|expresstools@autodesk.com
 90
        0
280
         0
281
         1
  0
CLASS
  1
ARCALIGNEDTEXT
  2
AcDbArcAlignedText
  3
ATEXT|AutoCAD Express Tool|expresstools@autodesk.com
 90
        0
280
         0
281
         1
  0
ENDSEC
  0
SECTION
  2
TABLES
  0
TABLE
  2
VPORT
  5
7
100
AcDbSymbolTable
70
    1
  0
VPORT
  5
13
100
AcDbSymbolTableRecord
100
AcDbViewportTableRecord
  2
*ACTIVE
 70
         0
 10
0.0
 20
0.0
 11
1.0
 21
1.0
 12
6.591288
 22
4.579184
 13
0.0
 23
0.0
 14
1.0
 24
1.0
 15
0.0
 25
0.0
 16
0.0
 26
0.0
 36
1.0
 17
0.0
 27
0.0
 37
0.0
  40
9.158369
  41
0.688564
  42
50.0
  43
0.0
  44
0.0
  50
0.0
  51
0.0
 71
    0
 72
    100
 73
    1
 74
    1
 75
    0
 76
    0
 77
    0
 78
    0
  0
ENDTAB
  0
TABLE
  2
LTYPE
  5
4
100
AcDbSymbolTable
70
    3
  0
LTYPE
  5
10
100
AcDbSymbolTableRecord
100
AcDbLinetypeTableRecord
  2
BYBLOCK
 70
         64
  3

 72
       65
 73
       0
  40
0.0
  0
LTYPE
  5
11
100
AcDbSymbolTableRecord
100
AcDbLinetypeTableRecord
  2
BYLAYER
 70
         64
  3

 72
       65
 73
       0
  40
0.0
  0
LTYPE
  5
12
100
AcDbSymbolTableRecord
100
AcDbLinetypeTableRecord
  2
CONTINUOUS
 70
         64
  3
Solid Line
 72
       65
 73
       0
  40
0.0
  0
ENDTAB
  0
TABLE
  2
LAYER
  5
2
100
AcDbSymbolTable
 70
         6
  0
LAYER
  5
19F
100
AcDbSymbolTableRecord
100
AcDbLayerTableRecord
  2
0
 70
         0
 62
         7
  6
CONTINUOUS
  0
LAYER
  5
1A0
100
AcDbSymbolTableRecord
100
AcDbLayerTableRecord
  2
ASSEMBLY_OUTLINES_TOP
 70
         0
 62
         102
  6
CONTINUOUS
  0
LAYER
  5
1A1
100
AcDbSymbolTableRecord
100
AcDbLayerTableRecord
  2
ASSEMBLY_REF_DES_TOP
 70
         0
 62
         102
  6
CONTINUOUS
  0
LAYER
  5
1A2
100
AcDbSymbolTableRecord
100
AcDbLayerTableRecord
  2
BOARD_OUTLINE
 70
         0
 62
         10
  6
CONTINUOUS
  0
LAYER
  5
1A3
100
AcDbSymbolTableRecord
100
AcDbLayerTableRecord
  2
MOUNTING_HOLES_LAYER_TOP
 70
         0
 62
         42
  6
CONTINUOUS
  0
LAYER
  5
1A4
100
AcDbSymbolTableRecord
100
AcDbLayerTableRecord
  2
PART_HOLES_LAYER_TOP
 70
         0
 62
         30
  6
CONTINUOUS
  0
ENDTAB
  0
TABLE
  2
STYLE
  5
3
100
AcDbSymbolTable
 70
         5
  0
STYLE
  5
1A5
100
AcDbSymbolTableRecord
100
AcDbTextStyleTableRecord
  2
STANDARD
 70
         0
 40
0.0
 41
1.0
 50
0.0
 71
         0
 42
0.0
  3
txt
  4

  0
STYLE
  5
1A6
100
AcDbSymbolTableRecord
100
AcDbTextStyleTableRecord
  2
VERIBEST_GERBER_1
 70
         0
 40
0.0
 41
1.0
 50
0.0
 71
         0
 42
0.0
  3
VBest1.ttf
  4

  0
STYLE
  5
1A7
100
AcDbSymbolTableRecord
100
AcDbTextStyleTableRecord
  2
GOST_TYPE_B
 70
         0
 40
0.0
 41
1.0
 50
0.0
 71
         0
 42
0.0
  3
txt
  4

  0
STYLE
  5
1A8
100
AcDbSymbolTableRecord
100
AcDbTextStyleTableRecord
  2
VERIBEST_GERBER_0
 70
         0
 40
0.0
 41
1.0
 50
0.0
 71
         0
 42
0.0
  3
VBest0.ttf
  4

  0
STYLE
  5
1A9
100
AcDbSymbolTableRecord
100
AcDbTextStyleTableRecord
  2
GOST_D
 70
         0
 40
0.0
 41
1.0
 50
0.0
 71
         0
 42
0.0
  3
txt
  4

  0
ENDTAB
  0
TABLE
  2
VIEW
  5
5
100
AcDbSymbolTable
 70
         0
  0
ENDTAB
  0
TABLE
  2
UCS
  5
6
100
AcDbSymbolTable
 70
         0
  0
ENDTAB
  0
TABLE
  2
APPID
  5
8
100
AcDbSymbolTable
 70
         1
  0
APPID
  5
14
100
AcDbSymbolTableRecord
100
AcDbRegAppTableRecord
  2
ACAD
 70
         0
  0
ENDTAB
  0
TABLE
  2
DIMSTYLE
  5
9
100
AcDbSymbolTable
 70
         1
  0
DIMSTYLE
105
15
100
AcDbSymbolTableRecord
100
AcDbDimStyleTableRecord
  2
STANDARD
 70
         0
  3

  4

  5

  6

 7

 40
1.0
 41
0.18
 42
0.0625
 43
0.38
 44
0.18
 45
0.0
 46
0.0
 47
0.0
 48
0.0
 71
         0
 72
         0
 73
         1
 74
         1
 75
         0
 76
         0
 77
         0
 78
         0
140
0.18
141
0.09
142
0.0
143
25.4
144
1.0
145
0.0
146
1.0
147
0.09
170
         0
171
         2
172
         0
173
         0
174
         0
175
         0
176
         0
177
         0
178
         0
270
         2
271
         4
272
         4
273
         2
274
         2
275
         0
280
         0
281
         0
282
         0
283
         1
284
         0
285
         0
286
         0
287
         3
288
         0
340
17
  0
ENDTAB
  0
TABLE
  2
BLOCK_RECORD
  5
1
100
AcDbSymbolTable
 70
         0
  0
BLOCK_RECORD
  5
A
100
AcDbSymbolTableRecord
100
AcDbBlockTableRecord
  2
*MODEL_SPACE
  0
BLOCK_RECORD
  5
B
100
AcDbSymbolTableRecord
100
AcDbBlockTableRecord
  2
*PAPER_SPACE
  0
ENDTAB
  0
ENDSEC
  0
SECTION
  2
BLOCKS
  0
BLOCK
  5
C
100
AcDbEntity
  8
0
100
AcDbBlockBegin
  2
*MODEL_SPACE
 70
         0
 10
0.0
 20
0.0
 30
0.0
  3
*MODEL_SPACE
  1

  0
ENDBLK
  5
D
100
AcDbEntity
  8
0
100
AcDbBlockEnd
  0
BLOCK
  5
E
100
AcDbEntity
 67
        1
  8
0
100
AcDbBlockBegin
  2
*PAPER_SPACE
 70
         0
 10
0.0
 20
0.0
 30
0.0
  3
*PAPER_SPACE
  1

  0
ENDBLK
  5
F
100
AcDbEntity
 67
        1
  8
0
100
AcDbBlockEnd
  0
ENDSEC
  0
SECTION
  2
ENTITIES
  0
LWPOLYLINE
  5
1B
100
AcDbEntity
  8
ASSEMBLY_OUTLINES_TOP
100
AcDbPolyline
 90
        4
 70
         1
 43
0.0
 10
-64.0
 20
0.7
 10
-64.0
 20
50.2
 10
-26.0
 20
50.2
 10
-26.0
 20
0.7
  0
LWPOLYLINE
  5
1C
100
AcDbEntity
  8
ASSEMBLY_OUTLINES_TOP
100
AcDbPolyline
 90
        3
 70
         1
 43
0.0
 10
-29.5
 20
-1.015017
 10
-30.64
 20
-1.585017
 10
-30.64
 20
-0.445017
  0
HATCH
  5
1D
100
AcDbEntity
  8
ASSEMBLY_OUTLINES_TOP
100
AcDbHatch
 10
0.0
 20
0.0
 30
0.0
 210
0.0
 220
0.0
 230
1.0
  2
SOLID
 70
         1
 71
        1
 91
        1
  92
     2
 72
     0
 73
     1
  93
     3
 10
-29.5
 20
-1.015017
 10
-30.64
 20
-1.585017
 10
-30.64
 20
-0.445017
  97
     1
  330
    28
 75
     0
 76
     1
  98
     1
 10
0.0
 20
0.0
  0
LWPOLYLINE
  5
1E
100
AcDbEntity
  8
ASSEMBLY_OUTLINES_TOP
100
AcDbPolyline
 90
        3
 70
         1
 43
0.0
 10
-60.5
 20
-1.015017
 10
-59.36
 20
-0.445017
 10
-59.36
 20
-1.585017
  0
HATCH
  5
1F
100
AcDbEntity
  8
ASSEMBLY_OUTLINES_TOP
100
AcDbHatch
 10
0.0
 20
0.0
 30
0.0
 210
0.0
 220
0.0
 230
1.0
  2
SOLID
 70
         1
 71
        1
 91
        1
  92
     2
 72
     0
 73
     1
  93
     3
 10
-60.5
 20
-1.015017
 10
-59.36
 20
-0.445017
 10
-59.36
 20
-1.585017
  97
     1
  330
    30
 75
     0
 76
     1
  98
     1
 10
0.0
 20
0.0
  0
LWPOLYLINE
  5
20
100
AcDbEntity
  8
ASSEMBLY_OUTLINES_TOP
100
AcDbPolyline
 90
        2
 70
         0
 43
0.2
 10
-42.324445
 20
-1.015017
 10
-30.07
 20
-1.015017
  0
LWPOLYLINE
  5
21
100
AcDbEntity
  8
ASSEMBLY_OUTLINES_TOP
100
AcDbPolyline
 90
        2
 70
         0
 43
0.2
 10
-59.93
 20
-1.015017
 10
-47.675556
 20
-1.015017
  0
LWPOLYLINE
  5
22
100
AcDbEntity
  8
ASSEMBLY_OUTLINES_TOP
100
AcDbPolyline
 90
        2
 70
         0
 43
0.2
 10
-29.5
 20
1.29
 10
-29.5
 20
-1.525017
  0
LWPOLYLINE
  5
23
100
AcDbEntity
  8
ASSEMBLY_OUTLINES_TOP
100
AcDbPolyline
 90
        2
 70
         0
 43
0.2
 10
-60.5
 20
1.29
 10
-60.5
 20
-1.525017
  0
CIRCLE
  5
24
100
AcDbEntity
  8
ASSEMBLY_OUTLINES_TOP
100
AcDbCircle
 10
-61.5353
 20
47.647056
 30
0.0
 40
1.25
  0
HATCH
  5
25
100
AcDbEntity
  8
ASSEMBLY_OUTLINES_TOP
100
AcDbHatch
 10
0.0
 20
0.0
 30
0.0
 210
0.0
 220
0.0
 230
1.0
  2
SOLID
 70
         1
 71
        1
 91
        1
  92
     1
  93
     1
 72
     2
 10
-61.5353
 20
47.647056
  40
1.25
  50
     0.0
  51
     360.0
 73
     0
  97
     1
  330
    36
 75
     0
 76
     1
  98
     1
 10
0.0
 20
0.0
  0
CIRCLE
  5
26
100
AcDbEntity
  8
ASSEMBLY_OUTLINES_TOP
100
AcDbCircle
 10
-35.64086
 20
3.212516
 30
0.0
 40
1.25
  0
HATCH
  5
27
100
AcDbEntity
  8
ASSEMBLY_OUTLINES_TOP
100
AcDbHatch
 10
0.0
 20
0.0
 30
0.0
 210
0.0
 220
0.0
 230
1.0
  2
SOLID
 70
         1
 71
        1
 91
        1
  92
     1
  93
     1
 72
     2
 10
-35.64086
 20
3.212516
  40
1.25
  50
     0.0
  51
     360.0
 73
     0
  97
     1
  330
    38
 75
     0
 76
     1
  98
     1
 10
0.0
 20
0.0
  0
CIRCLE
  5
28
100
AcDbEntity
  8
ASSEMBLY_OUTLINES_TOP
100
AcDbCircle
 10
-35.590941
 20
3.221522
 30
0.0
 40
2.5
  0
LWPOLYLINE
  5
29
100
AcDbEntity
  8
ASSEMBLY_OUTLINES_TOP
100
AcDbPolyline
 90
        2
 70
         0
 43
0.2
 10
-78.47
 20
55.9
 10
-87.153428
 20
55.9
  0
LWPOLYLINE
  5
2A
100
AcDbEntity
  8
ASSEMBLY_OUTLINES_TOP
100
AcDbPolyline
 90
        2
 70
         0
 43
0.2
 10
-77.86
 20
46.56
 10
-87.153428
 20
46.56
  0
LWPOLYLINE
  5
2B
100
AcDbEntity
  8
ASSEMBLY_OUTLINES_TOP
100
AcDbPolyline
 90
        2
 70
         0
 43
0.2
 10
-86.643428
 20
56.47
 10
-86.643428
 20
58.75
  0
LWPOLYLINE
  5
2C
100
AcDbEntity
  8
ASSEMBLY_OUTLINES_TOP
100
AcDbPolyline
 90
        2
 70
         0
 43
0.2
 10
-86.643428
 20
45.99
 10
-86.643428
 20
43.71
  0
LWPOLYLINE
  5
2D
100
AcDbEntity
  8
ASSEMBLY_OUTLINES_TOP
100
AcDbPolyline
 90
        3
 70
         1
 43
0.0
 10
-86.643428
 20
55.9
 10
-87.213428
 20
57.04
 10
-86.073428
 20
57.04
  0
HATCH
  5
2E
100
AcDbEntity
  8
ASSEMBLY_OUTLINES_TOP
100
AcDbHatch
 10
0.0
 20
0.0
 30
0.0
 210
0.0
 220
0.0
 230
1.0
  2
SOLID
 70
         1
 71
        1
 91
        1
  92
     2
 72
     0
 73
     1
  93
     3
 10
-86.643428
 20
55.9
 10
-87.213428
 20
57.04
 10
-86.073428
 20
57.04
  97
     1
  330
    45
 75
     0
 76
     1
  98
     1
 10
0.0
 20
0.0
  0
LWPOLYLINE
  5
2F
100
AcDbEntity
  8
ASSEMBLY_OUTLINES_TOP
100
AcDbPolyline
 90
        3
 70
         1
 43
0.0
 10
-86.643428
 20
46.56
 10
-86.073429
 20
45.42
 10
-87.213428
 20
45.42
  0
HATCH
  5
30
100
AcDbEntity
  8
ASSEMBLY_OUTLINES_TOP
100
AcDbHatch
 10
0.0
 20
0.0
 30
0.0
 210
0.0
 220
0.0
 230
1.0
  2
SOLID
 70
         1
 71
        1
 91
        1
  92
     2
 72
     0
 73
     1
  93
     3
 10
-86.643428
 20
46.56
 10
-86.073429
 20
45.42
 10
-87.213428
 20
45.42
  97
     1
  330
    47
 75
     0
 76
     1
  98
     1
 10
0.0
 20
0.0
  0
LWPOLYLINE
  5
31
100
AcDbEntity
  8
ASSEMBLY_OUTLINES_TOP
100
AcDbPolyline
 90
        2
 70
         0
 43
0.2
 10
-77.96
 20
56.41
 10
-77.96
 20
68.181953
  0
LWPOLYLINE
  5
32
100
AcDbEntity
  8
ASSEMBLY_OUTLINES_TOP
100
AcDbPolyline
 90
        2
 70
         0
 43
0.2
 10
-77.35
 20
47.07
 10
-77.35
 20
68.181953
  0
LWPOLYLINE
  5
33
100
AcDbEntity
  8
ASSEMBLY_OUTLINES_TOP
100
AcDbPolyline
 90
        2
 70
         0
 43
0.2
 10
-78.53
 20
67.671953
 10
-80.81
 20
67.671953
  0
LWPOLYLINE
  5
34
100
AcDbEntity
  8
ASSEMBLY_OUTLINES_TOP
100
AcDbPolyline
 90
        2
 70
         0
 43
0.2
 10
-76.78
 20
67.671953
 10
-74.5
 20
67.671953
  0
LWPOLYLINE
  5
35
100
AcDbEntity
  8
ASSEMBLY_OUTLINES_TOP
100
AcDbPolyline
 90
        3
 70
         1
 43
0.0
 10
-77.96
 20
67.671953
 10
-79.1
 20
67.101953
 10
-79.1
 20
68.241953
  0
HATCH
  5
36
100
AcDbEntity
  8
ASSEMBLY_OUTLINES_TOP
100
AcDbHatch
 10
0.0
 20
0.0
 30
0.0
 210
0.0
 220
0.0
 230
1.0
  2
SOLID
 70
         1
 71
        1
 91
        1
  92
     2
 72
     0
 73
     1
  93
     3
 10
-77.96
 20
67.671953
 10
-79.1
 20
67.101953
 10
-79.1
 20
68.241953
  97
     1
  330
    53
 75
     0
 76
     1
  98
     1
 10
0.0
 20
0.0
  0
LWPOLYLINE
  5
37
100
AcDbEntity
  8
ASSEMBLY_OUTLINES_TOP
100
AcDbPolyline
 90
        3
 70
         1
 43
0.0
 10
-77.35
 20
67.671953
 10
-76.21
 20
68.241953
 10
-76.21
 20
67.101953
  0
HATCH
  5
38
100
AcDbEntity
  8
ASSEMBLY_OUTLINES_TOP
100
AcDbHatch
 10
0.0
 20
0.0
 30
0.0
 210
0.0
 220
0.0
 230
1.0
  2
SOLID
 70
         1
 71
        1
 91
        1
  92
     2
 72
     0
 73
     1
  93
     3
 10
-77.35
 20
67.671953
 10
-76.21
 20
68.241953
 10
-76.21
 20
67.101953
  97
     1
  330
    55
 75
     0
 76
     1
  98
     1
 10
0.0
 20
0.0
  0
LWPOLYLINE
  5
39
100
AcDbEntity
  8
ASSEMBLY_OUTLINES_TOP
100
AcDbPolyline
 90
        2
 70
         0
 43
0.2
 10
-81.01
 20
61.0
 10
-85.306557
 20
61.0
  0
LWPOLYLINE
  5
3A
100
AcDbEntity
  8
ASSEMBLY_OUTLINES_TOP
100
AcDbPolyline
 90
        2
 70
         0
 43
0.2
 10
-81.01
 20
0.0
 10
-85.306557
 20
0.0
  0
LWPOLYLINE
  5
3B
100
AcDbEntity
  8
ASSEMBLY_OUTLINES_TOP
100
AcDbPolyline
 90
        2
 70
         0
 43
0.2
 10
-84.796557
 20
60.43
 10
-84.796557
 20
33.175554
  0
LWPOLYLINE
  5
3C
100
AcDbEntity
  8
ASSEMBLY_OUTLINES_TOP
100
AcDbPolyline
 90
        2
 70
         0
 43
0.2
 10
-84.796557
 20
27.824444
 10
-84.796557
 20
0.57
  0
LWPOLYLINE
  5
3D
100
AcDbEntity
  8
ASSEMBLY_OUTLINES_TOP
100
AcDbPolyline
 90
        3
 70
         1
 43
0.0
 10
-84.796557
 20
61.0
 10
-84.226558
 20
59.86
 10
-85.366557
 20
59.86
  0
HATCH
  5
3E
100
AcDbEntity
  8
ASSEMBLY_OUTLINES_TOP
100
AcDbHatch
 10
0.0
 20
0.0
 30
0.0
 210
0.0
 220
0.0
 230
1.0
  2
SOLID
 70
         1
 71
        1
 91
        1
  92
     2
 72
     0
 73
     1
  93
     3
 10
-84.796557
 20
61.0
 10
-84.226558
 20
59.86
 10
-85.366557
 20
59.86
  97
     1
  330
    61
 75
     0
 76
     1
  98
     1
 10
0.0
 20
0.0
  0
LWPOLYLINE
  5
3F
100
AcDbEntity
  8
ASSEMBLY_OUTLINES_TOP
100
AcDbPolyline
 90
        3
 70
         1
 43
0.0
 10
-84.796557
 20
0.0
 10
-85.366557
 20
1.14
 10
-84.226557
 20
1.14
  0
HATCH
  5
40
100
AcDbEntity
  8
ASSEMBLY_OUTLINES_TOP
100
AcDbHatch
 10
0.0
 20
0.0
 30
0.0
 210
0.0
 220
0.0
 230
1.0
  2
SOLID
 70
         1
 71
        1
 91
        1
  92
     2
 72
     0
 73
     1
  93
     3
 10
-84.796557
 20
0.0
 10
-85.366557
 20
1.14
 10
-84.226557
 20
1.14
  97
     1
  330
    63
 75
     0
 76
     1
  98
     1
 10
0.0
 20
0.0
  0
LWPOLYLINE
  5
41
100
AcDbEntity
  8
ASSEMBLY_OUTLINES_TOP
100
AcDbPolyline
 90
        2
 70
         0
 43
0.2
 10
-80.5
 20
-0.51
 10
-80.5
 20
-7.356431
  0
LWPOLYLINE
  5
42
100
AcDbEntity
  8
ASSEMBLY_OUTLINES_TOP
100
AcDbPolyline
 90
        2
 70
         0
 43
0.2
 10
0.0
 20
-0.51
 10
0.0
 20
-7.356431
  0
LWPOLYLINE
  5
43
100
AcDbEntity
  8
ASSEMBLY_OUTLINES_TOP
100
AcDbPolyline
 90
        2
 70
         0
 43
0.2
 10
-79.93
 20
-6.846431
 10
-44.105703
 20
-6.846431
  0
LWPOLYLINE
  5
44
100
AcDbEntity
  8
ASSEMBLY_OUTLINES_TOP
100
AcDbPolyline
 90
        2
 70
         0
 43
0.2
 10
-36.394297
 20
-6.846431
 10
-0.57
 20
-6.846431
  0
LWPOLYLINE
  5
45
100
AcDbEntity
  8
ASSEMBLY_OUTLINES_TOP
100
AcDbPolyline
 90
        3
 70
         1
 43
0.0
 10
-80.5
 20
-6.846431
 10
-79.36
 20
-6.276431
 10
-79.36
 20
-7.416431
  0
HATCH
  5
46
100
AcDbEntity
  8
ASSEMBLY_OUTLINES_TOP
100
AcDbHatch
 10
0.0
 20
0.0
 30
0.0
 210
0.0
 220
0.0
 230
1.0
  2
SOLID
 70
         1
 71
        1
 91
        1
  92
     2
 72
     0
 73
     1
  93
     3
 10
-80.5
 20
-6.846431
 10
-79.36
 20
-6.276431
 10
-79.36
 20
-7.416431
  97
     1
  330
    69
 75
     0
 76
     1
  98
     1
 10
0.0
 20
0.0
  0
LWPOLYLINE
  5
47
100
AcDbEntity
  8
ASSEMBLY_OUTLINES_TOP
100
AcDbPolyline
 90
        3
 70
         1
 43
0.0
 10
0.0
 20
-6.846431
 10
-1.14
 20
-7.416431
 10
-1.14
 20
-6.276431
  0
HATCH
  5
48
100
AcDbEntity
  8
ASSEMBLY_OUTLINES_TOP
100
AcDbHatch
 10
0.0
 20
0.0
 30
0.0
 210
0.0
 220
0.0
 230
1.0
  2
SOLID
 70
         1
 71
        1
 91
        1
  92
     2
 72
     0
 73
     1
  93
     3
 10
0.0
 20
-6.846431
 10
-1.14
 20
-7.416431
 10
-1.14
 20
-6.276431
  97
     1
  330
    71
 75
     0
 76
     1
  98
     1
 10
0.0
 20
0.0
  0
TEXT
  5
49
100
AcDbEntity
  8
ASSEMBLY_OUTLINES_TOP
100
AcDbText
 10
-47.32791
 20
-1.650018
 30
0.0
 40
1.270000
 41
1.000000
  1
31mm
  7
VERIBEST_GERBER_1
 72
 1
 11
-45.0
 21
-1.015018
 31
0.0
100
AcDbText
 73
 2
  0
TEXT
  5
4A
100
AcDbEntity
  8
ASSEMBLY_OUTLINES_TOP
100
AcDbText
 10
-86.008428
 20
59.053843
 30
0.0
 40
1.270000
 41
1.000000
  1
9.34mm
  50
90.0
  7
VERIBEST_GERBER_1
 72
 1
 11
-86.643428
 21
62.505703
 31
0.0
100
AcDbText
 73
 2
  0
TEXT
  5
4B
100
AcDbEntity
  8
ASSEMBLY_OUTLINES_TOP
100
AcDbText
 10
-87.87437
 20
67.036953
 30
0.0
 40
1.270000
 41
1.000000
  1
0.61mm
  7
VERIBEST_GERBER_1
 72
 1
 11
-84.49236
 21
67.671953
 31
0.0
100
AcDbText
 73
 2
  0
TEXT
  5
4C
100
AcDbEntity
  8
ASSEMBLY_OUTLINES_TOP
100
AcDbText
 10
-84.161556
 20
28.17209
 30
0.0
 40
1.270000
 41
1.000000
  1
61mm
  50
90.0
  7
VERIBEST_GERBER_1
 72
 1
 11
-84.796556
 21
30.5
 31
0.0
100
AcDbText
 73
 2
  0
TEXT
  5
4D
100
AcDbEntity
  8
ASSEMBLY_OUTLINES_TOP
100
AcDbText
 10
-43.70186
 20
-7.48143
 30
0.0
 40
1.270000
 41
1.000000
  1
80.5mm
  7
VERIBEST_GERBER_1
 72
 1
 11
-40.25
 21
-6.84643
 31
0.0
100
AcDbText
 73
 2
  0
LWPOLYLINE
  5
4E
100
AcDbEntity
  8
ASSEMBLY_OUTLINES_TOP
100
AcDbPolyline
 90
        4
 70
         1
 43
0.1
 10
-37.55
 20
52.9
 10
-37.55
 20
58.9
 10
-33.85
 20
58.9
 10
-33.85
 20
52.9
  0
LWPOLYLINE
  5
4F
100
AcDbEntity
  8
ASSEMBLY_OUTLINES_TOP
100
AcDbPolyline
 90
        4
 70
         1
 43
0.1
 10
-13.1
 20
2.2
 10
-13.1
 20
8.2
 10
-9.4
 20
8.2
 10
-9.4
 20
2.2
  0
LWPOLYLINE
  5
50
100
AcDbEntity
  8
ASSEMBLY_OUTLINES_TOP
100
AcDbPolyline
 90
        4
 70
         1
 43
0.1
 10
-50.5
 20
10.0
 10
-50.5
 20
19.8
 10
-46.0
 20
19.8
 10
-46.0
 20
10.0
  0
LWPOLYLINE
  5
51
100
AcDbEntity
  8
ASSEMBLY_OUTLINES_TOP
100
AcDbPolyline
 90
        2
 70
         1
 43
0.1
 10
-47.5
 20
11.0
 42
-1.000000
 10
-46.5
 20
11.0
 42
-1.000000
  0
LWPOLYLINE
  5
52
100
AcDbEntity
  8
ASSEMBLY_OUTLINES_TOP
100
AcDbPolyline
 90
        4
 70
         1
 43
0.1
 10
-55.45
 20
9.05
 10
-55.45
 20
11.85
 10
-54.15
 20
11.85
 10
-54.15
 20
9.05
  0
LWPOLYLINE
  5
53
100
AcDbEntity
  8
ASSEMBLY_OUTLINES_TOP
100
AcDbPolyline
 90
        4
 70
         1
 43
0.1
 10
-76.15
 20
5.65
 10
-76.15
 20
6.95
 10
-73.25
 20
6.95
 10
-73.25
 20
5.65
  0
LWPOLYLINE
  5
54
100
AcDbEntity
  8
ASSEMBLY_OUTLINES_TOP
100
AcDbPolyline
 90
        4
 70
         1
 43
0.1
 10
-21.0
 20
11.71
 10
-21.0
 20
27.97
 10
0.0
 20
27.97
 10
0.0
 20
11.71
  0
LWPOLYLINE
  5
55
100
AcDbEntity
  8
ASSEMBLY_OUTLINES_TOP
100
AcDbPolyline
 90
        4
 70
         1
 43
0.0
 10
-78.35
 20
7.56
 10
-78.35
 20
47.56
 10
-74.25
 20
47.56
 10
-74.25
 20
7.56
  0
CIRCLE
  5
56
100
AcDbEntity
  8
ASSEMBLY_OUTLINES_TOP
100
AcDbCircle
 10
-77.35
 20
10.56
 30
0.0
 40
0.25
  0
HATCH
  5
57
100
AcDbEntity
  8
ASSEMBLY_OUTLINES_TOP
100
AcDbHatch
 10
0.0
 20
0.0
 30
0.0
 210
0.0
 220
0.0
 230
1.0
  2
SOLID
 70
         1
 71
        1
 91
        1
  92
     1
  93
     1
 72
     2
 10
-77.35
 20
10.56
  40
0.25
  50
     0.0
  51
     360.0
 73
     0
  97
     1
  330
    86
 75
     0
 76
     1
  98
     1
 10
0.0
 20
0.0
  0
CIRCLE
  5
58
100
AcDbEntity
  8
ASSEMBLY_OUTLINES_TOP
100
AcDbCircle
 10
-75.35
 20
10.56
 30
0.0
 40
0.25
  0
HATCH
  5
59
100
AcDbEntity
  8
ASSEMBLY_OUTLINES_TOP
100
AcDbHatch
 10
0.0
 20
0.0
 30
0.0
 210
0.0
 220
0.0
 230
1.0
  2
SOLID
 70
         1
 71
        1
 91
        1
  92
     1
  93
     1
 72
     2
 10
-75.35
 20
10.56
  40
0.25
  50
     0.0
  51
     360.0
 73
     0
  97
     1
  330
    88
 75
     0
 76
     1
  98
     1
 10
0.0
 20
0.0
  0
CIRCLE
  5
5A
100
AcDbEntity
  8
ASSEMBLY_OUTLINES_TOP
100
AcDbCircle
 10
-75.35
 20
8.56
 30
0.0
 40
0.25
  0
HATCH
  5
5B
100
AcDbEntity
  8
ASSEMBLY_OUTLINES_TOP
100
AcDbHatch
 10
0.0
 20
0.0
 30
0.0
 210
0.0
 220
0.0
 230
1.0
  2
SOLID
 70
         1
 71
        1
 91
        1
  92
     1
  93
     1
 72
     2
 10
-75.35
 20
8.56
  40
0.25
  50
     0.0
  51
     360.0
 73
     0
  97
     1
  330
    90
 75
     0
 76
     1
  98
     1
 10
0.0
 20
0.0
  0
CIRCLE
  5
5C
100
AcDbEntity
  8
ASSEMBLY_OUTLINES_TOP
100
AcDbCircle
 10
-75.35
 20
12.56
 30
0.0
 40
0.25
  0
HATCH
  5
5D
100
AcDbEntity
  8
ASSEMBLY_OUTLINES_TOP
100
AcDbHatch
 10
0.0
 20
0.0
 30
0.0
 210
0.0
 220
0.0
 230
1.0
  2
SOLID
 70
         1
 71
        1
 91
        1
  92
     1
  93
     1
 72
     2
 10
-75.35
 20
12.56
  40
0.25
  50
     0.0
  51
     360.0
 73
     0
  97
     1
  330
    92
 75
     0
 76
     1
  98
     1
 10
0.0
 20
0.0
  0
CIRCLE
  5
5E
100
AcDbEntity
  8
ASSEMBLY_OUTLINES_TOP
100
AcDbCircle
 10
-75.35
 20
14.56
 30
0.0
 40
0.25
  0
HATCH
  5
5F
100
AcDbEntity
  8
ASSEMBLY_OUTLINES_TOP
100
AcDbHatch
 10
0.0
 20
0.0
 30
0.0
 210
0.0
 220
0.0
 230
1.0
  2
SOLID
 70
         1
 71
        1
 91
        1
  92
     1
  93
     1
 72
     2
 10
-75.35
 20
14.56
  40
0.25
  50
     0.0
  51
     360.0
 73
     0
  97
     1
  330
    94
 75
     0
 76
     1
  98
     1
 10
0.0
 20
0.0
  0
CIRCLE
  5
60
100
AcDbEntity
  8
ASSEMBLY_OUTLINES_TOP
100
AcDbCircle
 10
-75.35
 20
16.56
 30
0.0
 40
0.25
  0
HATCH
  5
61
100
AcDbEntity
  8
ASSEMBLY_OUTLINES_TOP
100
AcDbHatch
 10
0.0
 20
0.0
 30
0.0
 210
0.0
 220
0.0
 230
1.0
  2
SOLID
 70
         1
 71
        1
 91
        1
  92
     1
  93
     1
 72
     2
 10
-75.35
 20
16.56
  40
0.25
  50
     0.0
  51
     360.0
 73
     0
  97
     1
  330
    96
 75
     0
 76
     1
  98
     1
 10
0.0
 20
0.0
  0
CIRCLE
  5
62
100
AcDbEntity
  8
ASSEMBLY_OUTLINES_TOP
100
AcDbCircle
 10
-75.35
 20
18.56
 30
0.0
 40
0.25
  0
HATCH
  5
63
100
AcDbEntity
  8
ASSEMBLY_OUTLINES_TOP
100
AcDbHatch
 10
0.0
 20
0.0
 30
0.0
 210
0.0
 220
0.0
 230
1.0
  2
SOLID
 70
         1
 71
        1
 91
        1
  92
     1
  93
     1
 72
     2
 10
-75.35
 20
18.56
  40
0.25
  50
     0.0
  51
     360.0
 73
     0
  97
     1
  330
    98
 75
     0
 76
     1
  98
     1
 10
0.0
 20
0.0
  0
CIRCLE
  5
64
100
AcDbEntity
  8
ASSEMBLY_OUTLINES_TOP
100
AcDbCircle
 10
-75.35
 20
20.56
 30
0.0
 40
0.25
  0
HATCH
  5
65
100
AcDbEntity
  8
ASSEMBLY_OUTLINES_TOP
100
AcDbHatch
 10
0.0
 20
0.0
 30
0.0
 210
0.0
 220
0.0
 230
1.0
  2
SOLID
 70
         1
 71
        1
 91
        1
  92
     1
  93
     1
 72
     2
 10
-75.35
 20
20.56
  40
0.25
  50
     0.0
  51
     360.0
 73
     0
  97
     1
  330
    100
 75
     0
 76
     1
  98
     1
 10
0.0
 20
0.0
  0
CIRCLE
  5
66
100
AcDbEntity
  8
ASSEMBLY_OUTLINES_TOP
100
AcDbCircle
 10
-75.35
 20
22.56
 30
0.0
 40
0.25
  0
HATCH
  5
67
100
AcDbEntity
  8
ASSEMBLY_OUTLINES_TOP
100
AcDbHatch
 10
0.0
 20
0.0
 30
0.0
 210
0.0
 220
0.0
 230
1.0
  2
SOLID
 70
         1
 71
        1
 91
        1
  92
     1
  93
     1
 72
     2
 10
-75.35
 20
22.56
  40
0.25
  50
     0.0
  51
     360.0
 73
     0
  97
     1
  330
    102
 75
     0
 76
     1
  98
     1
 10
0.0
 20
0.0
  0
CIRCLE
  5
68
100
AcDbEntity
  8
ASSEMBLY_OUTLINES_TOP
100
AcDbCircle
 10
-75.35
 20
24.56
 30
0.0
 40
0.25
  0
HATCH
  5
69
100
AcDbEntity
  8
ASSEMBLY_OUTLINES_TOP
100
AcDbHatch
 10
0.0
 20
0.0
 30
0.0
 210
0.0
 220
0.0
 230
1.0
  2
SOLID
 70
         1
 71
        1
 91
        1
  92
     1
  93
     1
 72
     2
 10
-75.35
 20
24.56
  40
0.25
  50
     0.0
  51
     360.0
 73
     0
  97
     1
  330
    104
 75
     0
 76
     1
  98
     1
 10
0.0
 20
0.0
  0
CIRCLE
  5
6A
100
AcDbEntity
  8
ASSEMBLY_OUTLINES_TOP
100
AcDbCircle
 10
-75.35
 20
26.56
 30
0.0
 40
0.25
  0
HATCH
  5
6B
100
AcDbEntity
  8
ASSEMBLY_OUTLINES_TOP
100
AcDbHatch
 10
0.0
 20
0.0
 30
0.0
 210
0.0
 220
0.0
 230
1.0
  2
SOLID
 70
         1
 71
        1
 91
        1
  92
     1
  93
     1
 72
     2
 10
-75.35
 20
26.56
  40
0.25
  50
     0.0
  51
     360.0
 73
     0
  97
     1
  330
    106
 75
     0
 76
     1
  98
     1
 10
0.0
 20
0.0
  0
CIRCLE
  5
6C
100
AcDbEntity
  8
ASSEMBLY_OUTLINES_TOP
100
AcDbCircle
 10
-75.35
 20
28.56
 30
0.0
 40
0.25
  0
HATCH
  5
6D
100
AcDbEntity
  8
ASSEMBLY_OUTLINES_TOP
100
AcDbHatch
 10
0.0
 20
0.0
 30
0.0
 210
0.0
 220
0.0
 230
1.0
  2
SOLID
 70
         1
 71
        1
 91
        1
  92
     1
  93
     1
 72
     2
 10
-75.35
 20
28.56
  40
0.25
  50
     0.0
  51
     360.0
 73
     0
  97
     1
  330
    108
 75
     0
 76
     1
  98
     1
 10
0.0
 20
0.0
  0
CIRCLE
  5
6E
100
AcDbEntity
  8
ASSEMBLY_OUTLINES_TOP
100
AcDbCircle
 10
-75.35
 20
30.56
 30
0.0
 40
0.25
  0
HATCH
  5
6F
100
AcDbEntity
  8
ASSEMBLY_OUTLINES_TOP
100
AcDbHatch
 10
0.0
 20
0.0
 30
0.0
 210
0.0
 220
0.0
 230
1.0
  2
SOLID
 70
         1
 71
        1
 91
        1
  92
     1
  93
     1
 72
     2
 10
-75.35
 20
30.56
  40
0.25
  50
     0.0
  51
     360.0
 73
     0
  97
     1
  330
    110
 75
     0
 76
     1
  98
     1
 10
0.0
 20
0.0
  0
CIRCLE
  5
70
100
AcDbEntity
  8
ASSEMBLY_OUTLINES_TOP
100
AcDbCircle
 10
-75.35
 20
32.56
 30
0.0
 40
0.25
  0
HATCH
  5
71
100
AcDbEntity
  8
ASSEMBLY_OUTLINES_TOP
100
AcDbHatch
 10
0.0
 20
0.0
 30
0.0
 210
0.0
 220
0.0
 230
1.0
  2
SOLID
 70
         1
 71
        1
 91
        1
  92
     1
  93
     1
 72
     2
 10
-75.35
 20
32.56
  40
0.25
  50
     0.0
  51
     360.0
 73
     0
  97
     1
  330
    112
 75
     0
 76
     1
  98
     1
 10
0.0
 20
0.0
  0
CIRCLE
  5
72
100
AcDbEntity
  8
ASSEMBLY_OUTLINES_TOP
100
AcDbCircle
 10
-75.35
 20
34.56
 30
0.0
 40
0.25
  0
HATCH
  5
73
100
AcDbEntity
  8
ASSEMBLY_OUTLINES_TOP
100
AcDbHatch
 10
0.0
 20
0.0
 30
0.0
 210
0.0
 220
0.0
 230
1.0
  2
SOLID
 70
         1
 71
        1
 91
        1
  92
     1
  93
     1
 72
     2
 10
-75.35
 20
34.56
  40
0.25
  50
     0.0
  51
     360.0
 73
     0
  97
     1
  330
    114
 75
     0
 76
     1
  98
     1
 10
0.0
 20
0.0
  0
CIRCLE
  5
74
100
AcDbEntity
  8
ASSEMBLY_OUTLINES_TOP
100
AcDbCircle
 10
-75.35
 20
36.56
 30
0.0
 40
0.25
  0
HATCH
  5
75
100
AcDbEntity
  8
ASSEMBLY_OUTLINES_TOP
100
AcDbHatch
 10
0.0
 20
0.0
 30
0.0
 210
0.0
 220
0.0
 230
1.0
  2
SOLID
 70
         1
 71
        1
 91
        1
  92
     1
  93
     1
 72
     2
 10
-75.35
 20
36.56
  40
0.25
  50
     0.0
  51
     360.0
 73
     0
  97
     1
  330
    116
 75
     0
 76
     1
  98
     1
 10
0.0
 20
0.0
  0
CIRCLE
  5
76
100
AcDbEntity
  8
ASSEMBLY_OUTLINES_TOP
100
AcDbCircle
 10
-75.35
 20
38.56
 30
0.0
 40
0.25
  0
HATCH
  5
77
100
AcDbEntity
  8
ASSEMBLY_OUTLINES_TOP
100
AcDbHatch
 10
0.0
 20
0.0
 30
0.0
 210
0.0
 220
0.0
 230
1.0
  2
SOLID
 70
         1
 71
        1
 91
        1
  92
     1
  93
     1
 72
     2
 10
-75.35
 20
38.56
  40
0.25
  50
     0.0
  51
     360.0
 73
     0
  97
     1
  330
    118
 75
     0
 76
     1
  98
     1
 10
0.0
 20
0.0
  0
CIRCLE
  5
78
100
AcDbEntity
  8
ASSEMBLY_OUTLINES_TOP
100
AcDbCircle
 10
-75.35
 20
40.56
 30
0.0
 40
0.25
  0
HATCH
  5
79
100
AcDbEntity
  8
ASSEMBLY_OUTLINES_TOP
100
AcDbHatch
 10
0.0
 20
0.0
 30
0.0
 210
0.0
 220
0.0
 230
1.0
  2
SOLID
 70
         1
 71
        1
 91
        1
  92
     1
  93
     1
 72
     2
 10
-75.35
 20
40.56
  40
0.25
  50
     0.0
  51
     360.0
 73
     0
  97
     1
  330
    120
 75
     0
 76
     1
  98
     1
 10
0.0
 20
0.0
  0
CIRCLE
  5
7A
100
AcDbEntity
  8
ASSEMBLY_OUTLINES_TOP
100
AcDbCircle
 10
-75.35
 20
42.56
 30
0.0
 40
0.25
  0
HATCH
  5
7B
100
AcDbEntity
  8
ASSEMBLY_OUTLINES_TOP
100
AcDbHatch
 10
0.0
 20
0.0
 30
0.0
 210
0.0
 220
0.0
 230
1.0
  2
SOLID
 70
         1
 71
        1
 91
        1
  92
     1
  93
     1
 72
     2
 10
-75.35
 20
42.56
  40
0.25
  50
     0.0
  51
     360.0
 73
     0
  97
     1
  330
    122
 75
     0
 76
     1
  98
     1
 10
0.0
 20
0.0
  0
CIRCLE
  5
7C
100
AcDbEntity
  8
ASSEMBLY_OUTLINES_TOP
100
AcDbCircle
 10
-75.35
 20
44.56
 30
0.0
 40
0.25
  0
HATCH
  5
7D
100
AcDbEntity
  8
ASSEMBLY_OUTLINES_TOP
100
AcDbHatch
 10
0.0
 20
0.0
 30
0.0
 210
0.0
 220
0.0
 230
1.0
  2
SOLID
 70
         1
 71
        1
 91
        1
  92
     1
  93
     1
 72
     2
 10
-75.35
 20
44.56
  40
0.25
  50
     0.0
  51
     360.0
 73
     0
  97
     1
  330
    124
 75
     0
 76
     1
  98
     1
 10
0.0
 20
0.0
  0
CIRCLE
  5
7E
100
AcDbEntity
  8
ASSEMBLY_OUTLINES_TOP
100
AcDbCircle
 10
-75.35
 20
46.56
 30
0.0
 40
0.25
  0
HATCH
  5
7F
100
AcDbEntity
  8
ASSEMBLY_OUTLINES_TOP
100
AcDbHatch
 10
0.0
 20
0.0
 30
0.0
 210
0.0
 220
0.0
 230
1.0
  2
SOLID
 70
         1
 71
        1
 91
        1
  92
     1
  93
     1
 72
     2
 10
-75.35
 20
46.56
  40
0.25
  50
     0.0
  51
     360.0
 73
     0
  97
     1
  330
    126
 75
     0
 76
     1
  98
     1
 10
0.0
 20
0.0
  0
CIRCLE
  5
80
100
AcDbEntity
  8
ASSEMBLY_OUTLINES_TOP
100
AcDbCircle
 10
-77.35
 20
8.56
 30
0.0
 40
0.25
  0
HATCH
  5
81
100
AcDbEntity
  8
ASSEMBLY_OUTLINES_TOP
100
AcDbHatch
 10
0.0
 20
0.0
 30
0.0
 210
0.0
 220
0.0
 230
1.0
  2
SOLID
 70
         1
 71
        1
 91
        1
  92
     1
  93
     1
 72
     2
 10
-77.35
 20
8.56
  40
0.25
  50
     0.0
  51
     360.0
 73
     0
  97
     1
  330
    128
 75
     0
 76
     1
  98
     1
 10
0.0
 20
0.0
  0
CIRCLE
  5
82
100
AcDbEntity
  8
ASSEMBLY_OUTLINES_TOP
100
AcDbCircle
 10
-77.35
 20
12.56
 30
0.0
 40
0.25
  0
HATCH
  5
83
100
AcDbEntity
  8
ASSEMBLY_OUTLINES_TOP
100
AcDbHatch
 10
0.0
 20
0.0
 30
0.0
 210
0.0
 220
0.0
 230
1.0
  2
SOLID
 70
         1
 71
        1
 91
        1
  92
     1
  93
     1
 72
     2
 10
-77.35
 20
12.56
  40
0.25
  50
     0.0
  51
     360.0
 73
     0
  97
     1
  330
    130
 75
     0
 76
     1
  98
     1
 10
0.0
 20
0.0
  0
CIRCLE
  5
84
100
AcDbEntity
  8
ASSEMBLY_OUTLINES_TOP
100
AcDbCircle
 10
-77.35
 20
14.56
 30
0.0
 40
0.25
  0
HATCH
  5
85
100
AcDbEntity
  8
ASSEMBLY_OUTLINES_TOP
100
AcDbHatch
 10
0.0
 20
0.0
 30
0.0
 210
0.0
 220
0.0
 230
1.0
  2
SOLID
 70
         1
 71
        1
 91
        1
  92
     1
  93
     1
 72
     2
 10
-77.35
 20
14.56
  40
0.25
  50
     0.0
  51
     360.0
 73
     0
  97
     1
  330
    132
 75
     0
 76
     1
  98
     1
 10
0.0
 20
0.0
  0
CIRCLE
  5
86
100
AcDbEntity
  8
ASSEMBLY_OUTLINES_TOP
100
AcDbCircle
 10
-77.35
 20
16.56
 30
0.0
 40
0.25
  0
HATCH
  5
87
100
AcDbEntity
  8
ASSEMBLY_OUTLINES_TOP
100
AcDbHatch
 10
0.0
 20
0.0
 30
0.0
 210
0.0
 220
0.0
 230
1.0
  2
SOLID
 70
         1
 71
        1
 91
        1
  92
     1
  93
     1
 72
     2
 10
-77.35
 20
16.56
  40
0.25
  50
     0.0
  51
     360.0
 73
     0
  97
     1
  330
    134
 75
     0
 76
     1
  98
     1
 10
0.0
 20
0.0
  0
CIRCLE
  5
88
100
AcDbEntity
  8
ASSEMBLY_OUTLINES_TOP
100
AcDbCircle
 10
-77.35
 20
18.56
 30
0.0
 40
0.25
  0
HATCH
  5
89
100
AcDbEntity
  8
ASSEMBLY_OUTLINES_TOP
100
AcDbHatch
 10
0.0
 20
0.0
 30
0.0
 210
0.0
 220
0.0
 230
1.0
  2
SOLID
 70
         1
 71
        1
 91
        1
  92
     1
  93
     1
 72
     2
 10
-77.35
 20
18.56
  40
0.25
  50
     0.0
  51
     360.0
 73
     0
  97
     1
  330
    136
 75
     0
 76
     1
  98
     1
 10
0.0
 20
0.0
  0
CIRCLE
  5
8A
100
AcDbEntity
  8
ASSEMBLY_OUTLINES_TOP
100
AcDbCircle
 10
-77.35
 20
20.56
 30
0.0
 40
0.25
  0
HATCH
  5
8B
100
AcDbEntity
  8
ASSEMBLY_OUTLINES_TOP
100
AcDbHatch
 10
0.0
 20
0.0
 30
0.0
 210
0.0
 220
0.0
 230
1.0
  2
SOLID
 70
         1
 71
        1
 91
        1
  92
     1
  93
     1
 72
     2
 10
-77.35
 20
20.56
  40
0.25
  50
     0.0
  51
     360.0
 73
     0
  97
     1
  330
    138
 75
     0
 76
     1
  98
     1
 10
0.0
 20
0.0
  0
CIRCLE
  5
8C
100
AcDbEntity
  8
ASSEMBLY_OUTLINES_TOP
100
AcDbCircle
 10
-77.35
 20
22.56
 30
0.0
 40
0.25
  0
HATCH
  5
8D
100
AcDbEntity
  8
ASSEMBLY_OUTLINES_TOP
100
AcDbHatch
 10
0.0
 20
0.0
 30
0.0
 210
0.0
 220
0.0
 230
1.0
  2
SOLID
 70
         1
 71
        1
 91
        1
  92
     1
  93
     1
 72
     2
 10
-77.35
 20
22.56
  40
0.25
  50
     0.0
  51
     360.0
 73
     0
  97
     1
  330
    140
 75
     0
 76
     1
  98
     1
 10
0.0
 20
0.0
  0
CIRCLE
  5
8E
100
AcDbEntity
  8
ASSEMBLY_OUTLINES_TOP
100
AcDbCircle
 10
-77.35
 20
24.56
 30
0.0
 40
0.25
  0
HATCH
  5
8F
100
AcDbEntity
  8
ASSEMBLY_OUTLINES_TOP
100
AcDbHatch
 10
0.0
 20
0.0
 30
0.0
 210
0.0
 220
0.0
 230
1.0
  2
SOLID
 70
         1
 71
        1
 91
        1
  92
     1
  93
     1
 72
     2
 10
-77.35
 20
24.56
  40
0.25
  50
     0.0
  51
     360.0
 73
     0
  97
     1
  330
    142
 75
     0
 76
     1
  98
     1
 10
0.0
 20
0.0
  0
CIRCLE
  5
90
100
AcDbEntity
  8
ASSEMBLY_OUTLINES_TOP
100
AcDbCircle
 10
-77.35
 20
26.56
 30
0.0
 40
0.25
  0
HATCH
  5
91
100
AcDbEntity
  8
ASSEMBLY_OUTLINES_TOP
100
AcDbHatch
 10
0.0
 20
0.0
 30
0.0
 210
0.0
 220
0.0
 230
1.0
  2
SOLID
 70
         1
 71
        1
 91
        1
  92
     1
  93
     1
 72
     2
 10
-77.35
 20
26.56
  40
0.25
  50
     0.0
  51
     360.0
 73
     0
  97
     1
  330
    144
 75
     0
 76
     1
  98
     1
 10
0.0
 20
0.0
  0
CIRCLE
  5
92
100
AcDbEntity
  8
ASSEMBLY_OUTLINES_TOP
100
AcDbCircle
 10
-77.35
 20
28.56
 30
0.0
 40
0.25
  0
HATCH
  5
93
100
AcDbEntity
  8
ASSEMBLY_OUTLINES_TOP
100
AcDbHatch
 10
0.0
 20
0.0
 30
0.0
 210
0.0
 220
0.0
 230
1.0
  2
SOLID
 70
         1
 71
        1
 91
        1
  92
     1
  93
     1
 72
     2
 10
-77.35
 20
28.56
  40
0.25
  50
     0.0
  51
     360.0
 73
     0
  97
     1
  330
    146
 75
     0
 76
     1
  98
     1
 10
0.0
 20
0.0
  0
CIRCLE
  5
94
100
AcDbEntity
  8
ASSEMBLY_OUTLINES_TOP
100
AcDbCircle
 10
-77.35
 20
30.56
 30
0.0
 40
0.25
  0
HATCH
  5
95
100
AcDbEntity
  8
ASSEMBLY_OUTLINES_TOP
100
AcDbHatch
 10
0.0
 20
0.0
 30
0.0
 210
0.0
 220
0.0
 230
1.0
  2
SOLID
 70
         1
 71
        1
 91
        1
  92
     1
  93
     1
 72
     2
 10
-77.35
 20
30.56
  40
0.25
  50
     0.0
  51
     360.0
 73
     0
  97
     1
  330
    148
 75
     0
 76
     1
  98
     1
 10
0.0
 20
0.0
  0
CIRCLE
  5
96
100
AcDbEntity
  8
ASSEMBLY_OUTLINES_TOP
100
AcDbCircle
 10
-77.35
 20
32.56
 30
0.0
 40
0.25
  0
HATCH
  5
97
100
AcDbEntity
  8
ASSEMBLY_OUTLINES_TOP
100
AcDbHatch
 10
0.0
 20
0.0
 30
0.0
 210
0.0
 220
0.0
 230
1.0
  2
SOLID
 70
         1
 71
        1
 91
        1
  92
     1
  93
     1
 72
     2
 10
-77.35
 20
32.56
  40
0.25
  50
     0.0
  51
     360.0
 73
     0
  97
     1
  330
    150
 75
     0
 76
     1
  98
     1
 10
0.0
 20
0.0
  0
CIRCLE
  5
98
100
AcDbEntity
  8
ASSEMBLY_OUTLINES_TOP
100
AcDbCircle
 10
-77.35
 20
34.56
 30
0.0
 40
0.25
  0
HATCH
  5
99
100
AcDbEntity
  8
ASSEMBLY_OUTLINES_TOP
100
AcDbHatch
 10
0.0
 20
0.0
 30
0.0
 210
0.0
 220
0.0
 230
1.0
  2
SOLID
 70
         1
 71
        1
 91
        1
  92
     1
  93
     1
 72
     2
 10
-77.35
 20
34.56
  40
0.25
  50
     0.0
  51
     360.0
 73
     0
  97
     1
  330
    152
 75
     0
 76
     1
  98
     1
 10
0.0
 20
0.0
  0
CIRCLE
  5
9A
100
AcDbEntity
  8
ASSEMBLY_OUTLINES_TOP
100
AcDbCircle
 10
-77.35
 20
36.56
 30
0.0
 40
0.25
  0
HATCH
  5
9B
100
AcDbEntity
  8
ASSEMBLY_OUTLINES_TOP
100
AcDbHatch
 10
0.0
 20
0.0
 30
0.0
 210
0.0
 220
0.0
 230
1.0
  2
SOLID
 70
         1
 71
        1
 91
        1
  92
     1
  93
     1
 72
     2
 10
-77.35
 20
36.56
  40
0.25
  50
     0.0
  51
     360.0
 73
     0
  97
     1
  330
    154
 75
     0
 76
     1
  98
     1
 10
0.0
 20
0.0
  0
CIRCLE
  5
9C
100
AcDbEntity
  8
ASSEMBLY_OUTLINES_TOP
100
AcDbCircle
 10
-77.35
 20
38.56
 30
0.0
 40
0.25
  0
HATCH
  5
9D
100
AcDbEntity
  8
ASSEMBLY_OUTLINES_TOP
100
AcDbHatch
 10
0.0
 20
0.0
 30
0.0
 210
0.0
 220
0.0
 230
1.0
  2
SOLID
 70
         1
 71
        1
 91
        1
  92
     1
  93
     1
 72
     2
 10
-77.35
 20
38.56
  40
0.25
  50
     0.0
  51
     360.0
 73
     0
  97
     1
  330
    156
 75
     0
 76
     1
  98
     1
 10
0.0
 20
0.0
  0
CIRCLE
  5
9E
100
AcDbEntity
  8
ASSEMBLY_OUTLINES_TOP
100
AcDbCircle
 10
-77.35
 20
40.56
 30
0.0
 40
0.25
  0
HATCH
  5
9F
100
AcDbEntity
  8
ASSEMBLY_OUTLINES_TOP
100
AcDbHatch
 10
0.0
 20
0.0
 30
0.0
 210
0.0
 220
0.0
 230
1.0
  2
SOLID
 70
         1
 71
        1
 91
        1
  92
     1
  93
     1
 72
     2
 10
-77.35
 20
40.56
  40
0.25
  50
     0.0
  51
     360.0
 73
     0
  97
     1
  330
    158
 75
     0
 76
     1
  98
     1
 10
0.0
 20
0.0
  0
CIRCLE
  5
A0
100
AcDbEntity
  8
ASSEMBLY_OUTLINES_TOP
100
AcDbCircle
 10
-77.35
 20
42.56
 30
0.0
 40
0.25
  0
HATCH
  5
A1
100
AcDbEntity
  8
ASSEMBLY_OUTLINES_TOP
100
AcDbHatch
 10
0.0
 20
0.0
 30
0.0
 210
0.0
 220
0.0
 230
1.0
  2
SOLID
 70
         1
 71
        1
 91
        1
  92
     1
  93
     1
 72
     2
 10
-77.35
 20
42.56
  40
0.25
  50
     0.0
  51
     360.0
 73
     0
  97
     1
  330
    160
 75
     0
 76
     1
  98
     1
 10
0.0
 20
0.0
  0
CIRCLE
  5
A2
100
AcDbEntity
  8
ASSEMBLY_OUTLINES_TOP
100
AcDbCircle
 10
-77.35
 20
44.56
 30
0.0
 40
0.25
  0
HATCH
  5
A3
100
AcDbEntity
  8
ASSEMBLY_OUTLINES_TOP
100
AcDbHatch
 10
0.0
 20
0.0
 30
0.0
 210
0.0
 220
0.0
 230
1.0
  2
SOLID
 70
         1
 71
        1
 91
        1
  92
     1
  93
     1
 72
     2
 10
-77.35
 20
44.56
  40
0.25
  50
     0.0
  51
     360.0
 73
     0
  97
     1
  330
    162
 75
     0
 76
     1
  98
     1
 10
0.0
 20
0.0
  0
CIRCLE
  5
A4
100
AcDbEntity
  8
ASSEMBLY_OUTLINES_TOP
100
AcDbCircle
 10
-77.35
 20
46.56
 30
0.0
 40
0.25
  0
HATCH
  5
A5
100
AcDbEntity
  8
ASSEMBLY_OUTLINES_TOP
100
AcDbHatch
 10
0.0
 20
0.0
 30
0.0
 210
0.0
 220
0.0
 230
1.0
  2
SOLID
 70
         1
 71
        1
 91
        1
  92
     1
  93
     1
 72
     2
 10
-77.35
 20
46.56
  40
0.25
  50
     0.0
  51
     360.0
 73
     0
  97
     1
  330
    164
 75
     0
 76
     1
  98
     1
 10
0.0
 20
0.0
  0
LWPOLYLINE
  5
A6
100
AcDbEntity
  8
ASSEMBLY_OUTLINES_TOP
100
AcDbPolyline
 90
        4
 70
         1
 43
0.1
 10
-55.95
 20
12.75
 10
-55.95
 20
14.05
 10
-53.15
 20
14.05
 10
-53.15
 20
12.75
  0
LWPOLYLINE
  5
A7
100
AcDbEntity
  8
ASSEMBLY_OUTLINES_TOP
100
AcDbPolyline
 90
        4
 70
         1
 43
0.1
 10
-56.55
 20
14.25
 10
-56.55
 20
17.15
 10
-55.25
 20
17.15
 10
-55.25
 20
14.25
  0
LWPOLYLINE
  5
A8
100
AcDbEntity
  8
ASSEMBLY_OUTLINES_TOP
100
AcDbPolyline
 90
        4
 70
         1
 43
0.0
 10
-76.15
 20
0.5
 10
-76.15
 20
2.5
 10
-64.15
 20
2.5
 10
-64.15
 20
0.5
  0
LWPOLYLINE
  5
A9
100
AcDbEntity
  8
ASSEMBLY_OUTLINES_TOP
100
AcDbPolyline
 90
        4
 70
         1
 43
0.1
 10
-79.6
 20
5.35
 10
-79.6
 20
7.05
 10
-76.5
 20
7.05
 10
-76.5
 20
5.35
  0
LWPOLYLINE
  5
AA
100
AcDbEntity
  8
ASSEMBLY_OUTLINES_TOP
100
AcDbPolyline
 90
        2
 70
         0
 43
0.1
 10
-79.5
 20
5.35
 10
-79.5
 20
7.05
  0
LWPOLYLINE
  5
AB
100
AcDbEntity
  8
ASSEMBLY_OUTLINES_TOP
100
AcDbPolyline
 90
        2
 70
         0
 43
0.1
 10
-79.4
 20
5.35
 10
-79.4
 20
7.05
  0
LWPOLYLINE
  5
AC
100
AcDbEntity
  8
ASSEMBLY_OUTLINES_TOP
100
AcDbPolyline
 90
        2
 70
         0
 43
0.1
 10
-79.3
 20
5.35
 10
-79.3
 20
7.05
  0
LWPOLYLINE
  5
AD
100
AcDbEntity
  8
ASSEMBLY_OUTLINES_TOP
100
AcDbPolyline
 90
        2
 70
         0
 43
0.1
 10
-79.2
 20
5.35
 10
-79.2
 20
7.05
  0
LWPOLYLINE
  5
AE
100
AcDbEntity
  8
ASSEMBLY_OUTLINES_TOP
100
AcDbPolyline
 90
        2
 70
         0
 43
0.1
 10
-79.1
 20
5.35
 10
-79.1
 20
7.05
  0
LWPOLYLINE
  5
AF
100
AcDbEntity
  8
ASSEMBLY_OUTLINES_TOP
100
AcDbPolyline
 90
        2
 70
         0
 43
0.1
 10
-79.0
 20
5.35
 10
-79.0
 20
7.05
  0
LWPOLYLINE
  5
B0
100
AcDbEntity
  8
ASSEMBLY_OUTLINES_TOP
100
AcDbPolyline
 90
        4
 70
         1
 43
0.1
 10
-55.15
 20
17.9
 10
-55.15
 20
20.7
 10
-53.85
 20
20.7
 10
-53.85
 20
17.9
  0
LWPOLYLINE
  5
B1
100
AcDbEntity
  8
ASSEMBLY_OUTLINES_TOP
100
AcDbPolyline
 90
        4
 70
         1
 43
0.1
 10
-55.2
 20
14.25
 10
-55.2
 20
17.15
 10
-53.9
 20
17.15
 10
-53.9
 20
14.25
  0
LWPOLYLINE
  5
B2
100
AcDbEntity
  8
ASSEMBLY_OUTLINES_TOP
100
AcDbPolyline
 90
        4
 70
         1
 43
0.0
 10
-63.495906
 20
1.0
 10
-63.495906
 20
30.8
 10
-57.495906
 20
30.8
 10
-57.495906
 20
1.0
  0
LWPOLYLINE
  5
B3
100
AcDbEntity
  8
ASSEMBLY_OUTLINES_TOP
100
AcDbPolyline
 90
        4
 70
         1
 43
0.1
 10
-53.95
 20
9.05
 10
-53.95
 20
11.85
 10
-52.65
 20
11.85
 10
-52.65
 20
9.05
  0
LWPOLYLINE
  5
B4
100
AcDbEntity
  8
ASSEMBLY_OUTLINES_TOP
100
AcDbPolyline
 90
        4
 70
         1
 43
0.1
 10
-54.5
 20
5.15
 10
-54.5
 20
8.05
 10
-53.2
 20
8.05
 10
-53.2
 20
5.15
  0
LWPOLYLINE
  5
B5
100
AcDbEntity
  8
ASSEMBLY_OUTLINES_TOP
100
AcDbPolyline
 90
        4
 70
         1
 43
0.0
 10
-78.96
 20
54.8
 10
-78.96
 20
58.9
 10
-38.96
 20
58.9
 10
-38.96
 20
54.8
  0
CIRCLE
  5
B6
100
AcDbEntity
  8
ASSEMBLY_OUTLINES_TOP
100
AcDbCircle
 10
-75.96
 20
57.9
 30
0.0
 40
0.25
  0
HATCH
  5
B7
100
AcDbEntity
  8
ASSEMBLY_OUTLINES_TOP
100
AcDbHatch
 10
0.0
 20
0.0
 30
0.0
 210
0.0
 220
0.0
 230
1.0
  2
SOLID
 70
         1
 71
        1
 91
        1
  92
     1
  93
     1
 72
     2
 10
-75.96
 20
57.9
  40
0.25
  50
     0.0
  51
     360.0
 73
     0
  97
     1
  330
    182
 75
     0
 76
     1
  98
     1
 10
0.0
 20
0.0
  0
CIRCLE
  5
B8
100
AcDbEntity
  8
ASSEMBLY_OUTLINES_TOP
100
AcDbCircle
 10
-75.96
 20
55.9
 30
0.0
 40
0.25
  0
HATCH
  5
B9
100
AcDbEntity
  8
ASSEMBLY_OUTLINES_TOP
100
AcDbHatch
 10
0.0
 20
0.0
 30
0.0
 210
0.0
 220
0.0
 230
1.0
  2
SOLID
 70
         1
 71
        1
 91
        1
  92
     1
  93
     1
 72
     2
 10
-75.96
 20
55.9
  40
0.25
  50
     0.0
  51
     360.0
 73
     0
  97
     1
  330
    184
 75
     0
 76
     1
  98
     1
 10
0.0
 20
0.0
  0
CIRCLE
  5
BA
100
AcDbEntity
  8
ASSEMBLY_OUTLINES_TOP
100
AcDbCircle
 10
-77.96
 20
55.9
 30
0.0
 40
0.25
  0
HATCH
  5
BB
100
AcDbEntity
  8
ASSEMBLY_OUTLINES_TOP
100
AcDbHatch
 10
0.0
 20
0.0
 30
0.0
 210
0.0
 220
0.0
 230
1.0
  2
SOLID
 70
         1
 71
        1
 91
        1
  92
     1
  93
     1
 72
     2
 10
-77.96
 20
55.9
  40
0.25
  50
     0.0
  51
     360.0
 73
     0
  97
     1
  330
    186
 75
     0
 76
     1
  98
     1
 10
0.0
 20
0.0
  0
CIRCLE
  5
BC
100
AcDbEntity
  8
ASSEMBLY_OUTLINES_TOP
100
AcDbCircle
 10
-73.96
 20
55.9
 30
0.0
 40
0.25
  0
HATCH
  5
BD
100
AcDbEntity
  8
ASSEMBLY_OUTLINES_TOP
100
AcDbHatch
 10
0.0
 20
0.0
 30
0.0
 210
0.0
 220
0.0
 230
1.0
  2
SOLID
 70
         1
 71
        1
 91
        1
  92
     1
  93
     1
 72
     2
 10
-73.96
 20
55.9
  40
0.25
  50
     0.0
  51
     360.0
 73
     0
  97
     1
  330
    188
 75
     0
 76
     1
  98
     1
 10
0.0
 20
0.0
  0
CIRCLE
  5
BE
100
AcDbEntity
  8
ASSEMBLY_OUTLINES_TOP
100
AcDbCircle
 10
-71.96
 20
55.9
 30
0.0
 40
0.25
  0
HATCH
  5
BF
100
AcDbEntity
  8
ASSEMBLY_OUTLINES_TOP
100
AcDbHatch
 10
0.0
 20
0.0
 30
0.0
 210
0.0
 220
0.0
 230
1.0
  2
SOLID
 70
         1
 71
        1
 91
        1
  92
     1
  93
     1
 72
     2
 10
-71.96
 20
55.9
  40
0.25
  50
     0.0
  51
     360.0
 73
     0
  97
     1
  330
    190
 75
     0
 76
     1
  98
     1
 10
0.0
 20
0.0
  0
CIRCLE
  5
C0
100
AcDbEntity
  8
ASSEMBLY_OUTLINES_TOP
100
AcDbCircle
 10
-69.96
 20
55.9
 30
0.0
 40
0.25
  0
HATCH
  5
C1
100
AcDbEntity
  8
ASSEMBLY_OUTLINES_TOP
100
AcDbHatch
 10
0.0
 20
0.0
 30
0.0
 210
0.0
 220
0.0
 230
1.0
  2
SOLID
 70
         1
 71
        1
 91
        1
  92
     1
  93
     1
 72
     2
 10
-69.96
 20
55.9
  40
0.25
  50
     0.0
  51
     360.0
 73
     0
  97
     1
  330
    192
 75
     0
 76
     1
  98
     1
 10
0.0
 20
0.0
  0
CIRCLE
  5
C2
100
AcDbEntity
  8
ASSEMBLY_OUTLINES_TOP
100
AcDbCircle
 10
-67.96
 20
55.9
 30
0.0
 40
0.25
  0
HATCH
  5
C3
100
AcDbEntity
  8
ASSEMBLY_OUTLINES_TOP
100
AcDbHatch
 10
0.0
 20
0.0
 30
0.0
 210
0.0
 220
0.0
 230
1.0
  2
SOLID
 70
         1
 71
        1
 91
        1
  92
     1
  93
     1
 72
     2
 10
-67.96
 20
55.9
  40
0.25
  50
     0.0
  51
     360.0
 73
     0
  97
     1
  330
    194
 75
     0
 76
     1
  98
     1
 10
0.0
 20
0.0
  0
CIRCLE
  5
C4
100
AcDbEntity
  8
ASSEMBLY_OUTLINES_TOP
100
AcDbCircle
 10
-65.96
 20
55.9
 30
0.0
 40
0.25
  0
HATCH
  5
C5
100
AcDbEntity
  8
ASSEMBLY_OUTLINES_TOP
100
AcDbHatch
 10
0.0
 20
0.0
 30
0.0
 210
0.0
 220
0.0
 230
1.0
  2
SOLID
 70
         1
 71
        1
 91
        1
  92
     1
  93
     1
 72
     2
 10
-65.96
 20
55.9
  40
0.25
  50
     0.0
  51
     360.0
 73
     0
  97
     1
  330
    196
 75
     0
 76
     1
  98
     1
 10
0.0
 20
0.0
  0
CIRCLE
  5
C6
100
AcDbEntity
  8
ASSEMBLY_OUTLINES_TOP
100
AcDbCircle
 10
-63.96
 20
55.9
 30
0.0
 40
0.25
  0
HATCH
  5
C7
100
AcDbEntity
  8
ASSEMBLY_OUTLINES_TOP
100
AcDbHatch
 10
0.0
 20
0.0
 30
0.0
 210
0.0
 220
0.0
 230
1.0
  2
SOLID
 70
         1
 71
        1
 91
        1
  92
     1
  93
     1
 72
     2
 10
-63.96
 20
55.9
  40
0.25
  50
     0.0
  51
     360.0
 73
     0
  97
     1
  330
    198
 75
     0
 76
     1
  98
     1
 10
0.0
 20
0.0
  0
CIRCLE
  5
C8
100
AcDbEntity
  8
ASSEMBLY_OUTLINES_TOP
100
AcDbCircle
 10
-61.96
 20
55.9
 30
0.0
 40
0.25
  0
HATCH
  5
C9
100
AcDbEntity
  8
ASSEMBLY_OUTLINES_TOP
100
AcDbHatch
 10
0.0
 20
0.0
 30
0.0
 210
0.0
 220
0.0
 230
1.0
  2
SOLID
 70
         1
 71
        1
 91
        1
  92
     1
  93
     1
 72
     2
 10
-61.96
 20
55.9
  40
0.25
  50
     0.0
  51
     360.0
 73
     0
  97
     1
  330
    200
 75
     0
 76
     1
  98
     1
 10
0.0
 20
0.0
  0
CIRCLE
  5
CA
100
AcDbEntity
  8
ASSEMBLY_OUTLINES_TOP
100
AcDbCircle
 10
-59.96
 20
55.9
 30
0.0
 40
0.25
  0
HATCH
  5
CB
100
AcDbEntity
  8
ASSEMBLY_OUTLINES_TOP
100
AcDbHatch
 10
0.0
 20
0.0
 30
0.0
 210
0.0
 220
0.0
 230
1.0
  2
SOLID
 70
         1
 71
        1
 91
        1
  92
     1
  93
     1
 72
     2
 10
-59.96
 20
55.9
  40
0.25
  50
     0.0
  51
     360.0
 73
     0
  97
     1
  330
    202
 75
     0
 76
     1
  98
     1
 10
0.0
 20
0.0
  0
CIRCLE
  5
CC
100
AcDbEntity
  8
ASSEMBLY_OUTLINES_TOP
100
AcDbCircle
 10
-57.96
 20
55.9
 30
0.0
 40
0.25
  0
HATCH
  5
CD
100
AcDbEntity
  8
ASSEMBLY_OUTLINES_TOP
100
AcDbHatch
 10
0.0
 20
0.0
 30
0.0
 210
0.0
 220
0.0
 230
1.0
  2
SOLID
 70
         1
 71
        1
 91
        1
  92
     1
  93
     1
 72
     2
 10
-57.96
 20
55.9
  40
0.25
  50
     0.0
  51
     360.0
 73
     0
  97
     1
  330
    204
 75
     0
 76
     1
  98
     1
 10
0.0
 20
0.0
  0
CIRCLE
  5
CE
100
AcDbEntity
  8
ASSEMBLY_OUTLINES_TOP
100
AcDbCircle
 10
-55.96
 20
55.9
 30
0.0
 40
0.25
  0
HATCH
  5
CF
100
AcDbEntity
  8
ASSEMBLY_OUTLINES_TOP
100
AcDbHatch
 10
0.0
 20
0.0
 30
0.0
 210
0.0
 220
0.0
 230
1.0
  2
SOLID
 70
         1
 71
        1
 91
        1
  92
     1
  93
     1
 72
     2
 10
-55.96
 20
55.9
  40
0.25
  50
     0.0
  51
     360.0
 73
     0
  97
     1
  330
    206
 75
     0
 76
     1
  98
     1
 10
0.0
 20
0.0
  0
CIRCLE
  5
D0
100
AcDbEntity
  8
ASSEMBLY_OUTLINES_TOP
100
AcDbCircle
 10
-53.96
 20
55.9
 30
0.0
 40
0.25
  0
HATCH
  5
D1
100
AcDbEntity
  8
ASSEMBLY_OUTLINES_TOP
100
AcDbHatch
 10
0.0
 20
0.0
 30
0.0
 210
0.0
 220
0.0
 230
1.0
  2
SOLID
 70
         1
 71
        1
 91
        1
  92
     1
  93
     1
 72
     2
 10
-53.96
 20
55.9
  40
0.25
  50
     0.0
  51
     360.0
 73
     0
  97
     1
  330
    208
 75
     0
 76
     1
  98
     1
 10
0.0
 20
0.0
  0
CIRCLE
  5
D2
100
AcDbEntity
  8
ASSEMBLY_OUTLINES_TOP
100
AcDbCircle
 10
-51.96
 20
55.9
 30
0.0
 40
0.25
  0
HATCH
  5
D3
100
AcDbEntity
  8
ASSEMBLY_OUTLINES_TOP
100
AcDbHatch
 10
0.0
 20
0.0
 30
0.0
 210
0.0
 220
0.0
 230
1.0
  2
SOLID
 70
         1
 71
        1
 91
        1
  92
     1
  93
     1
 72
     2
 10
-51.96
 20
55.9
  40
0.25
  50
     0.0
  51
     360.0
 73
     0
  97
     1
  330
    210
 75
     0
 76
     1
  98
     1
 10
0.0
 20
0.0
  0
CIRCLE
  5
D4
100
AcDbEntity
  8
ASSEMBLY_OUTLINES_TOP
100
AcDbCircle
 10
-49.96
 20
55.9
 30
0.0
 40
0.25
  0
HATCH
  5
D5
100
AcDbEntity
  8
ASSEMBLY_OUTLINES_TOP
100
AcDbHatch
 10
0.0
 20
0.0
 30
0.0
 210
0.0
 220
0.0
 230
1.0
  2
SOLID
 70
         1
 71
        1
 91
        1
  92
     1
  93
     1
 72
     2
 10
-49.96
 20
55.9
  40
0.25
  50
     0.0
  51
     360.0
 73
     0
  97
     1
  330
    212
 75
     0
 76
     1
  98
     1
 10
0.0
 20
0.0
  0
CIRCLE
  5
D6
100
AcDbEntity
  8
ASSEMBLY_OUTLINES_TOP
100
AcDbCircle
 10
-47.96
 20
55.9
 30
0.0
 40
0.25
  0
HATCH
  5
D7
100
AcDbEntity
  8
ASSEMBLY_OUTLINES_TOP
100
AcDbHatch
 10
0.0
 20
0.0
 30
0.0
 210
0.0
 220
0.0
 230
1.0
  2
SOLID
 70
         1
 71
        1
 91
        1
  92
     1
  93
     1
 72
     2
 10
-47.96
 20
55.9
  40
0.25
  50
     0.0
  51
     360.0
 73
     0
  97
     1
  330
    214
 75
     0
 76
     1
  98
     1
 10
0.0
 20
0.0
  0
CIRCLE
  5
D8
100
AcDbEntity
  8
ASSEMBLY_OUTLINES_TOP
100
AcDbCircle
 10
-45.96
 20
55.9
 30
0.0
 40
0.25
  0
HATCH
  5
D9
100
AcDbEntity
  8
ASSEMBLY_OUTLINES_TOP
100
AcDbHatch
 10
0.0
 20
0.0
 30
0.0
 210
0.0
 220
0.0
 230
1.0
  2
SOLID
 70
         1
 71
        1
 91
        1
  92
     1
  93
     1
 72
     2
 10
-45.96
 20
55.9
  40
0.25
  50
     0.0
  51
     360.0
 73
     0
  97
     1
  330
    216
 75
     0
 76
     1
  98
     1
 10
0.0
 20
0.0
  0
CIRCLE
  5
DA
100
AcDbEntity
  8
ASSEMBLY_OUTLINES_TOP
100
AcDbCircle
 10
-43.96
 20
55.9
 30
0.0
 40
0.25
  0
HATCH
  5
DB
100
AcDbEntity
  8
ASSEMBLY_OUTLINES_TOP
100
AcDbHatch
 10
0.0
 20
0.0
 30
0.0
 210
0.0
 220
0.0
 230
1.0
  2
SOLID
 70
         1
 71
        1
 91
        1
  92
     1
  93
     1
 72
     2
 10
-43.96
 20
55.9
  40
0.25
  50
     0.0
  51
     360.0
 73
     0
  97
     1
  330
    218
 75
     0
 76
     1
  98
     1
 10
0.0
 20
0.0
  0
CIRCLE
  5
DC
100
AcDbEntity
  8
ASSEMBLY_OUTLINES_TOP
100
AcDbCircle
 10
-41.96
 20
55.9
 30
0.0
 40
0.25
  0
HATCH
  5
DD
100
AcDbEntity
  8
ASSEMBLY_OUTLINES_TOP
100
AcDbHatch
 10
0.0
 20
0.0
 30
0.0
 210
0.0
 220
0.0
 230
1.0
  2
SOLID
 70
         1
 71
        1
 91
        1
  92
     1
  93
     1
 72
     2
 10
-41.96
 20
55.9
  40
0.25
  50
     0.0
  51
     360.0
 73
     0
  97
     1
  330
    220
 75
     0
 76
     1
  98
     1
 10
0.0
 20
0.0
  0
CIRCLE
  5
DE
100
AcDbEntity
  8
ASSEMBLY_OUTLINES_TOP
100
AcDbCircle
 10
-39.96
 20
55.9
 30
0.0
 40
0.25
  0
HATCH
  5
DF
100
AcDbEntity
  8
ASSEMBLY_OUTLINES_TOP
100
AcDbHatch
 10
0.0
 20
0.0
 30
0.0
 210
0.0
 220
0.0
 230
1.0
  2
SOLID
 70
         1
 71
        1
 91
        1
  92
     1
  93
     1
 72
     2
 10
-39.96
 20
55.9
  40
0.25
  50
     0.0
  51
     360.0
 73
     0
  97
     1
  330
    222
 75
     0
 76
     1
  98
     1
 10
0.0
 20
0.0
  0
CIRCLE
  5
E0
100
AcDbEntity
  8
ASSEMBLY_OUTLINES_TOP
100
AcDbCircle
 10
-77.96
 20
57.9
 30
0.0
 40
0.25
  0
HATCH
  5
E1
100
AcDbEntity
  8
ASSEMBLY_OUTLINES_TOP
100
AcDbHatch
 10
0.0
 20
0.0
 30
0.0
 210
0.0
 220
0.0
 230
1.0
  2
SOLID
 70
         1
 71
        1
 91
        1
  92
     1
  93
     1
 72
     2
 10
-77.96
 20
57.9
  40
0.25
  50
     0.0
  51
     360.0
 73
     0
  97
     1
  330
    224
 75
     0
 76
     1
  98
     1
 10
0.0
 20
0.0
  0
CIRCLE
  5
E2
100
AcDbEntity
  8
ASSEMBLY_OUTLINES_TOP
100
AcDbCircle
 10
-73.96
 20
57.9
 30
0.0
 40
0.25
  0
HATCH
  5
E3
100
AcDbEntity
  8
ASSEMBLY_OUTLINES_TOP
100
AcDbHatch
 10
0.0
 20
0.0
 30
0.0
 210
0.0
 220
0.0
 230
1.0
  2
SOLID
 70
         1
 71
        1
 91
        1
  92
     1
  93
     1
 72
     2
 10
-73.96
 20
57.9
  40
0.25
  50
     0.0
  51
     360.0
 73
     0
  97
     1
  330
    226
 75
     0
 76
     1
  98
     1
 10
0.0
 20
0.0
  0
CIRCLE
  5
E4
100
AcDbEntity
  8
ASSEMBLY_OUTLINES_TOP
100
AcDbCircle
 10
-71.96
 20
57.9
 30
0.0
 40
0.25
  0
HATCH
  5
E5
100
AcDbEntity
  8
ASSEMBLY_OUTLINES_TOP
100
AcDbHatch
 10
0.0
 20
0.0
 30
0.0
 210
0.0
 220
0.0
 230
1.0
  2
SOLID
 70
         1
 71
        1
 91
        1
  92
     1
  93
     1
 72
     2
 10
-71.96
 20
57.9
  40
0.25
  50
     0.0
  51
     360.0
 73
     0
  97
     1
  330
    228
 75
     0
 76
     1
  98
     1
 10
0.0
 20
0.0
  0
CIRCLE
  5
E6
100
AcDbEntity
  8
ASSEMBLY_OUTLINES_TOP
100
AcDbCircle
 10
-69.96
 20
57.9
 30
0.0
 40
0.25
  0
HATCH
  5
E7
100
AcDbEntity
  8
ASSEMBLY_OUTLINES_TOP
100
AcDbHatch
 10
0.0
 20
0.0
 30
0.0
 210
0.0
 220
0.0
 230
1.0
  2
SOLID
 70
         1
 71
        1
 91
        1
  92
     1
  93
     1
 72
     2
 10
-69.96
 20
57.9
  40
0.25
  50
     0.0
  51
     360.0
 73
     0
  97
     1
  330
    230
 75
     0
 76
     1
  98
     1
 10
0.0
 20
0.0
  0
CIRCLE
  5
E8
100
AcDbEntity
  8
ASSEMBLY_OUTLINES_TOP
100
AcDbCircle
 10
-67.96
 20
57.9
 30
0.0
 40
0.25
  0
HATCH
  5
E9
100
AcDbEntity
  8
ASSEMBLY_OUTLINES_TOP
100
AcDbHatch
 10
0.0
 20
0.0
 30
0.0
 210
0.0
 220
0.0
 230
1.0
  2
SOLID
 70
         1
 71
        1
 91
        1
  92
     1
  93
     1
 72
     2
 10
-67.96
 20
57.9
  40
0.25
  50
     0.0
  51
     360.0
 73
     0
  97
     1
  330
    232
 75
     0
 76
     1
  98
     1
 10
0.0
 20
0.0
  0
CIRCLE
  5
EA
100
AcDbEntity
  8
ASSEMBLY_OUTLINES_TOP
100
AcDbCircle
 10
-65.96
 20
57.9
 30
0.0
 40
0.25
  0
HATCH
  5
EB
100
AcDbEntity
  8
ASSEMBLY_OUTLINES_TOP
100
AcDbHatch
 10
0.0
 20
0.0
 30
0.0
 210
0.0
 220
0.0
 230
1.0
  2
SOLID
 70
         1
 71
        1
 91
        1
  92
     1
  93
     1
 72
     2
 10
-65.96
 20
57.9
  40
0.25
  50
     0.0
  51
     360.0
 73
     0
  97
     1
  330
    234
 75
     0
 76
     1
  98
     1
 10
0.0
 20
0.0
  0
CIRCLE
  5
EC
100
AcDbEntity
  8
ASSEMBLY_OUTLINES_TOP
100
AcDbCircle
 10
-63.96
 20
57.9
 30
0.0
 40
0.25
  0
HATCH
  5
ED
100
AcDbEntity
  8
ASSEMBLY_OUTLINES_TOP
100
AcDbHatch
 10
0.0
 20
0.0
 30
0.0
 210
0.0
 220
0.0
 230
1.0
  2
SOLID
 70
         1
 71
        1
 91
        1
  92
     1
  93
     1
 72
     2
 10
-63.96
 20
57.9
  40
0.25
  50
     0.0
  51
     360.0
 73
     0
  97
     1
  330
    236
 75
     0
 76
     1
  98
     1
 10
0.0
 20
0.0
  0
CIRCLE
  5
EE
100
AcDbEntity
  8
ASSEMBLY_OUTLINES_TOP
100
AcDbCircle
 10
-61.96
 20
57.9
 30
0.0
 40
0.25
  0
HATCH
  5
EF
100
AcDbEntity
  8
ASSEMBLY_OUTLINES_TOP
100
AcDbHatch
 10
0.0
 20
0.0
 30
0.0
 210
0.0
 220
0.0
 230
1.0
  2
SOLID
 70
         1
 71
        1
 91
        1
  92
     1
  93
     1
 72
     2
 10
-61.96
 20
57.9
  40
0.25
  50
     0.0
  51
     360.0
 73
     0
  97
     1
  330
    238
 75
     0
 76
     1
  98
     1
 10
0.0
 20
0.0
  0
CIRCLE
  5
F0
100
AcDbEntity
  8
ASSEMBLY_OUTLINES_TOP
100
AcDbCircle
 10
-59.96
 20
57.9
 30
0.0
 40
0.25
  0
HATCH
  5
F1
100
AcDbEntity
  8
ASSEMBLY_OUTLINES_TOP
100
AcDbHatch
 10
0.0
 20
0.0
 30
0.0
 210
0.0
 220
0.0
 230
1.0
  2
SOLID
 70
         1
 71
        1
 91
        1
  92
     1
  93
     1
 72
     2
 10
-59.96
 20
57.9
  40
0.25
  50
     0.0
  51
     360.0
 73
     0
  97
     1
  330
    240
 75
     0
 76
     1
  98
     1
 10
0.0
 20
0.0
  0
CIRCLE
  5
F2
100
AcDbEntity
  8
ASSEMBLY_OUTLINES_TOP
100
AcDbCircle
 10
-57.96
 20
57.9
 30
0.0
 40
0.25
  0
HATCH
  5
F3
100
AcDbEntity
  8
ASSEMBLY_OUTLINES_TOP
100
AcDbHatch
 10
0.0
 20
0.0
 30
0.0
 210
0.0
 220
0.0
 230
1.0
  2
SOLID
 70
         1
 71
        1
 91
        1
  92
     1
  93
     1
 72
     2
 10
-57.96
 20
57.9
  40
0.25
  50
     0.0
  51
     360.0
 73
     0
  97
     1
  330
    242
 75
     0
 76
     1
  98
     1
 10
0.0
 20
0.0
  0
CIRCLE
  5
F4
100
AcDbEntity
  8
ASSEMBLY_OUTLINES_TOP
100
AcDbCircle
 10
-55.96
 20
57.9
 30
0.0
 40
0.25
  0
HATCH
  5
F5
100
AcDbEntity
  8
ASSEMBLY_OUTLINES_TOP
100
AcDbHatch
 10
0.0
 20
0.0
 30
0.0
 210
0.0
 220
0.0
 230
1.0
  2
SOLID
 70
         1
 71
        1
 91
        1
  92
     1
  93
     1
 72
     2
 10
-55.96
 20
57.9
  40
0.25
  50
     0.0
  51
     360.0
 73
     0
  97
     1
  330
    244
 75
     0
 76
     1
  98
     1
 10
0.0
 20
0.0
  0
CIRCLE
  5
F6
100
AcDbEntity
  8
ASSEMBLY_OUTLINES_TOP
100
AcDbCircle
 10
-53.96
 20
57.9
 30
0.0
 40
0.25
  0
HATCH
  5
F7
100
AcDbEntity
  8
ASSEMBLY_OUTLINES_TOP
100
AcDbHatch
 10
0.0
 20
0.0
 30
0.0
 210
0.0
 220
0.0
 230
1.0
  2
SOLID
 70
         1
 71
        1
 91
        1
  92
     1
  93
     1
 72
     2
 10
-53.96
 20
57.9
  40
0.25
  50
     0.0
  51
     360.0
 73
     0
  97
     1
  330
    246
 75
     0
 76
     1
  98
     1
 10
0.0
 20
0.0
  0
CIRCLE
  5
F8
100
AcDbEntity
  8
ASSEMBLY_OUTLINES_TOP
100
AcDbCircle
 10
-51.96
 20
57.9
 30
0.0
 40
0.25
  0
HATCH
  5
F9
100
AcDbEntity
  8
ASSEMBLY_OUTLINES_TOP
100
AcDbHatch
 10
0.0
 20
0.0
 30
0.0
 210
0.0
 220
0.0
 230
1.0
  2
SOLID
 70
         1
 71
        1
 91
        1
  92
     1
  93
     1
 72
     2
 10
-51.96
 20
57.9
  40
0.25
  50
     0.0
  51
     360.0
 73
     0
  97
     1
  330
    248
 75
     0
 76
     1
  98
     1
 10
0.0
 20
0.0
  0
CIRCLE
  5
FA
100
AcDbEntity
  8
ASSEMBLY_OUTLINES_TOP
100
AcDbCircle
 10
-49.96
 20
57.9
 30
0.0
 40
0.25
  0
HATCH
  5
FB
100
AcDbEntity
  8
ASSEMBLY_OUTLINES_TOP
100
AcDbHatch
 10
0.0
 20
0.0
 30
0.0
 210
0.0
 220
0.0
 230
1.0
  2
SOLID
 70
         1
 71
        1
 91
        1
  92
     1
  93
     1
 72
     2
 10
-49.96
 20
57.9
  40
0.25
  50
     0.0
  51
     360.0
 73
     0
  97
     1
  330
    250
 75
     0
 76
     1
  98
     1
 10
0.0
 20
0.0
  0
CIRCLE
  5
FC
100
AcDbEntity
  8
ASSEMBLY_OUTLINES_TOP
100
AcDbCircle
 10
-47.96
 20
57.9
 30
0.0
 40
0.25
  0
HATCH
  5
FD
100
AcDbEntity
  8
ASSEMBLY_OUTLINES_TOP
100
AcDbHatch
 10
0.0
 20
0.0
 30
0.0
 210
0.0
 220
0.0
 230
1.0
  2
SOLID
 70
         1
 71
        1
 91
        1
  92
     1
  93
     1
 72
     2
 10
-47.96
 20
57.9
  40
0.25
  50
     0.0
  51
     360.0
 73
     0
  97
     1
  330
    252
 75
     0
 76
     1
  98
     1
 10
0.0
 20
0.0
  0
CIRCLE
  5
FE
100
AcDbEntity
  8
ASSEMBLY_OUTLINES_TOP
100
AcDbCircle
 10
-45.96
 20
57.9
 30
0.0
 40
0.25
  0
HATCH
  5
FF
100
AcDbEntity
  8
ASSEMBLY_OUTLINES_TOP
100
AcDbHatch
 10
0.0
 20
0.0
 30
0.0
 210
0.0
 220
0.0
 230
1.0
  2
SOLID
 70
         1
 71
        1
 91
        1
  92
     1
  93
     1
 72
     2
 10
-45.96
 20
57.9
  40
0.25
  50
     0.0
  51
     360.0
 73
     0
  97
     1
  330
    254
 75
     0
 76
     1
  98
     1
 10
0.0
 20
0.0
  0
CIRCLE
  5
100
100
AcDbEntity
  8
ASSEMBLY_OUTLINES_TOP
100
AcDbCircle
 10
-43.96
 20
57.9
 30
0.0
 40
0.25
  0
HATCH
  5
101
100
AcDbEntity
  8
ASSEMBLY_OUTLINES_TOP
100
AcDbHatch
 10
0.0
 20
0.0
 30
0.0
 210
0.0
 220
0.0
 230
1.0
  2
SOLID
 70
         1
 71
        1
 91
        1
  92
     1
  93
     1
 72
     2
 10
-43.96
 20
57.9
  40
0.25
  50
     0.0
  51
     360.0
 73
     0
  97
     1
  330
    256
 75
     0
 76
     1
  98
     1
 10
0.0
 20
0.0
  0
CIRCLE
  5
102
100
AcDbEntity
  8
ASSEMBLY_OUTLINES_TOP
100
AcDbCircle
 10
-41.96
 20
57.9
 30
0.0
 40
0.25
  0
HATCH
  5
103
100
AcDbEntity
  8
ASSEMBLY_OUTLINES_TOP
100
AcDbHatch
 10
0.0
 20
0.0
 30
0.0
 210
0.0
 220
0.0
 230
1.0
  2
SOLID
 70
         1
 71
        1
 91
        1
  92
     1
  93
     1
 72
     2
 10
-41.96
 20
57.9
  40
0.25
  50
     0.0
  51
     360.0
 73
     0
  97
     1
  330
    258
 75
     0
 76
     1
  98
     1
 10
0.0
 20
0.0
  0
CIRCLE
  5
104
100
AcDbEntity
  8
ASSEMBLY_OUTLINES_TOP
100
AcDbCircle
 10
-39.96
 20
57.9
 30
0.0
 40
0.25
  0
HATCH
  5
105
100
AcDbEntity
  8
ASSEMBLY_OUTLINES_TOP
100
AcDbHatch
 10
0.0
 20
0.0
 30
0.0
 210
0.0
 220
0.0
 230
1.0
  2
SOLID
 70
         1
 71
        1
 91
        1
  92
     1
  93
     1
 72
     2
 10
-39.96
 20
57.9
  40
0.25
  50
     0.0
  51
     360.0
 73
     0
  97
     1
  330
    260
 75
     0
 76
     1
  98
     1
 10
0.0
 20
0.0
  0
LWPOLYLINE
  5
106
100
AcDbEntity
  8
ASSEMBLY_OUTLINES_TOP
100
AcDbPolyline
 90
        4
 70
         1
 43
0.1
 10
-53.65
 20
17.9
 10
-53.65
 20
20.7
 10
-52.35
 20
20.7
 10
-52.35
 20
17.9
  0
LWPOLYLINE
  5
107
100
AcDbEntity
  8
ASSEMBLY_OUTLINES_TOP
100
AcDbPolyline
 90
        4
 70
         1
 43
0.1
 10
-53.85
 20
14.25
 10
-53.85
 20
17.15
 10
-52.55
 20
17.15
 10
-52.55
 20
14.25
  0
LWPOLYLINE
  5
108
100
AcDbEntity
  8
ASSEMBLY_OUTLINES_TOP
100
AcDbPolyline
 90
        4
 70
         1
 43
0.0
 10
-32.495906
 20
1.0
 10
-32.495906
 20
30.8
 10
-26.495906
 20
30.8
 10
-26.495906
 20
1.0
  0
LWPOLYLINE
  5
109
100
AcDbEntity
  8
ASSEMBLY_OUTLINES_TOP
100
AcDbPolyline
 90
        4
 70
         1
 43
0.1
 10
-48.7
 20
8.55
 10
-48.7
 20
9.85
 10
-45.9
 20
9.85
 10
-45.9
 20
8.55
  0
LWPOLYLINE
  5
10A
100
AcDbEntity
  8
ASSEMBLY_OUTLINES_TOP
100
AcDbPolyline
 90
        4
 70
         1
 43
0.1
 10
-50.45
 20
5.4
 10
-50.45
 20
6.7
 10
-47.55
 20
6.7
 10
-47.55
 20
5.4
  0
LWPOLYLINE
  5
10B
100
AcDbEntity
  8
ASSEMBLY_OUTLINES_TOP
100
AcDbPolyline
 90
        4
 70
         1
 43
0.1
 10
-32.9
 20
56.45
 10
-32.9
 20
60.7
 10
-26.9
 20
60.7
 10
-26.9
 20
56.45
  0
LWPOLYLINE
  5
10C
100
AcDbEntity
  8
ASSEMBLY_OUTLINES_TOP
100
AcDbPolyline
 90
        4
 70
         1
 43
0.1
 10
-46.65
 20
19.95
 10
-46.65
 20
21.25
 10
-43.85
 20
21.25
 10
-43.85
 20
19.95
  0
LWPOLYLINE
  5
10D
100
AcDbEntity
  8
ASSEMBLY_OUTLINES_TOP
100
AcDbPolyline
 90
        4
 70
         1
 43
0.1
 10
-43.3
 20
17.55
 10
-43.3
 20
18.85
 10
-40.5
 20
18.85
 10
-40.5
 20
17.55
  0
LWPOLYLINE
  5
10E
100
AcDbEntity
  8
ASSEMBLY_OUTLINES_TOP
100
AcDbPolyline
 90
        4
 70
         1
 43
0.1
 10
-31.25
 20
41.5
 10
-31.25
 20
44.3
 10
-29.95
 20
44.3
 10
-29.95
 20
41.5
  0
LWPOLYLINE
  5
10F
100
AcDbEntity
  8
ASSEMBLY_OUTLINES_TOP
100
AcDbPolyline
 90
        4
 70
         1
 43
0.1
 10
-31.25
 20
44.45
 10
-31.25
 20
47.25
 10
-29.95
 20
47.25
 10
-29.95
 20
44.45
  0
LWPOLYLINE
  5
110
100
AcDbEntity
  8
ASSEMBLY_OUTLINES_TOP
100
AcDbPolyline
 90
        4
 70
         1
 43
0.1
 10
-29.65
 20
48.95
 10
-29.65
 20
50.25
 10
-26.85
 20
50.25
 10
-26.85
 20
48.95
  0
LWPOLYLINE
  5
111
100
AcDbEntity
  8
ASSEMBLY_OUTLINES_TOP
100
AcDbPolyline
 90
        4
 70
         1
 43
0.1
 10
-29.7
 20
41.45
 10
-29.7
 20
42.75
 10
-26.8
 20
42.75
 10
-26.8
 20
41.45
  0
LWPOLYLINE
  5
112
100
AcDbEntity
  8
ASSEMBLY_OUTLINES_TOP
100
AcDbPolyline
 90
        4
 70
         1
 43
0.1
 10
-50.45
 20
6.85
 10
-50.45
 20
8.15
 10
-47.55
 20
8.15
 10
-47.55
 20
6.85
  0
LWPOLYLINE
  5
113
100
AcDbEntity
  8
ASSEMBLY_OUTLINES_TOP
100
AcDbPolyline
 90
        4
 70
         1
 43
0.1
 10
-25.35
 20
12.85
 10
-25.35
 20
14.15
 10
-22.55
 20
14.15
 10
-22.55
 20
12.85
  0
LWPOLYLINE
  5
114
100
AcDbEntity
  8
ASSEMBLY_OUTLINES_TOP
100
AcDbPolyline
 90
        4
 70
         1
 43
0.1
 10
-29.7
 20
42.95
 10
-29.7
 20
44.25
 10
-26.8
 20
44.25
 10
-26.8
 20
42.95
  0
LWPOLYLINE
  5
115
100
AcDbEntity
  8
ASSEMBLY_OUTLINES_TOP
100
AcDbPolyline
 90
        4
 70
         1
 43
0.0
 10
-24.65
 20
46.55
 10
-24.65
 20
58.35
 10
-19.05
 20
58.35
 10
-19.05
 20
46.55
  0
LWPOLYLINE
  5
116
100
AcDbEntity
  8
ASSEMBLY_OUTLINES_TOP
100
AcDbPolyline
 90
        4
 70
         1
 43
0.0
 10
-24.35
 20
58.35
 10
-24.35
 20
60.85
 10
-19.35
 20
60.85
 10
-19.35
 20
58.35
  0
LWPOLYLINE
  5
117
100
AcDbEntity
  8
ASSEMBLY_OUTLINES_TOP
100
AcDbPolyline
 90
        4
 70
         1
 43
0.1
 10
-14.05
 20
34.0
 10
-14.05
 20
46.5
 10
-0.05
 20
46.5
 10
-0.05
 20
34.0
  0
LWPOLYLINE
  5
118
100
AcDbEntity
  8
ASSEMBLY_OUTLINES_TOP
100
AcDbPolyline
 90
        4
 70
         1
 43
0.1
 10
-29.7
 20
44.45
 10
-29.7
 20
45.75
 10
-26.8
 20
45.75
 10
-26.8
 20
44.45
  0
LWPOLYLINE
  5
119
100
AcDbEntity
  8
ASSEMBLY_OUTLINES_TOP
100
AcDbPolyline
 90
        4
 70
         1
 43
0.0
 10
-14.5
 20
53.2
 10
-14.5
 20
58.8
 10
-2.7
 20
58.8
 10
-2.7
 20
53.2
  0
LWPOLYLINE
  5
11A
100
AcDbEntity
  8
ASSEMBLY_OUTLINES_TOP
100
AcDbPolyline
 90
        4
 70
         1
 43
0.0
 10
-2.7
 20
53.5
 10
-2.7
 20
58.5
 10
-0.2
 20
58.5
 10
-0.2
 20
53.5
  0
LWPOLYLINE
  5
11B
100
AcDbEntity
  8
ASSEMBLY_OUTLINES_TOP
100
AcDbPolyline
 90
        4
 70
         1
 43
0.1
 10
-29.7
 20
45.95
 10
-29.7
 20
47.25
 10
-26.8
 20
47.25
 10
-26.8
 20
45.95
  0
CIRCLE
  5
11C
100
AcDbEntity
  8
ASSEMBLY_OUTLINES_TOP
100
AcDbCircle
 10
-3.0
 20
4.45
 30
0.0
 40
0.25
  0
HATCH
  5
11D
100
AcDbEntity
  8
ASSEMBLY_OUTLINES_TOP
100
AcDbHatch
 10
0.0
 20
0.0
 30
0.0
 210
0.0
 220
0.0
 230
1.0
  2
SOLID
 70
         1
 71
        1
 91
        1
  92
     1
  93
     1
 72
     2
 10
-3.0
 20
4.45
  40
0.25
  50
     0.0
  51
     360.0
 73
     0
  97
     1
  330
    284
 75
     0
 76
     1
  98
     1
 10
0.0
 20
0.0
  0
LWPOLYLINE
  5
11E
100
AcDbEntity
  8
ASSEMBLY_OUTLINES_TOP
100
AcDbPolyline
 90
        4
 70
         1
 43
0.1
 10
-5.5
 20
0.75
 10
-5.5
 20
8.15
 10
0.0
 20
8.15
 10
0.0
 20
0.75
  0
LWPOLYLINE
  5
11F
100
AcDbEntity
  8
ASSEMBLY_OUTLINES_TOP
100
AcDbPolyline
 90
        2
 70
         0
 43
0.1
 10
-5.5
 20
3.15
 10
-5.8
 20
3.15
  0
LWPOLYLINE
  5
120
100
AcDbEntity
  8
ASSEMBLY_OUTLINES_TOP
100
AcDbPolyline
 90
        2
 70
         0
 43
0.1
 10
-5.5
 20
4.45
 10
-5.8
 20
4.45
  0
LWPOLYLINE
  5
121
100
AcDbEntity
  8
ASSEMBLY_OUTLINES_TOP
100
AcDbPolyline
 90
        2
 70
         0
 43
0.1
 10
-5.5
 20
5.75
 10
-5.8
 20
5.75
  0
LWPOLYLINE
  5
122
100
AcDbEntity
  8
ASSEMBLY_OUTLINES_TOP
100
AcDbPolyline
 90
        2
 70
         0
 43
0.1
 10
-5.5
 20
3.8
 10
-5.8
 20
3.8
  0
LWPOLYLINE
  5
123
100
AcDbEntity
  8
ASSEMBLY_OUTLINES_TOP
100
AcDbPolyline
 90
        2
 70
         0
 43
0.1
 10
-5.5
 20
5.1
 10
-5.8
 20
5.1
  0
LWPOLYLINE
  5
124
100
AcDbEntity
  8
ASSEMBLY_OUTLINES_TOP
100
AcDbPolyline
 90
        2
 70
         0
 43
0.02
 10
-0.5
 20
0.75
 10
-0.5
 20
8.15
  0
LWPOLYLINE
  5
125
100
AcDbEntity
  8
ASSEMBLY_OUTLINES_TOP
100
AcDbPolyline
 90
        4
 70
         1
 43
0.1
 10
-29.7
 20
47.45
 10
-29.7
 20
48.75
 10
-26.8
 20
48.75
 10
-26.8
 20
47.45
  0
LWPOLYLINE
  5
126
100
AcDbEntity
  8
ASSEMBLY_OUTLINES_TOP
100
AcDbPolyline
 90
        4
 70
         1
 43
0.1
 10
-43.3
 20
14.6
 10
-43.3
 20
15.9
 10
-40.5
 20
15.9
 10
-40.5
 20
14.6
  0
LWPOLYLINE
  5
127
100
AcDbEntity
  8
ASSEMBLY_OUTLINES_TOP
100
AcDbPolyline
 90
        4
 70
         1
 43
0.1
 10
-22.05
 20
31.15
 10
-22.05
 20
34.05
 10
-20.75
 20
34.05
 10
-20.75
 20
31.15
  0
LWPOLYLINE
  5
128
100
AcDbEntity
  8
ASSEMBLY_OUTLINES_TOP
100
AcDbPolyline
 90
        4
 70
         1
 43
0.1
 10
-44.0
 20
6.1
 10
-44.0
 20
7.4
 10
-41.1
 20
7.4
 10
-41.1
 20
6.1
  0
LWPOLYLINE
  5
129
100
AcDbEntity
  8
ASSEMBLY_OUTLINES_TOP
100
AcDbPolyline
 90
        4
 70
         1
 43
0.1
 10
-22.0
 20
0.5
 10
-22.0
 20
4.75
 10
-16.0
 20
4.75
 10
-16.0
 20
0.5
  0
LWPOLYLINE
  5
12A
100
AcDbEntity
  8
ASSEMBLY_OUTLINES_TOP
100
AcDbPolyline
 90
        4
 70
         1
 43
0.1
 10
-43.3
 20
16.1
 10
-43.3
 20
17.4
 10
-40.5
 20
17.4
 10
-40.5
 20
16.1
  0
LWPOLYLINE
  5
12B
100
AcDbEntity
  8
ASSEMBLY_OUTLINES_TOP
100
AcDbPolyline
 90
        4
 70
         1
 43
0.1
 10
-29.7
 20
39.95
 10
-29.7
 20
41.25
 10
-26.8
 20
41.25
 10
-26.8
 20
39.95
  0
LWPOLYLINE
  5
12C
100
AcDbEntity
  8
ASSEMBLY_OUTLINES_TOP
100
AcDbPolyline
 90
        4
 70
         1
 43
0.0
 10
-20.47
 20
41.03
 10
-20.47
 20
43.57
 10
-17.93
 20
43.57
 10
-17.93
 20
41.03
  0
TEXT
  5
12D
100
AcDbEntity
  8
ASSEMBLY_REF_DES_TOP
100
AcDbText
 10
-36.1435
 20
57.0225
 30
0.0
 40
1.000000
 41
1.000000
  1
SW1
  50
270.0
  7
GOST_TYPE_B
 72
 1
 11
-35.65
 21
55.85
 31
0.0
100
AcDbText
 73
 2
  0
TEXT
  5
12E
100
AcDbEntity
  8
ASSEMBLY_REF_DES_TOP
100
AcDbText
 10
-11.6935
 20
6.4205
 30
0.0
 40
1.000000
 41
1.000000
  1
SW2
  50
270.0
  7
GOST_TYPE_B
 72
 1
 11
-11.2
 21
5.15
 31
0.0
100
AcDbText
 73
 2
  0
TEXT
  5
12F
100
AcDbEntity
  8
ASSEMBLY_REF_DES_TOP
100
AcDbText
 10
-49.0
 20
17.0
 30
0.0
 40
1.500000
 41
1.000000
  1
DD1
  50
270.0
  7
VERIBEST_GERBER_0
 72
 1
 11
-48.25
 21
14.9
 31
0.0
100
AcDbText
 73
 2
  0
TEXT
  5
130
100
AcDbEntity
  8
ASSEMBLY_REF_DES_TOP
100
AcDbText
 10
-55.14545
 20
10.8602
 30
0.0
 40
0.700000
 41
1.000000
  1
C1
  50
270.0
  7
GOST_TYPE_B
 72
 1
 11
-54.8
 21
10.45
 31
0.0
100
AcDbText
 73
 2
  0
TEXT
  5
131
100
AcDbEntity
  8
ASSEMBLY_REF_DES_TOP
100
AcDbText
 10
-20.95
 20
35.55
 30
0.0
 40
1.000000
 41
1.000000
  1
J1
  50
90.0
  7
VERIBEST_GERBER_0
 11
-21.95
 21
35.55
 31
0.0
100
AcDbText
 73
 3
  0
TEXT
  5
132
100
AcDbEntity
  8
ASSEMBLY_REF_DES_TOP
100
AcDbText
 10
-75.09415
 20
6.00455
 30
0.0
 40
0.700000
 41
1.000000
  1
R1
  7
GOST_TYPE_B
 72
 1
 11
-74.65
 21
6.35
 31
0.0
100
AcDbText
 73
 2
  0
TEXT
  5
133
100
AcDbEntity
  8
ASSEMBLY_REF_DES_TOP
100
AcDbText
 10
-13.6935
 20
20.335
 30
0.0
 40
1.000000
 41
1.000000
  1
T1
  50
270.0
  7
GOST_TYPE_B
 72
 1
 11
-13.2
 21
19.7
 31
0.0
100
AcDbText
 73
 2
  0
TEXT
  5
134
100
AcDbEntity
  8
ASSEMBLY_REF_DES_TOP
100
AcDbText
 10
-76.8435
 20
26.2935
 30
0.0
 40
1.000000
 41
1.000000
  1
X1
  50
270.0
  7
GOST_TYPE_B
 72
 1
 11
-76.35
 21
25.61
 31
0.0
100
AcDbText
 73
 2
  0
TEXT
  5
135
100
AcDbEntity
  8
ASSEMBLY_REF_DES_TOP
100
AcDbText
 10
-55.0288
 20
13.05455
 30
0.0
 40
0.700000
 41
1.000000
  1
C2
  7
GOST_TYPE_B
 72
 1
 11
-54.55
 21
13.4
 31
0.0
100
AcDbText
 73
 2
  0
TEXT
  5
136
100
AcDbEntity
  8
ASSEMBLY_REF_DES_TOP
100
AcDbText
 10
-56.29545
 20
16.2631
 30
0.0
 40
0.700000
 41
1.000000
  1
R2
  50
270.0
  7
GOST_TYPE_B
 72
 1
 11
-55.95
 21
15.75
 31
0.0
100
AcDbText
 73
 2
  0
TEXT
  5
137
100
AcDbEntity
  8
ASSEMBLY_REF_DES_TOP
100
AcDbText
 10
-72.6
 20
1.063
 30
0.0
 40
1.000000
 41
1.000000
  1
X2
  7
GOST_TYPE_B
 11
-72.6
 21
2.05
 31
0.0
100
AcDbText
 73
 3
  0
TEXT
  5
138
100
AcDbEntity
  8
ASSEMBLY_REF_DES_TOP
100
AcDbText
 10
-79.0265
 20
5.7065
 30
0.0
 40
1.000000
 41
1.000000
  1
HL1
  7
GOST_TYPE_B
 72
 1
 11
-78.05
 21
6.2
 31
0.0
100
AcDbText
 73
 2
  0
TEXT
  5
139
100
AcDbEntity
  8
ASSEMBLY_REF_DES_TOP
100
AcDbText
 10
-54.84545
 20
19.7788
 30
0.0
 40
0.700000
 41
1.000000
  1
C3
  50
270.0
  7
GOST_TYPE_B
 72
 1
 11
-54.5
 21
19.3
 31
0.0
100
AcDbText
 73
 2
  0
TEXT
  5
13A
100
AcDbEntity
  8
ASSEMBLY_REF_DES_TOP
100
AcDbText
 10
-54.84545
 20
16.1631
 30
0.0
 40
0.700000
 41
1.000000
  1
R3
  50
270.0
  7
GOST_TYPE_B
 72
 1
 11
-54.5
 21
15.65
 31
0.0
100
AcDbText
 73
 2
  0
TEXT
  5
13B
100
AcDbEntity
  8
ASSEMBLY_REF_DES_TOP
100
AcDbText
 10
-60.795906
 20
15.013
 30
0.0
 40
1.000000
 41
1.000000
  1
X3
  50
270.0
  7
GOST_TYPE_B
 72
 2
 11
-60.795906
 21
13.45
 31
0.0
100
AcDbText
 73
 1
  0
TEXT
  5
13C
100
AcDbEntity
  8
ASSEMBLY_REF_DES_TOP
100
AcDbText
 10
-53.64545
 20
10.9631
 30
0.0
 40
0.700000
 41
1.000000
  1
C4
  50
270.0
  7
GOST_TYPE_B
 72
 1
 11
-53.3
 21
10.45
 31
0.0
100
AcDbText
 73
 2
  0
TEXT
  5
13D
100
AcDbEntity
  8
ASSEMBLY_REF_DES_TOP
100
AcDbText
 10
-54.24545
 20
7.1974
 30
0.0
 40
0.700000
 41
1.000000
  1
R4
  50
270.0
  7
GOST_TYPE_B
 72
 1
 11
-53.9
 21
6.65
 31
0.0
100
AcDbText
 73
 2
  0
TEXT
  5
13E
100
AcDbEntity
  8
ASSEMBLY_REF_DES_TOP
100
AcDbText
 10
-61.74
 20
56.4065
 30
0.0
 40
1.000000
 41
1.000000
  1
X4
  7
GOST_TYPE_B
 72
 1
 11
-60.91
 21
56.9
 31
0.0
100
AcDbText
 73
 2
  0
TEXT
  5
13F
100
AcDbEntity
  8
ASSEMBLY_REF_DES_TOP
100
AcDbText
 10
-53.34545
 20
19.7788
 30
0.0
 40
0.700000
 41
1.000000
  1
C5
  50
270.0
  7
GOST_TYPE_B
 72
 1
 11
-53.0
 21
19.3
 31
0.0
100
AcDbText
 73
 2
  0
TEXT
  5
140
100
AcDbEntity
  8
ASSEMBLY_REF_DES_TOP
100
AcDbText
 10
-53.59545
 20
16.2631
 30
0.0
 40
0.700000
 41
1.000000
  1
R5
  50
270.0
  7
GOST_TYPE_B
 72
 1
 11
-53.25
 21
15.75
 31
0.0
100
AcDbText
 73
 2
  0
TEXT
  5
141
100
AcDbEntity
  8
ASSEMBLY_REF_DES_TOP
100
AcDbText
 10
-29.795906
 20
15.013
 30
0.0
 40
1.000000
 41
1.000000
  1
X5
  50
270.0
  7
GOST_TYPE_B
 72
 2
 11
-29.795906
 21
13.45
 31
0.0
100
AcDbText
 73
 1
  0
TEXT
  5
142
100
AcDbEntity
  8
ASSEMBLY_REF_DES_TOP
100
AcDbText
 10
-47.7788
 20
8.85455
 30
0.0
 40
0.700000
 41
1.000000
  1
C6
  7
GOST_TYPE_B
 72
 1
 11
-47.3
 21
9.2
 31
0.0
100
AcDbText
 73
 2
  0
TEXT
  5
143
100
AcDbEntity
  8
ASSEMBLY_REF_DES_TOP
100
AcDbText
 10
-49.56275
 20
5.65455
 30
0.0
 40
0.700000
 41
1.000000
  1
R6
  7
GOST_TYPE_B
 72
 1
 11
-49.05
 21
6.0
 31
0.0
100
AcDbText
 73
 2
  0
TEXT
  5
144
100
AcDbEntity
  8
ASSEMBLY_REF_DES_TOP
100
AcDbText
 10
-30.5815
 20
53.8565
 30
0.0
 40
1.000000
 41
1.000000
  1
X6
  7
GOST_TYPE_B
 72
 1
 11
-29.8
 21
54.35
 31
0.0
100
AcDbText
 73
 2
  0
TEXT
  5
145
100
AcDbEntity
  8
ASSEMBLY_REF_DES_TOP
100
AcDbText
 10
-45.7288
 20
20.25455
 30
0.0
 40
0.700000
 41
1.000000
  1
C7
  7
GOST_TYPE_B
 72
 1
 11
-45.25
 21
20.6
 31
0.0
100
AcDbText
 73
 2
  0
TEXT
  5
146
100
AcDbEntity
  8
ASSEMBLY_REF_DES_TOP
100
AcDbText
 10
-42.5496
 20
17.85455
 30
0.0
 40
0.700000
 41
1.000000
  1
C10
  7
GOST_TYPE_B
 72
 1
 11
-41.9
 21
18.2
 31
0.0
100
AcDbText
 73
 2
  0
TEXT
  5
147
100
AcDbEntity
  8
ASSEMBLY_REF_DES_TOP
100
AcDbText
 10
-30.94545
 20
43.481
 30
0.0
 40
0.700000
 41
1.000000
  1
C11
  50
270.0
  7
GOST_TYPE_B
 72
 1
 11
-30.6
 21
42.9
 31
0.0
100
AcDbText
 73
 2
  0
TEXT
  5
148
100
AcDbEntity
  8
ASSEMBLY_REF_DES_TOP
100
AcDbText
 10
-30.94545
 20
46.4996
 30
0.0
 40
0.700000
 41
1.000000
  1
C12
  50
270.0
  7
GOST_TYPE_B
 72
 1
 11
-30.6
 21
45.85
 31
0.0
100
AcDbText
 73
 2
  0
TEXT
  5
149
100
AcDbEntity
  8
ASSEMBLY_REF_DES_TOP
100
AcDbText
 10
-28.8996
 20
49.25455
 30
0.0
 40
0.700000
 41
1.000000
  1
C13
  7
GOST_TYPE_B
 72
 1
 11
-28.25
 21
49.6
 31
0.0
100
AcDbText
 73
 2
  0
TEXT
  5
14A
100
AcDbEntity
  8
ASSEMBLY_REF_DES_TOP
100
AcDbText
 10
-28.88355
 20
41.80455
 30
0.0
 40
0.700000
 41
1.000000
  1
R10
  7
GOST_TYPE_B
 72
 1
 11
-28.2
 21
42.15
 31
0.0
100
AcDbText
 73
 2
  0
TEXT
  5
14B
100
AcDbEntity
  8
ASSEMBLY_REF_DES_TOP
100
AcDbText
 10
-49.56275
 20
7.10455
 30
0.0
 40
0.700000
 41
1.000000
  1
R7
  7
GOST_TYPE_B
 72
 1
 11
-49.05
 21
7.45
 31
0.0
100
AcDbText
 73
 2
  0
TEXT
  5
14C
100
AcDbEntity
  8
ASSEMBLY_REF_DES_TOP
100
AcDbText
 10
-24.63355
 20
13.15455
 30
0.0
 40
0.700000
 41
1.000000
  1
C14
  7
GOST_TYPE_B
 72
 1
 11
-23.95
 21
13.5
 31
0.0
100
AcDbText
 73
 2
  0
TEXT
  5
14D
100
AcDbEntity
  8
ASSEMBLY_REF_DES_TOP
100
AcDbText
 10
-28.91495
 20
43.20455
 30
0.0
 40
0.700000
 41
1.000000
  1
R11
  7
GOST_TYPE_B
 72
 1
 11
-28.3
 21
43.55
 31
0.0
100
AcDbText
 73
 2
  0
TEXT
  5
14E
100
AcDbEntity
  8
ASSEMBLY_REF_DES_TOP
100
AcDbText
 10
-21.4465
 20
51.1585
 30
0.0
 40
1.000000
 41
1.000000
  1
X7
  50
90.0
  7
GOST_TYPE_B
 72
 1
 11
-21.94
 21
51.94
 31
0.0
100
AcDbText
 73
 2
  0
TEXT
  5
14F
100
AcDbEntity
  8
ASSEMBLY_REF_DES_TOP
100
AcDbText
 10
-12.4435
 20
41.2755
 30
0.0
 40
1.000000
 41
1.000000
  1
X10
  50
270.0
  7
GOST_TYPE_B
 72
 1
 11
-11.95
 21
40.25
 31
0.0
100
AcDbText
 73
 2
  0
TEXT
  5
150
100
AcDbEntity
  8
ASSEMBLY_REF_DES_TOP
100
AcDbText
 10
-28.88355
 20
44.80455
 30
0.0
 40
0.700000
 41
1.000000
  1
R12
  7
GOST_TYPE_B
 72
 1
 11
-28.2
 21
45.15
 31
0.0
100
AcDbText
 73
 2
  0
TEXT
  5
151
100
AcDbEntity
  8
ASSEMBLY_REF_DES_TOP
100
AcDbText
 10
-10.0375
 20
55.5965
 30
0.0
 40
1.000000
 41
1.000000
  1
X11
  7
GOST_TYPE_B
 72
 1
 11
-9.11
 21
56.09
 31
0.0
100
AcDbText
 73
 2
  0
TEXT
  5
152
100
AcDbEntity
  8
ASSEMBLY_REF_DES_TOP
100
AcDbText
 10
-28.98355
 20
46.20455
 30
0.0
 40
0.700000
 41
1.000000
  1
R13
  7
GOST_TYPE_B
 72
 1
 11
-28.3
 21
46.55
 31
0.0
100
AcDbText
 73
 2
  0
TEXT
  5
153
100
AcDbEntity
  8
ASSEMBLY_REF_DES_TOP
100
AcDbText
 10
-3.71785
 20
4.10805
 30
0.0
 40
0.700000
 41
1.000000
  1
X12
  7
GOST_D
 72
 1
 11
-3.0
 21
4.45
 31
0.0
100
AcDbText
 73
 2
  0
TEXT
  5
154
100
AcDbEntity
  8
ASSEMBLY_REF_DES_TOP
100
AcDbText
 10
-29.0175
 20
47.70455
 30
0.0
 40
0.700000
 41
1.000000
  1
R14
  7
GOST_TYPE_B
 72
 1
 11
-28.3
 21
48.05
 31
0.0
100
AcDbText
 73
 2
  0
TEXT
  5
155
100
AcDbEntity
  8
ASSEMBLY_REF_DES_TOP
100
AcDbText
 10
-42.41275
 20
14.90455
 30
0.0
 40
0.700000
 41
1.000000
  1
C8
  7
GOST_TYPE_B
 72
 1
 11
-41.9
 21
15.25
 31
0.0
100
AcDbText
 73
 2
  0
TEXT
  5
156
100
AcDbEntity
  8
ASSEMBLY_REF_DES_TOP
100
AcDbText
 10
-21.69545
 20
33.2339
 30
0.0
 40
0.700000
 41
1.000000
  1
R15
  50
270.0
  7
GOST_TYPE_B
 72
 1
 11
-21.35
 21
32.55
 31
0.0
100
AcDbText
 73
 2
  0
TEXT
  5
157
100
AcDbEntity
  8
ASSEMBLY_REF_DES_TOP
100
AcDbText
 10
-43.1467
 20
6.35455
 30
0.0
 40
0.700000
 41
1.000000
  1
R8
  7
GOST_TYPE_B
 72
 1
 11
-42.6
 21
6.7
 31
0.0
100
AcDbText
 73
 2
  0
TEXT
  5
158
100
AcDbEntity
  8
ASSEMBLY_REF_DES_TOP
100
AcDbText
 10
-19.93
 20
6.3565
 30
0.0
 40
1.000000
 41
1.000000
  1
X8
  7
GOST_TYPE_B
 72
 1
 11
-19.1
 21
6.85
 31
0.0
100
AcDbText
 73
 2
  0
TEXT
  5
159
100
AcDbEntity
  8
ASSEMBLY_REF_DES_TOP
100
AcDbText
 10
-42.3788
 20
16.40455
 30
0.0
 40
0.700000
 41
1.000000
  1
C9
  7
GOST_TYPE_B
 72
 1
 11
-41.9
 21
16.75
 31
0.0
100
AcDbText
 73
 2
  0
TEXT
  5
15A
100
AcDbEntity
  8
ASSEMBLY_REF_DES_TOP
100
AcDbText
 10
-28.81275
 20
40.20455
 30
0.0
 40
0.700000
 41
1.000000
  1
R9
  7
GOST_TYPE_B
 72
 1
 11
-28.3
 21
40.55
 31
0.0
100
AcDbText
 73
 2
  0
TEXT
  5
15B
100
AcDbEntity
  8
ASSEMBLY_REF_DES_TOP
100
AcDbText
 10
-17.99
 20
41.8
 30
0.0
 40
1.000000
 41
1.000000
  1
X9
  7
VERIBEST_GERBER_0
 72
 2
 11
-16.1
 21
41.8
 31
0.0
100
AcDbText
 73
 1
  0
LWPOLYLINE
  5
15C
100
AcDbEntity
  8
BOARD_OUTLINE
100
AcDbPolyline
 90
        4
 70
         1
 43
0.1
 10
-80.5
 20
0.0
 10
-80.5
 20
61.0
 10
0.0
 20
61.0
 10
0.0
 20
0.0
  0
CIRCLE
  5
15D
100
AcDbEntity
  8
MOUNTING_HOLES_LAYER_TOP
100
AcDbCircle
 10
-2.95
 20
30.95
 30
0.0
 40
1.5
  0
HATCH
  5
15E
100
AcDbEntity
  8
MOUNTING_HOLES_LAYER_TOP
100
AcDbHatch
 10
0.0
 20
0.0
 30
0.0
 210
0.0
 220
0.0
 230
1.0
  2
SOLID
 70
         1
 71
        1
 91
        1
  92
     1
  93
     1
 72
     2
 10
-2.95
 20
30.95
  40
1.5
  50
     0.0
  51
     360.0
 73
     0
  97
     1
  330
    349
 75
     0
 76
     1
  98
     1
 10
0.0
 20
0.0
  0
CIRCLE
  5
15F
100
AcDbEntity
  8
MOUNTING_HOLES_LAYER_TOP
100
AcDbCircle
 10
-3.1
 20
49.85
 30
0.0
 40
1.5
  0
HATCH
  5
160
100
AcDbEntity
  8
MOUNTING_HOLES_LAYER_TOP
100
AcDbHatch
 10
0.0
 20
0.0
 30
0.0
 210
0.0
 220
0.0
 230
1.0
  2
SOLID
 70
         1
 71
        1
 91
        1
  92
     1
  93
     1
 72
     2
 10
-3.1
 20
49.85
  40
1.5
  50
     0.0
  51
     360.0
 73
     0
  97
     1
  330
    351
 75
     0
 76
     1
  98
     1
 10
0.0
 20
0.0
  0
CIRCLE
  5
161
100
AcDbEntity
  8
MOUNTING_HOLES_LAYER_TOP
100
AcDbCircle
 10
-77.85
 20
50.3
 30
0.0
 40
1.5
  0
HATCH
  5
162
100
AcDbEntity
  8
MOUNTING_HOLES_LAYER_TOP
100
AcDbHatch
 10
0.0
 20
0.0
 30
0.0
 210
0.0
 220
0.0
 230
1.0
  2
SOLID
 70
         1
 71
        1
 91
        1
  92
     1
  93
     1
 72
     2
 10
-77.85
 20
50.3
  40
1.5
  50
     0.0
  51
     360.0
 73
     0
  97
     1
  330
    353
 75
     0
 76
     1
  98
     1
 10
0.0
 20
0.0
  0
CIRCLE
  5
163
100
AcDbEntity
  8
MOUNTING_HOLES_LAYER_TOP
100
AcDbCircle
 10
-77.9
 20
2.65
 30
0.0
 40
1.5
  0
HATCH
  5
164
100
AcDbEntity
  8
MOUNTING_HOLES_LAYER_TOP
100
AcDbHatch
 10
0.0
 20
0.0
 30
0.0
 210
0.0
 220
0.0
 230
1.0
  2
SOLID
 70
         1
 71
        1
 91
        1
  92
     1
  93
     1
 72
     2
 10
-77.9
 20
2.65
  40
1.5
  50
     0.0
  51
     360.0
 73
     0
  97
     1
  330
    355
 75
     0
 76
     1
  98
     1
 10
0.0
 20
0.0
  0
CIRCLE
  5
165
100
AcDbEntity
  8
MOUNTING_HOLES_LAYER_TOP
100
AcDbCircle
 10
-61.5
 20
47.7
 30
0.0
 40
1.5
  0
HATCH
  5
166
100
AcDbEntity
  8
MOUNTING_HOLES_LAYER_TOP
100
AcDbHatch
 10
0.0
 20
0.0
 30
0.0
 210
0.0
 220
0.0
 230
1.0
  2
SOLID
 70
         1
 71
        1
 91
        1
  92
     1
  93
     1
 72
     2
 10
-61.5
 20
47.7
  40
1.5
  50
     0.0
  51
     360.0
 73
     0
  97
     1
  330
    357
 75
     0
 76
     1
  98
     1
 10
0.0
 20
0.0
  0
CIRCLE
  5
167
100
AcDbEntity
  8
MOUNTING_HOLES_LAYER_TOP
100
AcDbCircle
 10
-35.7
 20
3.2
 30
0.0
 40
1.5
  0
HATCH
  5
168
100
AcDbEntity
  8
MOUNTING_HOLES_LAYER_TOP
100
AcDbHatch
 10
0.0
 20
0.0
 30
0.0
 210
0.0
 220
0.0
 230
1.0
  2
SOLID
 70
         1
 71
        1
 91
        1
  92
     1
  93
     1
 72
     2
 10
-35.7
 20
3.2
  40
1.5
  50
     0.0
  51
     360.0
 73
     0
  97
     1
  330
    359
 75
     0
 76
     1
  98
     1
 10
0.0
 20
0.0
  0
CIRCLE
  5
169
100
AcDbEntity
  8
MOUNTING_HOLES_LAYER_TOP
100
AcDbCircle
 10
-10.79
 20
25.56
 30
0.0
 40
1.65
  0
HATCH
  5
16A
100
AcDbEntity
  8
MOUNTING_HOLES_LAYER_TOP
100
AcDbHatch
 10
0.0
 20
0.0
 30
0.0
 210
0.0
 220
0.0
 230
1.0
  2
SOLID
 70
         1
 71
        1
 91
        1
  92
     1
  93
     1
 72
     2
 10
-10.79
 20
25.56
  40
1.65
  50
     0.0
  51
     360.0
 73
     0
  97
     1
  330
    361
 75
     0
 76
     1
  98
     1
 10
0.0
 20
0.0
  0
CIRCLE
  5
16B
100
AcDbEntity
  8
MOUNTING_HOLES_LAYER_TOP
100
AcDbCircle
 10
-10.79
 20
14.13
 30
0.0
 40
1.65
  0
HATCH
  5
16C
100
AcDbEntity
  8
MOUNTING_HOLES_LAYER_TOP
100
AcDbHatch
 10
0.0
 20
0.0
 30
0.0
 210
0.0
 220
0.0
 230
1.0
  2
SOLID
 70
         1
 71
        1
 91
        1
  92
     1
  93
     1
 72
     2
 10
-10.79
 20
14.13
  40
1.65
  50
     0.0
  51
     360.0
 73
     0
  97
     1
  330
    363
 75
     0
 76
     1
  98
     1
 10
0.0
 20
0.0
  0
CIRCLE
  5
16D
100
AcDbEntity
  8
MOUNTING_HOLES_LAYER_TOP
100
AcDbCircle
 10
-76.35
 20
45.56
 30
0.0
 40
0.6
  0
HATCH
  5
16E
100
AcDbEntity
  8
MOUNTING_HOLES_LAYER_TOP
100
AcDbHatch
 10
0.0
 20
0.0
 30
0.0
 210
0.0
 220
0.0
 230
1.0
  2
SOLID
 70
         1
 71
        1
 91
        1
  92
     1
  93
     1
 72
     2
 10
-76.35
 20
45.56
  40
0.6
  50
     0.0
  51
     360.0
 73
     0
  97
     1
  330
    365
 75
     0
 76
     1
  98
     1
 10
0.0
 20
0.0
  0
CIRCLE
  5
16F
100
AcDbEntity
  8
MOUNTING_HOLES_LAYER_TOP
100
AcDbCircle
 10
-76.35
 20
9.56
 30
0.0
 40
0.6
  0
HATCH
  5
170
100
AcDbEntity
  8
MOUNTING_HOLES_LAYER_TOP
100
AcDbHatch
 10
0.0
 20
0.0
 30
0.0
 210
0.0
 220
0.0
 230
1.0
  2
SOLID
 70
         1
 71
        1
 91
        1
  92
     1
  93
     1
 72
     2
 10
-76.35
 20
9.56
  40
0.6
  50
     0.0
  51
     360.0
 73
     0
  97
     1
  330
    367
 75
     0
 76
     1
  98
     1
 10
0.0
 20
0.0
  0
CIRCLE
  5
171
100
AcDbEntity
  8
MOUNTING_HOLES_LAYER_TOP
100
AcDbCircle
 10
-60.495906
 20
1.8
 30
0.0
 40
0.45
  0
HATCH
  5
172
100
AcDbEntity
  8
MOUNTING_HOLES_LAYER_TOP
100
AcDbHatch
 10
0.0
 20
0.0
 30
0.0
 210
0.0
 220
0.0
 230
1.0
  2
SOLID
 70
         1
 71
        1
 91
        1
  92
     1
  93
     1
 72
     2
 10
-60.495906
 20
1.8
  40
0.45
  50
     0.0
  51
     360.0
 73
     0
  97
     1
  330
    369
 75
     0
 76
     1
  98
     1
 10
0.0
 20
0.0
  0
CIRCLE
  5
173
100
AcDbEntity
  8
MOUNTING_HOLES_LAYER_TOP
100
AcDbCircle
 10
-60.495906
 20
30.0
 30
0.0
 40
0.6
  0
HATCH
  5
174
100
AcDbEntity
  8
MOUNTING_HOLES_LAYER_TOP
100
AcDbHatch
 10
0.0
 20
0.0
 30
0.0
 210
0.0
 220
0.0
 230
1.0
  2
SOLID
 70
         1
 71
        1
 91
        1
  92
     1
  93
     1
 72
     2
 10
-60.495906
 20
30.0
  40
0.6
  50
     0.0
  51
     360.0
 73
     0
  97
     1
  330
    371
 75
     0
 76
     1
  98
     1
 10
0.0
 20
0.0
  0
CIRCLE
  5
175
100
AcDbEntity
  8
MOUNTING_HOLES_LAYER_TOP
100
AcDbCircle
 10
-40.96
 20
56.9
 30
0.0
 40
0.6
  0
HATCH
  5
176
100
AcDbEntity
  8
MOUNTING_HOLES_LAYER_TOP
100
AcDbHatch
 10
0.0
 20
0.0
 30
0.0
 210
0.0
 220
0.0
 230
1.0
  2
SOLID
 70
         1
 71
        1
 91
        1
  92
     1
  93
     1
 72
     2
 10
-40.96
 20
56.9
  40
0.6
  50
     0.0
  51
     360.0
 73
     0
  97
     1
  330
    373
 75
     0
 76
     1
  98
     1
 10
0.0
 20
0.0
  0
CIRCLE
  5
177
100
AcDbEntity
  8
MOUNTING_HOLES_LAYER_TOP
100
AcDbCircle
 10
-76.96
 20
56.9
 30
0.0
 40
0.6
  0
HATCH
  5
178
100
AcDbEntity
  8
MOUNTING_HOLES_LAYER_TOP
100
AcDbHatch
 10
0.0
 20
0.0
 30
0.0
 210
0.0
 220
0.0
 230
1.0
  2
SOLID
 70
         1
 71
        1
 91
        1
  92
     1
  93
     1
 72
     2
 10
-76.96
 20
56.9
  40
0.6
  50
     0.0
  51
     360.0
 73
     0
  97
     1
  330
    375
 75
     0
 76
     1
  98
     1
 10
0.0
 20
0.0
  0
CIRCLE
  5
179
100
AcDbEntity
  8
MOUNTING_HOLES_LAYER_TOP
100
AcDbCircle
 10
-29.495906
 20
30.0
 30
0.0
 40
0.6
  0
HATCH
  5
17A
100
AcDbEntity
  8
MOUNTING_HOLES_LAYER_TOP
100
AcDbHatch
 10
0.0
 20
0.0
 30
0.0
 210
0.0
 220
0.0
 230
1.0
  2
SOLID
 70
         1
 71
        1
 91
        1
  92
     1
  93
     1
 72
     2
 10
-29.495906
 20
30.0
  40
0.6
  50
     0.0
  51
     360.0
 73
     0
  97
     1
  330
    377
 75
     0
 76
     1
  98
     1
 10
0.0
 20
0.0
  0
CIRCLE
  5
17B
100
AcDbEntity
  8
MOUNTING_HOLES_LAYER_TOP
100
AcDbCircle
 10
-29.495906
 20
1.8
 30
0.0
 40
0.45
  0
HATCH
  5
17C
100
AcDbEntity
  8
MOUNTING_HOLES_LAYER_TOP
100
AcDbHatch
 10
0.0
 20
0.0
 30
0.0
 210
0.0
 220
0.0
 230
1.0
  2
SOLID
 70
         1
 71
        1
 91
        1
  92
     1
  93
     1
 72
     2
 10
-29.495906
 20
1.8
  40
0.45
  50
     0.0
  51
     360.0
 73
     0
  97
     1
  330
    379
 75
     0
 76
     1
  98
     1
 10
0.0
 20
0.0
  0
CIRCLE
  5
17D
100
AcDbEntity
  8
MOUNTING_HOLES_LAYER_TOP
100
AcDbCircle
 10
-21.85
 20
56.65
 30
0.0
 40
0.6
  0
HATCH
  5
17E
100
AcDbEntity
  8
MOUNTING_HOLES_LAYER_TOP
100
AcDbHatch
 10
0.0
 20
0.0
 30
0.0
 210
0.0
 220
0.0
 230
1.0
  2
SOLID
 70
         1
 71
        1
 91
        1
  92
     1
  93
     1
 72
     2
 10
-21.85
 20
56.65
  40
0.6
  50
     0.0
  51
     360.0
 73
     0
  97
     1
  330
    381
 75
     0
 76
     1
  98
     1
 10
0.0
 20
0.0
  0
CIRCLE
  5
17F
100
AcDbEntity
  8
MOUNTING_HOLES_LAYER_TOP
100
AcDbCircle
 10
-21.85
 20
49.65
 30
0.0
 40
0.6
  0
HATCH
  5
180
100
AcDbEntity
  8
MOUNTING_HOLES_LAYER_TOP
100
AcDbHatch
 10
0.0
 20
0.0
 30
0.0
 210
0.0
 220
0.0
 230
1.0
  2
SOLID
 70
         1
 71
        1
 91
        1
  92
     1
  93
     1
 72
     2
 10
-21.85
 20
49.65
  40
0.6
  50
     0.0
  51
     360.0
 73
     0
  97
     1
  330
    383
 75
     0
 76
     1
  98
     1
 10
0.0
 20
0.0
  0
CIRCLE
  5
181
100
AcDbEntity
  8
MOUNTING_HOLES_LAYER_TOP
100
AcDbCircle
 10
-9.95
 20
37.75
 30
0.0
 40
0.65
  0
HATCH
  5
182
100
AcDbEntity
  8
MOUNTING_HOLES_LAYER_TOP
100
AcDbHatch
 10
0.0
 20
0.0
 30
0.0
 210
0.0
 220
0.0
 230
1.0
  2
SOLID
 70
         1
 71
        1
 91
        1
  92
     1
  93
     1
 72
     2
 10
-9.95
 20
37.75
  40
0.65
  50
     0.0
  51
     360.0
 73
     0
  97
     1
  330
    385
 75
     0
 76
     1
  98
     1
 10
0.0
 20
0.0
  0
CIRCLE
  5
183
100
AcDbEntity
  8
MOUNTING_HOLES_LAYER_TOP
100
AcDbCircle
 10
-9.95
 20
42.75
 30
0.0
 40
0.65
  0
HATCH
  5
184
100
AcDbEntity
  8
MOUNTING_HOLES_LAYER_TOP
100
AcDbHatch
 10
0.0
 20
0.0
 30
0.0
 210
0.0
 220
0.0
 230
1.0
  2
SOLID
 70
         1
 71
        1
 91
        1
  92
     1
  93
     1
 72
     2
 10
-9.95
 20
42.75
  40
0.65
  50
     0.0
  51
     360.0
 73
     0
  97
     1
  330
    387
 75
     0
 76
     1
  98
     1
 10
0.0
 20
0.0
  0
CIRCLE
  5
185
100
AcDbEntity
  8
MOUNTING_HOLES_LAYER_TOP
100
AcDbCircle
 10
-4.4
 20
56.0
 30
0.0
 40
0.6
  0
HATCH
  5
186
100
AcDbEntity
  8
MOUNTING_HOLES_LAYER_TOP
100
AcDbHatch
 10
0.0
 20
0.0
 30
0.0
 210
0.0
 220
0.0
 230
1.0
  2
SOLID
 70
         1
 71
        1
 91
        1
  92
     1
  93
     1
 72
     2
 10
-4.4
 20
56.0
  40
0.6
  50
     0.0
  51
     360.0
 73
     0
  97
     1
  330
    389
 75
     0
 76
     1
  98
     1
 10
0.0
 20
0.0
  0
CIRCLE
  5
187
100
AcDbEntity
  8
MOUNTING_HOLES_LAYER_TOP
100
AcDbCircle
 10
-11.4
 20
56.0
 30
0.0
 40
0.6
  0
HATCH
  5
188
100
AcDbEntity
  8
MOUNTING_HOLES_LAYER_TOP
100
AcDbHatch
 10
0.0
 20
0.0
 30
0.0
 210
0.0
 220
0.0
 230
1.0
  2
SOLID
 70
         1
 71
        1
 91
        1
  92
     1
  93
     1
 72
     2
 10
-11.4
 20
56.0
  40
0.6
  50
     0.0
  51
     360.0
 73
     0
  97
     1
  330
    391
 75
     0
 76
     1
  98
     1
 10
0.0
 20
0.0
  0
CIRCLE
  5
189
100
AcDbEntity
  8
MOUNTING_HOLES_LAYER_TOP
100
AcDbCircle
 10
-4.8
 20
6.45
 30
0.0
 40
0.275
  0
HATCH
  5
18A
100
AcDbEntity
  8
MOUNTING_HOLES_LAYER_TOP
100
AcDbHatch
 10
0.0
 20
0.0
 30
0.0
 210
0.0
 220
0.0
 230
1.0
  2
SOLID
 70
         1
 71
        1
 91
        1
  92
     1
  93
     1
 72
     2
 10
-4.8
 20
6.45
  40
0.275
  50
     0.0
  51
     360.0
 73
     0
  97
     1
  330
    393
 75
     0
 76
     1
  98
     1
 10
0.0
 20
0.0
  0
CIRCLE
  5
18B
100
AcDbEntity
  8
MOUNTING_HOLES_LAYER_TOP
100
AcDbCircle
 10
-4.8
 20
2.45
 30
0.0
 40
0.275
  0
HATCH
  5
18C
100
AcDbEntity
  8
MOUNTING_HOLES_LAYER_TOP
100
AcDbHatch
 10
0.0
 20
0.0
 30
0.0
 210
0.0
 220
0.0
 230
1.0
  2
SOLID
 70
         1
 71
        1
 91
        1
  92
     1
  93
     1
 72
     2
 10
-4.8
 20
2.45
  40
0.275
  50
     0.0
  51
     360.0
 73
     0
  97
     1
  330
    395
 75
     0
 76
     1
  98
     1
 10
0.0
 20
0.0
  0
CIRCLE
  5
18D
100
AcDbEntity
  8
PART_HOLES_LAYER_TOP
100
AcDbCircle
 10
-21.45
 20
35.3
 30
0.0
 40
0.45
  0
HATCH
  5
18E
100
AcDbEntity
  8
PART_HOLES_LAYER_TOP
100
AcDbHatch
 10
0.0
 20
0.0
 30
0.0
 210
0.0
 220
0.0
 230
1.0
  2
SOLID
 70
         1
 71
        1
 91
        1
  92
     1
  93
     1
 72
     2
 10
-21.45
 20
35.3
  40
0.45
  50
     0.0
  51
     360.0
 73
     0
  97
     1
  330
    397
 75
     0
 76
     1
  98
     1
 10
0.0
 20
0.0
  0
CIRCLE
  5
18F
100
AcDbEntity
  8
PART_HOLES_LAYER_TOP
100
AcDbCircle
 10
-21.45
 20
37.3
 30
0.0
 40
0.45
  0
HATCH
  5
190
100
AcDbEntity
  8
PART_HOLES_LAYER_TOP
100
AcDbHatch
 10
0.0
 20
0.0
 30
0.0
 210
0.0
 220
0.0
 230
1.0
  2
SOLID
 70
         1
 71
        1
 91
        1
  92
     1
  93
     1
 72
     2
 10
-21.45
 20
37.3
  40
0.45
  50
     0.0
  51
     360.0
 73
     0
  97
     1
  330
    399
 75
     0
 76
     1
  98
     1
 10
0.0
 20
0.0
  0
CIRCLE
  5
191
100
AcDbEntity
  8
PART_HOLES_LAYER_TOP
100
AcDbCircle
 10
-65.2
 20
1.5
 30
0.0
 40
0.4
  0
HATCH
  5
192
100
AcDbEntity
  8
PART_HOLES_LAYER_TOP
100
AcDbHatch
 10
0.0
 20
0.0
 30
0.0
 210
0.0
 220
0.0
 230
1.0
  2
SOLID
 70
         1
 71
        1
 91
        1
  92
     1
  93
     1
 72
     2
 10
-65.2
 20
1.5
  40
0.4
  50
     0.0
  51
     360.0
 73
     0
  97
     1
  330
    401
 75
     0
 76
     1
  98
     1
 10
0.0
 20
0.0
  0
CIRCLE
  5
193
100
AcDbEntity
  8
PART_HOLES_LAYER_TOP
100
AcDbCircle
 10
-67.2
 20
1.5
 30
0.0
 40
0.4
  0
HATCH
  5
194
100
AcDbEntity
  8
PART_HOLES_LAYER_TOP
100
AcDbHatch
 10
0.0
 20
0.0
 30
0.0
 210
0.0
 220
0.0
 230
1.0
  2
SOLID
 70
         1
 71
        1
 91
        1
  92
     1
  93
     1
 72
     2
 10
-67.2
 20
1.5
  40
0.4
  50
     0.0
  51
     360.0
 73
     0
  97
     1
  330
    403
 75
     0
 76
     1
  98
     1
 10
0.0
 20
0.0
  0
CIRCLE
  5
195
100
AcDbEntity
  8
PART_HOLES_LAYER_TOP
100
AcDbCircle
 10
-69.2
 20
1.5
 30
0.0
 40
0.4
  0
HATCH
  5
196
100
AcDbEntity
  8
PART_HOLES_LAYER_TOP
100
AcDbHatch
 10
0.0
 20
0.0
 30
0.0
 210
0.0
 220
0.0
 230
1.0
  2
SOLID
 70
         1
 71
        1
 91
        1
  92
     1
  93
     1
 72
     2
 10
-69.2
 20
1.5
  40
0.4
  50
     0.0
  51
     360.0
 73
     0
  97
     1
  330
    405
 75
     0
 76
     1
  98
     1
 10
0.0
 20
0.0
  0
CIRCLE
  5
197
100
AcDbEntity
  8
PART_HOLES_LAYER_TOP
100
AcDbCircle
 10
-71.2
 20
1.5
 30
0.0
 40
0.4
  0
HATCH
  5
198
100
AcDbEntity
  8
PART_HOLES_LAYER_TOP
100
AcDbHatch
 10
0.0
 20
0.0
 30
0.0
 210
0.0
 220
0.0
 230
1.0
  2
SOLID
 70
         1
 71
        1
 91
        1
  92
     1
  93
     1
 72
     2
 10
-71.2
 20
1.5
  40
0.4
  50
     0.0
  51
     360.0
 73
     0
  97
     1
  330
    407
 75
     0
 76
     1
  98
     1
 10
0.0
 20
0.0
  0
CIRCLE
  5
199
100
AcDbEntity
  8
PART_HOLES_LAYER_TOP
100
AcDbCircle
 10
-73.2
 20
1.5
 30
0.0
 40
0.4
  0
HATCH
  5
19A
100
AcDbEntity
  8
PART_HOLES_LAYER_TOP
100
AcDbHatch
 10
0.0
 20
0.0
 30
0.0
 210
0.0
 220
0.0
 230
1.0
  2
SOLID
 70
         1
 71
        1
 91
        1
  92
     1
  93
     1
 72
     2
 10
-73.2
 20
1.5
  40
0.4
  50
     0.0
  51
     360.0
 73
     0
  97
     1
  330
    409
 75
     0
 76
     1
  98
     1
 10
0.0
 20
0.0
  0
CIRCLE
  5
19B
100
AcDbEntity
  8
PART_HOLES_LAYER_TOP
100
AcDbCircle
 10
-75.2
 20
1.5
 30
0.0
 40
0.4
  0
HATCH
  5
19C
100
AcDbEntity
  8
PART_HOLES_LAYER_TOP
100
AcDbHatch
 10
0.0
 20
0.0
 30
0.0
 210
0.0
 220
0.0
 230
1.0
  2
SOLID
 70
         1
 71
        1
 91
        1
  92
     1
  93
     1
 72
     2
 10
-75.2
 20
1.5
  40
0.4
  50
     0.0
  51
     360.0
 73
     0
  97
     1
  330
    411
 75
     0
 76
     1
  98
     1
 10
0.0
 20
0.0
  0
CIRCLE
  5
19D
100
AcDbEntity
  8
PART_HOLES_LAYER_TOP
100
AcDbCircle
 10
-19.2
 20
42.3
 30
0.0
 40
0.45
  0
HATCH
  5
19E
100
AcDbEntity
  8
PART_HOLES_LAYER_TOP
100
AcDbHatch
 10
0.0
 20
0.0
 30
0.0
 210
0.0
 220
0.0
 230
1.0
  2
SOLID
 70
         1
 71
        1
 91
        1
  92
     1
  93
     1
 72
     2
 10
-19.2
 20
42.3
  40
0.45
  50
     0.0
  51
     360.0
 73
     0
  97
     1
  330
    413
 75
     0
 76
     1
  98
     1
 10
0.0
 20
0.0
  0
ENDSEC
  0
SECTION
  2
OBJECTS
  0
DICTIONARY
  5
16
100
AcDbDictionary
  3
ACAD_GROUP
350
17
  3
ACAD_MLINESTYLE
350
18
  0
DICTIONARY
  5
17
102
{ACAD_REACTORS
330
16
102
}
100
AcDbDictionary
  0
DICTIONARY
  5
18
102
{ACAD_REACTORS
330
16
102
}
100
AcDbDictionary
  3
STANDARD
350
19
  0
MLINESTYLE
  5
19
102
{ACAD_REACTORS
330
18
102
}
100
AcDbMlineStyle
  2
STANDARD
 70
         0
  3

 62
         0
 51
90.0
 52
90.0
 71
        2
 49
0.5
 62
         256
  6
BYLAYER
 49
-0.5
 62
         256
  6
BYLAYER
  0
DICTIONARY
  5
1A
102
{ACAD_REACTORS
330
16
102
}
100
AcDbDictionary
  0
ENDSEC
  0
EOF
