  0
SECTION
  2
HEADER
  9
$ACADVER
  1
AC1014
  9
$ACADMAINTVER
 70
         0
  9
$DWGCODEPAGE
  3
ANSI_1252
  9
$INSBASE
 10
0.0
 20
0.0
 30
0.0
  9
$EXTMIN
 10
0.0
 20
0.0
 30
0.0
  9
$EXTMAX
 10
89.754185
 20
161.781948
 30
0.0
  9
$LIMMIN
 10
0.0
 20
0.0
  9
$LIMMAX
 10
0.0
 20
0.0
  9
$ORTHOMODE
 70
         0
  9
$REGENMODE
 70
         1
  9
$FILLMODE
 70
         1
  9
$QTEXTMODE
 70
         0
  9
$MIRRTEXT
 70
         1
  9
$DRAGMODE
 70
         2
  9
$LTSCALE
 40
1.0
  9
$OSMODE
 70
         0
  9
$ATTMODE
 70
         1
  9
$TEXTSIZE
 40
0.2
  9
$TRACEWID
 40
0.05
  9
$TEXTSTYLE
  7
STANDARD
  9
$CLAYER
  8
0
  9
$CELTYPE
  6
CONTINUOUS
  9
$CECOLOR
 62
       256
  9
$CELTSCALE
 40
1.0
  9
$DELOBJ
 70
         1
  9
$DISPSILH
 70
         0
  9
$DIMSCALE
 40
1.0
  9
$DIMASZ
 40
0.18
  9
$DIMEXO
 40
0.0625
  9
$DIMDLI
 40
0.38
  9
$DIMRND
 40
0.0
  9
$DIMDLE
 40
0.0
  9
$DIMEXE
 40
0.18
  9
$DIMTP
 40
0.0
  9
$DIMTM
 40
0.0
  9
$DIMTXT
 40
0.18
  9
$DIMCEN
 40
0.09
  9
$DIMTSZ
 40
0.0
  9
$DIMTOL
 70
         0
  9
$DIMLIM
 70
         0
  9
$DIMTIH
 70
         1
  9
$DIMTOH
 70
         1
  9
$DIMSE1
 70
         0
  9
$DIMSE2
 70
         0
  9
$DIMTAD
 70
         0
  9
$DIMZIN
 70
         0
  9
$DIMBLK
  1

  9
$DIMASO
 70
         1
  9
$DIMSHO
 70
         1
  9
$DIMPOST
  1

  9
$DIMAPOST
  1

  9
$DIMALT
 70
         0
  9
$DIMALTD
 70
         2
  9
$DIMALTF
 40
25.4
  9
$DIMLFAC
 40
1.0
  9
$DIMTOFL
 70
         0
  9
$DIMTVP
 40
0.0
  9
$DIMTIX
 70
         0
  9
$DIMSOXD
 70
         0
  9
$DIMSAH
 70
         0
  9
$DIMBLK1
  1

  9
$DIMBLK2
  1

  9
$DIMSTYLE
  2
STANDARD
  9
$DIMCLRD
 70
         0
  9
$DIMCLRE
 70
         0
  9
$DIMCLRT
 70
         0
  9
$DIMTFAC
 40
1.0
  9
$DIMGAP
 40
0.09
  9
$DIMJUST
 70
         0
  9
$DIMSD1
 70
         0
  9
$DIMSD2
 70
         0
  9
$DIMTOLJ
 70
         1
  9
$DIMTZIN
 70
         0
  9
$DIMALTZ
 70
         0
  9
$DIMALTTZ
 70
         0
  9
$DIMFIT
 70
         3
  9
$DIMUPT
 70
         0
  9
$DIMUNIT
 70
         2
  9
$DIMDEC
 70
         4
  9
$DIMTDEC
 70
         4
  9
$DIMALTU
 70
         2
  9
$DIMALTTD
 70
         2
  9
$DIMTXSTY
  7
STANDARD
  9
$DIMAUNIT
 70
         0
  9
$LUNITS
 70
         2
  9
$LUPREC
 70
         4
  9
$SKETCHINC
 40
0.1
  9
$FILLETRAD
 40
0.0
  9
$AUNITS
 70
         0
  9
$AUPREC
 70
         0
  9
$MENU
  1
acad
  9
$ELEVATION
 40
0.0
  9
$PELEVATION
 40
0.0
  9
$THICKNESS
 40
0.0
  9
$LIMCHECK
 70
         0
  9
$BLIPMODE
 70
         1
  9
$CHAMFERA
 40
0.0
  9
$CHAMFERB
 40
0.0
  9
$CHAMFERC
 40
0.0
  9
$CHAMFERD
 40
0.0
  9
$SKPOLY
 70
         0
  9
$TDCREATE
 40
2456667.695000000
  9
$TDUPDATE
 40
0.000000000
  9
$TDINDWG
 40
0.0000000000
  9
$TDUSRTIMER
 40
0.0000000000
  9
$USRTIMER
 70
         1
  9
$ANGBASE
 50
0.0
  9
$ANGDIR
 70
         0
  9
$PDMODE
 70
         0
  9
$PDSIZE
 40
0.0
  9
$PLINEWID
 40
0.0
  9
$COORDS
 70
         0
  9
$SPLFRAME
 70
         0
  9
$SPLINETYPE
 70
         6
  9
$SPLINESEGS
 70
         8
  9
$ATTDIA
 70
         0
  9
$ATTREQ
 70
         1
  9
$HANDLING
 70
         1
  9
$HANDSEED
  5
3A5
  9
$SURFTAB1
 70
         6
  9
$SURFTAB2
 70
         6
  9
$SURFTYPE
 70
         6
  9
$SURFU
 70
         6
  9
$SURFV
 70
         6
  9
$UCSNAME
  2

  9
$UCSORG
 10
0.0
 20
0.0
 30
0.0
  9
$UCSXDIR
 10
1.0
 20
0.0
 30
0.0
  9
$UCSYDIR
 10
0.0
 20
1.0
 30
0.0
  9
$PUCSNAME
  2

  9
$PUCSORG
 10
0.0
 20
0.0
 30
0.0
  9
$PUCSXDIR
 10
1.0
 20
0.0
 30
0.0
  9
$PUCSYDIR
 10
0.0
 20
1.0
 30
0.0
  9
$USERI1
 70
        -3
  9
$USERI2
 70
         0
  9
$USERI3
 70
         0
  9
$USERI4
 70
         0
  9
$USERI5
 70
         0
  9
$USERR1
 40
0.0
  9
$USERR2
 40
0.0
  9
$USERR3
 40
0.0
  9
$USERR4
 40
0.0
  9
$USERR5
 40
0.0
  9
$WORLDVIEW
 70
         1
  9
$SHADEDGE
 70
         3
  9
$SHADEDIF
 70
        70
  9
$TILEMODE
 70
         1
  9
$MAXACTVP
 70
        16
  9
$PINSBASE
 10
0.0
 20
0.0
 30
0.0
  9
$PLIMCHECK
 70
         0
  9
$PEXTMIN
 10
1.0000000000E+20
 20
1.0000000000E+20
 30
1.0000000000E+20
  9
$PEXTMAX
 10
-1.0000000000E+20
 20
-1.0000000000E+20
 30
-1.0000000000E+20
  9
$PLIMMIN
 10
0.0
 20
0.0
  9
$PLIMMAX
 10
12.0
 20
9.0
  9
$UNITMODE
 70
         0
  9
$VISRETAIN
 70
         0
  9
$PLINEGEN
 70
         1
  9
$PSLTSCALE
 70
         0
  9
$TREEDEPTH
 70
      3020
  9
$PICKSTYLE
 70
         1
  9
$CMLSTYLE
  2
STANDARD
  9
$CMLJUST
 70
         0
  9
$CMLSCALE
 40
1.0
  9
$PROXYGRAPHICS
 70
         0
  9
$MEASUREMENT
 70
         0
  0
ENDSEC
  0
SECTION
  2
CLASSES
  0
CLASS
  1
LWPOLYLINE
  2
AcDbPolyline
  3
"AutoCAD"
 90
        0
280
         0
281
         1
  0
CLASS
  1
IMAGE
  2
AcDbRasterImage
  3
ISM
 90
      127
280
         0
281
         1
  0
CLASS
  1
OLE2FRAME
  2
AcDbOle2Frame
  3
""
 90
        0
280
         0
281
         1
  0
CLASS
  1
HATCH
  2
AcDbHatch
  3
"ACAD_SEDONA"
 90
        0
280
         0
281
         1
  0
CLASS
  1
DICTIONARYVAR
  2
AcDbDictionaryVar
  3
"AutoCAD"
 90
        0
280
         0
281
         0
  0
CLASS
  1
RASTERVARIABLES
  2
AcDbRasterVariables
  3
ISM
 90
        0
280
         0
281
         0
  0
CLASS
  1
IMAGEDEF
  2
AcDbRasterImageDef
  3
ISM
 90
        0
280
         0
281
         0
  0
CLASS
  1
IMAGEDEF_REACTOR
  2
AcDbRasterImageDefReactor
  3
ISM
 90
        1
280
         0
281
         0
  0
CLASS
  1
IDBUFFER
  2
AcDbIdBuffer
  3
"Acad"
 90
        0
280
         0
281
         0
  0
CLASS
  1
SPATIAL_FILTER
  2
AcDbSpatialFilter
  3
"Acad"
 90
        0
280
         0
281
         0
  0
CLASS
  1
XRECORD
  2
AcDbXrecord
  3
"<Built In>"
 90
        0
280
         0
281
         0
  0
CLASS
  1
SORTENTSTABLE
  2
AcDbSortentsTable
  3
"AutoCAD"
 90
        0
280
         0
281
         0
  0
CLASS
  1
LAYER_INDEX
  2
AcDbLayerIndex
  3
"Acad"
 90
        0
280
         0
281
         0
  0
CLASS
  1
SPATIAL_INDEX
  2
AcDbSpatialIndex
  3
"Acad"
 90
        0
280
         0
281
         0
  0
CLASS
  1
OBJECT_PTR
  2
CAseDLPNTableRecord
  3
"ASE-LPNTableRecord"
 90
        1
280
         0
281
         0
  0
CLASS
  1
LAYOUT
  2
AcDbLayout
  3
"AutoCAD 2000"
 90
        0
280
         0
281
         0
  0
CLASS
  1
PLOTSETTINGS
  2
AcDbPlotSettings
  3
"AutoCAD 2000"
 90
        0
280
         0
281
         0
  0
CLASS
  1
ACDBDICTIONARYWDFLT
  2
AcDbDictionaryWithDefault
  3
"AutoCAD 2000"
 90
        0
280
         0
281
         0
  0
CLASS
  1
ACDBPLACEHOLDER
  2
AcDbPlaceHolder
  3
"AutoCAD 2000"
 90
        0
280
         0
281
         0
  0
CLASS
  1
VBA_PROJECT
  2
AcDbVbaProject
  3
"acadvba"
 90
        0
280
         0
281
         0
  0
CLASS
  1
WIPEOUT
  2
AcDbWipeout
  3
WipeOut|AutoCAD Express Tool|expresstools@autodesk.com
 90
      127
280
         0
281
         1
  0
CLASS
  1
WIPEOUTVARIABLES
  2
AcDbWipeoutVariables
  3
WipeOut|AutoCAD Express Tool|expresstools@autodesk.com
 90
        0
280
         0
281
         0
  0
CLASS
  1
RTEXT
  2
RText
  3
RText|AutoCAD Express Tool|expresstools@autodesk.com
 90
        0
280
         0
281
         1
  0
CLASS
  1
ARCALIGNEDTEXT
  2
AcDbArcAlignedText
  3
ATEXT|AutoCAD Express Tool|expresstools@autodesk.com
 90
        0
280
         0
281
         1
  0
ENDSEC
  0
SECTION
  2
TABLES
  0
TABLE
  2
VPORT
  5
7
100
AcDbSymbolTable
 70
         1
  0
VPORT
  5
15
100
AcDbSymbolTableRecord
100
AcDbViewportTableRecord
  2
*ACTIVE
 70
         0
 10
0.0
 20
0.0
 11
1.0
 21
1.0
 12
6.591288
 22
4.579184
 13
0.0
 23
0.0
 14
1.0
 24
1.0
 15
0.0
 25
0.0
 16
0.0
 26
0.0
 36
1.0
 17
0.0
 27
0.0
 37
0.0
 40
9.158369
 41
0.688564
 42
50.0
 43
0.0
 44
0.0
 50
0.0
 51
0.0
 71
         0
 72
       100
 73
         1
 74
         1
 75
         0
 76
         0
 77
         0
 78
         0
  0
ENDTAB
  0
TABLE
  2
LTYPE
  5
4
100
AcDbSymbolTable
 70
         3
  0
LTYPE
  5
11
100
AcDbSymbolTableRecord
100
AcDbLinetypeTableRecord
  2
BYBLOCK
 70
        64
  3

 72
        65
 73
         0
 40
0.0
  0
LTYPE
  5
12
100
AcDbSymbolTableRecord
100
AcDbLinetypeTableRecord
  2
BYLAYER
 70
        64
  3

 72
        65
 73
         0
 40
0.0
  0
LTYPE
  5
13
100
AcDbSymbolTableRecord
100
AcDbLinetypeTableRecord
  2
CONTINUOUS
 70
        64
  3
Solid line
 72
        65
 73
         0
 40
0.0
  0
ENDTAB
  0
TABLE
  2
LAYER
  5
2
100
AcDbSymbolTable
 70
         6
  0
LAYER
  5
14
100
AcDbSymbolTableRecord
100
AcDbLayerTableRecord
  2
0
 70
         0
 62
         7
  6
CONTINUOUS
  0
LAYER
  5
24
100
AcDbSymbolTableRecord
100
AcDbLayerTableRecord
  2
ASSEMBLY_OUTLINES_TOP
 70
         0
 62
       102
  6
CONTINUOUS
  0
LAYER
  5
25
100
AcDbSymbolTableRecord
100
AcDbLayerTableRecord
  2
ASSEMBLY_REF_DES_TOP
 70
         0
 62
       102
  6
CONTINUOUS
  0
LAYER
  5
26
100
AcDbSymbolTableRecord
100
AcDbLayerTableRecord
  2
BOARD_OUTLINE
 70
         0
 62
        10
  6
CONTINUOUS
  0
LAYER
  5
27
100
AcDbSymbolTableRecord
100
AcDbLayerTableRecord
  2
MOUNTING_HOLES_LAYER_TOP
 70
         0
 62
        42
  6
CONTINUOUS
  0
LAYER
  5
28
100
AcDbSymbolTableRecord
100
AcDbLayerTableRecord
  2
PART_HOLES_LAYER_TOP
 70
         0
 62
        30
  6
CONTINUOUS
  0
ENDTAB
  0
TABLE
  2
STYLE
  5
3
100
AcDbSymbolTable
 70
         3
  0
STYLE
  5
17
100
AcDbSymbolTableRecord
100
AcDbTextStyleTableRecord
  2
STANDARD
 70
         0
 40
0.0
 41
1.0
 50
0.0
 71
         0
 42
0.0
  3
txt
  4

  0
STYLE
  5
87
100
AcDbSymbolTableRecord
100
AcDbTextStyleTableRecord
  2
VERIBEST_GERBER_1
 70
         0
 40
0.0
 41
1.0
 50
0.0
 71
         0
 42
0.0
  3

  4

  0
STYLE
  5
1FB
100
AcDbSymbolTableRecord
100
AcDbTextStyleTableRecord
  2
GOST_TYPE_B
 70
         0
 40
0.0
 41
1.0
 50
0.0
 71
         0
 42
0.0
  3
gost_0.ttf
  4

  0
ENDTAB
  0
TABLE
  2
VIEW
  5
5
100
AcDbSymbolTable
 70
         0
  0
ENDTAB
  0
TABLE
  2
UCS
  5
6
100
AcDbSymbolTable
 70
         0
  0
ENDTAB
  0
TABLE
  2
APPID
  5
8
100
AcDbSymbolTable
 70
         1
  0
APPID
  5
16
100
AcDbSymbolTableRecord
100
AcDbRegAppTableRecord
  2
ACAD
 70
         0
  0
ENDTAB
  0
TABLE
  2
DIMSTYLE
  5
9
100
AcDbSymbolTable
 70
         1
  0
DIMSTYLE
105
18
100
AcDbSymbolTableRecord
100
AcDbDimStyleTableRecord
  2
STANDARD
 70
         0
  3

  4

  5

  6

  7

 40
1.0
 41
0.18
 42
0.0625
 43
0.38
 44
0.18
 45
0.0
 46
0.0
 47
0.0
 48
0.0
 71
         0
 72
         0
 73
         1
 74
         1
 75
         0
 76
         0
 77
         0
 78
         0
140
0.18
141
0.09
142
0.0
143
25.4
144
1.0
145
0.0
146
1.0
147
0.09
170
         0
171
         2
172
         0
173
         0
174
         0
175
         0
176
         0
177
         0
178
         0
270
         2
271
         4
272
         4
273
         2
274
         2
275
         0
280
         0
281
         0
282
         0
283
         1
284
         0
285
         0
286
         0
287
         3
288
         0
340
17
  0
ENDTAB
  0
TABLE
  2
BLOCK_RECORD
  5
1
100
AcDbSymbolTable
 70
         0
  0
BLOCK_RECORD
  5
A
100
AcDbSymbolTableRecord
100
AcDbBlockTableRecord
  2
*MODEL_SPACE
  0
BLOCK_RECORD
  5
B
100
AcDbSymbolTableRecord
100
AcDbBlockTableRecord
  2
*PAPER_SPACE
  0
ENDTAB
  0
ENDSEC
  0
SECTION
  2
BLOCKS
  0
BLOCK
  5
D
100
AcDbEntity
  8
0
100
AcDbBlockBegin
  2
*MODEL_SPACE
 70
         0
 10
0.0
 20
0.0
 30
0.0
  3
*MODEL_SPACE
  1

  0
ENDBLK
  5
E
100
AcDbEntity
  8
0
100
AcDbBlockEnd
  0
BLOCK
  5
F
100
AcDbEntity
 67
         1
  8
0
100
AcDbBlockBegin
  2
*PAPER_SPACE
 70
         0
 10
0.0
 20
0.0
 30
0.0
  3
*PAPER_SPACE
  1

  0
ENDBLK
  5
10
100
AcDbEntity
 67
         1
  8
0
100
AcDbBlockEnd
  0
ENDSEC
  0
SECTION
  2
ENTITIES
  0
LWPOLYLINE
  5
29
100
AcDbEntity
  8
ASSEMBLY_OUTLINES_TOP
100
AcDbPolyline
 90
        3
 70
         1
 10
29.0
 20
77.626498
 10
30.143
 20
78.197998
 10
30.143
 20
77.054998
  0
HATCH
  5
2A
100
AcDbEntity
  8
ASSEMBLY_OUTLINES_TOP
100
AcDbHatch
 10
0.0
 20
0.0
 30
0.0
210
0.0
220
0.0
230
1.0
  2
SOLID
 70
         1
 71
         1
 91
        1
 92
        2
 72
         0
 73
         1
 93
        3
 10
29.0
 20
77.626497999999998
 10
30.143000000000001
 20
78.197997999999998
 10
30.143000000000001
 20
77.054997999999998
 97
        1
330
29
 75
         0
 76
         1
 98
        1
 10
0.0
 20
0.0
  0
LWPOLYLINE
  5
2B
100
AcDbEntity
  8
ASSEMBLY_OUTLINES_TOP
100
AcDbPolyline
 90
        3
 70
         1
 10
24.2
 20
77.626498
 10
23.057
 20
77.054999
 10
23.057
 20
78.197998
  0
HATCH
  5
2C
100
AcDbEntity
  8
ASSEMBLY_OUTLINES_TOP
100
AcDbHatch
 10
0.0
 20
0.0
 30
0.0
210
0.0
220
0.0
230
1.0
  2
SOLID
 70
         1
 71
         1
 91
        1
 92
        2
 72
         0
 73
         1
 93
        3
 10
24.199999999999999
 20
77.626497999999998
 10
23.056999999999999
 20
77.054998999999995
 10
23.056999999999999
 20
78.197997999999998
 97
        1
330
2B
 75
         0
 76
         1
 98
        1
 10
0.0
 20
0.0
  0
LWPOLYLINE
  5
2D
100
AcDbEntity
  8
ASSEMBLY_OUTLINES_TOP
100
AcDbPolyline
 90
        2
 70
         0
 43
0.2032
 10
29.5715
 20
77.626498
 10
31.8575
 20
77.626498
  0
LWPOLYLINE
  5
2E
100
AcDbEntity
  8
ASSEMBLY_OUTLINES_TOP
100
AcDbPolyline
 90
        2
 70
         0
 43
0.2032
 10
23.6285
 20
77.626498
 10
21.3425
 20
77.626498
  0
LWPOLYLINE
  5
2F
100
AcDbEntity
  8
ASSEMBLY_OUTLINES_TOP
100
AcDbPolyline
 90
        2
 70
         0
 43
0.2032
 10
29.0
 20
107.692
 10
29.0
 20
77.118498
  0
LWPOLYLINE
  5
30
100
AcDbEntity
  8
ASSEMBLY_OUTLINES_TOP
100
AcDbPolyline
 90
        2
 70
         0
 43
0.2032
 10
24.2
 20
79.292
 10
24.2
 20
77.118498
  0
LWPOLYLINE
  5
31
100
AcDbEntity
  8
ASSEMBLY_OUTLINES_TOP
100
AcDbPolyline
 90
        3
 70
         1
 10
20.701845
 20
79.8
 10
20.130345
 20
80.943
 10
21.273345
 20
80.943
  0
HATCH
  5
32
100
AcDbEntity
  8
ASSEMBLY_OUTLINES_TOP
100
AcDbHatch
 10
0.0
 20
0.0
 30
0.0
210
0.0
220
0.0
230
1.0
  2
SOLID
 70
         1
 71
         1
 91
        1
 92
        2
 72
         0
 73
         1
 93
        3
 10
20.701844999999999
 20
79.799999999999997
 10
20.130344999999998
 20
80.942999999999998
 10
21.273344999999999
 20
80.942999999999998
 97
        1
330
31
 75
         0
 76
         1
 98
        1
 10
0.0
 20
0.0
  0
LWPOLYLINE
  5
33
100
AcDbEntity
  8
ASSEMBLY_OUTLINES_TOP
100
AcDbPolyline
 90
        3
 70
         1
 10
20.701845
 20
108.2
 10
21.273344
 20
107.057
 10
20.130345
 20
107.057001
  0
HATCH
  5
34
100
AcDbEntity
  8
ASSEMBLY_OUTLINES_TOP
100
AcDbHatch
 10
0.0
 20
0.0
 30
0.0
210
0.0
220
0.0
230
1.0
  2
SOLID
 70
         1
 71
         1
 91
        1
 92
        2
 72
         0
 73
         1
 93
        3
 10
20.701844999999999
 20
108.2
 10
21.273344000000002
 20
107.057
 10
20.130344999999998
 20
107.057001
 97
        1
330
33
 75
         0
 76
         1
 98
        1
 10
0.0
 20
0.0
  0
LWPOLYLINE
  5
35
100
AcDbEntity
  8
ASSEMBLY_OUTLINES_TOP
100
AcDbPolyline
 90
        2
 70
         0
 43
0.2032
 10
20.701845
 20
90.140597
 10
20.701845
 20
80.3715
  0
LWPOLYLINE
  5
36
100
AcDbEntity
  8
ASSEMBLY_OUTLINES_TOP
100
AcDbPolyline
 90
        2
 70
         0
 43
0.2032
 10
20.701845
 20
107.6285
 10
20.701845
 20
97.859402
  0
LWPOLYLINE
  5
37
100
AcDbEntity
  8
ASSEMBLY_OUTLINES_TOP
100
AcDbPolyline
 90
        2
 70
         0
 43
0.2032
 10
23.692
 20
79.8
 10
20.193845
 20
79.8
  0
LWPOLYLINE
  5
38
100
AcDbEntity
  8
ASSEMBLY_OUTLINES_TOP
100
AcDbPolyline
 90
        2
 70
         0
 43
0.2032
 10
28.492
 20
108.2
 10
20.193845
 20
108.2
  0
LWPOLYLINE
  5
39
100
AcDbEntity
  8
ASSEMBLY_OUTLINES_TOP
100
AcDbPolyline
 90
        3
 70
         1
 10
85.7
 20
131.82925
 10
86.843
 20
132.40075
 10
86.843
 20
131.25775
  0
HATCH
  5
3A
100
AcDbEntity
  8
ASSEMBLY_OUTLINES_TOP
100
AcDbHatch
 10
0.0
 20
0.0
 30
0.0
210
0.0
220
0.0
230
1.0
  2
SOLID
 70
         1
 71
         1
 91
        1
 92
        2
 72
         0
 73
         1
 93
        3
 10
85.700000000000003
 20
131.82925
 10
86.843000000000004
 20
132.40074999999999
 10
86.843000000000004
 20
131.25774999999999
 97
        1
330
39
 75
         0
 76
         1
 98
        1
 10
0.0
 20
0.0
  0
LWPOLYLINE
  5
3B
100
AcDbEntity
  8
ASSEMBLY_OUTLINES_TOP
100
AcDbPolyline
 90
        3
 70
         1
 10
83.2
 20
131.82925
 10
82.057
 20
131.257751
 10
82.057
 20
132.40075
  0
HATCH
  5
3C
100
AcDbEntity
  8
ASSEMBLY_OUTLINES_TOP
100
AcDbHatch
 10
0.0
 20
0.0
 30
0.0
210
0.0
220
0.0
230
1.0
  2
SOLID
 70
         1
 71
         1
 91
        1
 92
        2
 72
         0
 73
         1
 93
        3
 10
83.200000000000003
 20
131.82925
 10
82.057000000000002
 20
131.25775100000001
 10
82.057000000000002
 20
132.40074999999999
 97
        1
330
3B
 75
         0
 76
         1
 98
        1
 10
0.0
 20
0.0
  0
LWPOLYLINE
  5
3D
100
AcDbEntity
  8
ASSEMBLY_OUTLINES_TOP
100
AcDbPolyline
 90
        2
 70
         0
 43
0.2032
 10
86.2715
 20
131.82925
 10
88.5575
 20
131.82925
  0
LWPOLYLINE
  5
3E
100
AcDbEntity
  8
ASSEMBLY_OUTLINES_TOP
100
AcDbPolyline
 90
        2
 70
         0
 43
0.2032
 10
82.6285
 20
131.82925
 10
80.3425
 20
131.82925
  0
LWPOLYLINE
  5
3F
100
AcDbEntity
  8
ASSEMBLY_OUTLINES_TOP
100
AcDbPolyline
 90
        2
 70
         0
 43
0.2032
 10
85.7
 20
158.292
 10
85.7
 20
131.32125
  0
LWPOLYLINE
  5
40
100
AcDbEntity
  8
ASSEMBLY_OUTLINES_TOP
100
AcDbPolyline
 90
        2
 70
         0
 43
0.2032
 10
83.2
 20
133.792
 10
83.2
 20
131.32125
  0
LWPOLYLINE
  5
41
100
AcDbEntity
  8
ASSEMBLY_OUTLINES_TOP
100
AcDbPolyline
 90
        3
 70
         1
 10
87.4
 20
134.3
 10
86.8285
 20
135.443
 10
87.9715
 20
135.443
  0
HATCH
  5
42
100
AcDbEntity
  8
ASSEMBLY_OUTLINES_TOP
100
AcDbHatch
 10
0.0
 20
0.0
 30
0.0
210
0.0
220
0.0
230
1.0
  2
SOLID
 70
         1
 71
         1
 91
        1
 92
        2
 72
         0
 73
         1
 93
        3
 10
87.400000000000006
 20
134.30000000000001
 10
86.828500000000005
 20
135.44300000000001
 10
87.971500000000006
 20
135.44300000000001
 97
        1
330
41
 75
         0
 76
         1
 98
        1
 10
0.0
 20
0.0
  0
LWPOLYLINE
  5
43
100
AcDbEntity
  8
ASSEMBLY_OUTLINES_TOP
100
AcDbPolyline
 90
        3
 70
         1
 10
87.4
 20
158.8
 10
87.971499
 20
157.657
 10
86.8285
 20
157.657001
  0
HATCH
  5
44
100
AcDbEntity
  8
ASSEMBLY_OUTLINES_TOP
100
AcDbHatch
 10
0.0
 20
0.0
 30
0.0
210
0.0
220
0.0
230
1.0
  2
SOLID
 70
         1
 71
         1
 91
        1
 92
        2
 72
         0
 73
         1
 93
        3
 10
87.400000000000006
 20
158.80000000000001
 10
87.971498999999994
 20
157.65700000000001
 10
86.828500000000005
 20
157.65700100000001
 97
        1
330
43
 75
         0
 76
         1
 98
        1
 10
0.0
 20
0.0
  0
LWPOLYLINE
  5
45
100
AcDbEntity
  8
ASSEMBLY_OUTLINES_TOP
100
AcDbPolyline
 90
        2
 70
         0
 43
0.2032
 10
87.4
 20
142.690597
 10
87.4
 20
134.8715
  0
LWPOLYLINE
  5
46
100
AcDbEntity
  8
ASSEMBLY_OUTLINES_TOP
100
AcDbPolyline
 90
        2
 70
         0
 43
0.2032
 10
87.4
 20
158.2285
 10
87.4
 20
150.409402
  0
LWPOLYLINE
  5
47
100
AcDbEntity
  8
ASSEMBLY_OUTLINES_TOP
100
AcDbPolyline
 90
        2
 70
         0
 43
0.2032
 10
83.708
 20
134.3
 10
87.908
 20
134.3
  0
LWPOLYLINE
  5
48
100
AcDbEntity
  8
ASSEMBLY_OUTLINES_TOP
100
AcDbPolyline
 90
        2
 70
         0
 43
0.2032
 10
86.208
 20
158.8
 10
87.908
 20
158.8
  0
LWPOLYLINE
  5
49
100
AcDbEntity
  8
ASSEMBLY_OUTLINES_TOP
100
AcDbPolyline
 90
        3
 70
         1
 10
23.164976
 20
156.3
 10
23.736475
 20
155.157
 10
22.593476
 20
155.157001
  0
HATCH
  5
4A
100
AcDbEntity
  8
ASSEMBLY_OUTLINES_TOP
100
AcDbHatch
 10
0.0
 20
0.0
 30
0.0
210
0.0
220
0.0
230
1.0
  2
SOLID
 70
         1
 71
         1
 91
        1
 92
        2
 72
         0
 73
         1
 93
        3
 10
23.164975999999999
 20
156.30000000000001
 10
23.736474999999999
 20
155.15700000000001
 10
22.593475999999999
 20
155.15700100000001
 97
        1
330
49
 75
         0
 76
         1
 98
        1
 10
0.0
 20
0.0
  0
LWPOLYLINE
  5
4B
100
AcDbEntity
  8
ASSEMBLY_OUTLINES_TOP
100
AcDbPolyline
 90
        3
 70
         1
 10
23.164976
 20
158.8
 10
22.593476
 20
159.943
 10
23.736476
 20
159.943
  0
HATCH
  5
4C
100
AcDbEntity
  8
ASSEMBLY_OUTLINES_TOP
100
AcDbHatch
 10
0.0
 20
0.0
 30
0.0
210
0.0
220
0.0
230
1.0
  2
SOLID
 70
         1
 71
         1
 91
        1
 92
        2
 72
         0
 73
         1
 93
        3
 10
23.164975999999999
 20
158.80000000000001
 10
22.593475999999999
 20
159.94300000000001
 10
23.736476
 20
159.94300000000001
 97
        1
330
4B
 75
         0
 76
         1
 98
        1
 10
0.0
 20
0.0
  0
LWPOLYLINE
  5
4D
100
AcDbEntity
  8
ASSEMBLY_OUTLINES_TOP
100
AcDbPolyline
 90
        2
 70
         0
 43
0.2032
 10
23.164976
 20
155.7285
 10
23.164976
 20
153.4425
  0
LWPOLYLINE
  5
4E
100
AcDbEntity
  8
ASSEMBLY_OUTLINES_TOP
100
AcDbPolyline
 90
        2
 70
         0
 43
0.2032
 10
23.164976
 20
159.3715
 10
23.164976
 20
161.6575
  0
LWPOLYLINE
  5
4F
100
AcDbEntity
  8
ASSEMBLY_OUTLINES_TOP
100
AcDbPolyline
 90
        2
 70
         0
 43
0.2032
 10
44.192
 20
156.3
 10
22.656976
 20
156.3
  0
LWPOLYLINE
  5
50
100
AcDbEntity
  8
ASSEMBLY_OUTLINES_TOP
100
AcDbPolyline
 90
        2
 70
         0
 43
0.2032
 10
23.692
 20
158.8
 10
22.656976
 20
158.8
  0
LWPOLYLINE
  5
51
100
AcDbEntity
  8
ASSEMBLY_OUTLINES_TOP
100
AcDbPolyline
 90
        3
 70
         1
 10
44.7
 20
161.172348
 10
43.557
 20
160.600849
 10
43.557
 20
161.743848
  0
HATCH
  5
52
100
AcDbEntity
  8
ASSEMBLY_OUTLINES_TOP
100
AcDbHatch
 10
0.0
 20
0.0
 30
0.0
210
0.0
220
0.0
230
1.0
  2
SOLID
 70
         1
 71
         1
 91
        1
 92
        2
 72
         0
 73
         1
 93
        3
 10
44.700000000000003
 20
161.172348
 10
43.557000000000002
 20
160.60084900000001
 10
43.557000000000002
 20
161.74384800000001
 97
        1
330
51
 75
         0
 76
         1
 98
        1
 10
0.0
 20
0.0
  0
LWPOLYLINE
  5
53
100
AcDbEntity
  8
ASSEMBLY_OUTLINES_TOP
100
AcDbPolyline
 90
        3
 70
         1
 10
24.2
 20
161.172348
 10
25.343
 20
161.743848
 10
25.343
 20
160.600848
  0
HATCH
  5
54
100
AcDbEntity
  8
ASSEMBLY_OUTLINES_TOP
100
AcDbHatch
 10
0.0
 20
0.0
 30
0.0
210
0.0
220
0.0
230
1.0
  2
SOLID
 70
         1
 71
         1
 91
        1
 92
        2
 72
         0
 73
         1
 93
        3
 10
24.199999999999999
 20
161.172348
 10
25.343
 20
161.74384800000001
 10
25.343
 20
160.60084800000001
 97
        1
330
53
 75
         0
 76
         1
 98
        1
 10
0.0
 20
0.0
  0
LWPOLYLINE
  5
55
100
AcDbEntity
  8
ASSEMBLY_OUTLINES_TOP
100
AcDbPolyline
 90
        2
 70
         0
 43
0.2032
 10
38.309403
 20
161.172348
 10
44.1285
 20
161.172348
  0
LWPOLYLINE
  5
56
100
AcDbEntity
  8
ASSEMBLY_OUTLINES_TOP
100
AcDbPolyline
 90
        2
 70
         0
 43
0.2032
 10
24.7715
 20
161.172348
 10
30.590597
 20
161.172348
  0
LWPOLYLINE
  5
57
100
AcDbEntity
  8
ASSEMBLY_OUTLINES_TOP
100
AcDbPolyline
 90
        2
 70
         0
 43
0.2032
 10
44.7
 20
156.808
 10
44.7
 20
161.680348
  0
LWPOLYLINE
  5
58
100
AcDbEntity
  8
ASSEMBLY_OUTLINES_TOP
100
AcDbPolyline
 90
        2
 70
         0
 43
0.2032
 10
24.2
 20
159.308
 10
24.2
 20
161.680348
  0
LWPOLYLINE
  5
59
100
AcDbEntity
  8
ASSEMBLY_OUTLINES_TOP
100
AcDbPolyline
 90
        3
 70
         1
 10
87.741084
 20
79.8
 10
88.312583
 20
78.657
 10
87.169584
 20
78.657001
  0
HATCH
  5
5A
100
AcDbEntity
  8
ASSEMBLY_OUTLINES_TOP
100
AcDbHatch
 10
0.0
 20
0.0
 30
0.0
210
0.0
220
0.0
230
1.0
  2
SOLID
 70
         1
 71
         1
 91
        1
 92
        2
 72
         0
 73
         1
 93
        3
 10
87.741084000000001
 20
79.799999999999997
 10
88.312583000000004
 20
78.656999999999996
 10
87.169584
 20
78.657000999999994
 97
        1
330
59
 75
         0
 76
         1
 98
        1
 10
0.0
 20
0.0
  0
LWPOLYLINE
  5
5B
100
AcDbEntity
  8
ASSEMBLY_OUTLINES_TOP
100
AcDbPolyline
 90
        3
 70
         1
 10
87.741084
 20
82.3
 10
87.169584
 20
83.443
 10
88.312584
 20
83.443
  0
HATCH
  5
5C
100
AcDbEntity
  8
ASSEMBLY_OUTLINES_TOP
100
AcDbHatch
 10
0.0
 20
0.0
 30
0.0
210
0.0
220
0.0
230
1.0
  2
SOLID
 70
         1
 71
         1
 91
        1
 92
        2
 72
         0
 73
         1
 93
        3
 10
87.741084000000001
 20
82.299999999999997
 10
87.169584
 20
83.442999999999998
 10
88.312584000000001
 20
83.442999999999998
 97
        1
330
5B
 75
         0
 76
         1
 98
        1
 10
0.0
 20
0.0
  0
LWPOLYLINE
  5
5D
100
AcDbEntity
  8
ASSEMBLY_OUTLINES_TOP
100
AcDbPolyline
 90
        2
 70
         0
 43
0.2032
 10
87.741084
 20
79.2285
 10
87.741084
 20
76.9425
  0
LWPOLYLINE
  5
5E
100
AcDbEntity
  8
ASSEMBLY_OUTLINES_TOP
100
AcDbPolyline
 90
        2
 70
         0
 43
0.2032
 10
87.741084
 20
82.8715
 10
87.741084
 20
85.1575
  0
LWPOLYLINE
  5
5F
100
AcDbEntity
  8
ASSEMBLY_OUTLINES_TOP
100
AcDbPolyline
 90
        2
 70
         0
 43
0.2032
 10
86.208
 20
79.8
 10
88.249084
 20
79.8
  0
LWPOLYLINE
  5
60
100
AcDbEntity
  8
ASSEMBLY_OUTLINES_TOP
100
AcDbPolyline
 90
        2
 70
         0
 43
0.2032
 10
83.708
 20
82.3
 10
88.249084
 20
82.3
  0
LWPOLYLINE
  5
61
100
AcDbEntity
  8
ASSEMBLY_OUTLINES_TOP
100
AcDbPolyline
 90
        3
 70
         1
 10
85.7
 20
77.581324
 10
86.843
 20
78.152824
 10
86.843
 20
77.009824
  0
HATCH
  5
62
100
AcDbEntity
  8
ASSEMBLY_OUTLINES_TOP
100
AcDbHatch
 10
0.0
 20
0.0
 30
0.0
210
0.0
220
0.0
230
1.0
  2
SOLID
 70
         1
 71
         1
 91
        1
 92
        2
 72
         0
 73
         1
 93
        3
 10
85.700000000000003
 20
77.581323999999995
 10
86.843000000000004
 20
78.152823999999995
 10
86.843000000000004
 20
77.009823999999995
 97
        1
330
61
 75
         0
 76
         1
 98
        1
 10
0.0
 20
0.0
  0
LWPOLYLINE
  5
63
100
AcDbEntity
  8
ASSEMBLY_OUTLINES_TOP
100
AcDbPolyline
 90
        3
 70
         1
 10
83.2
 20
77.581324
 10
82.057
 20
77.009825
 10
82.057
 20
78.152824
  0
HATCH
  5
64
100
AcDbEntity
  8
ASSEMBLY_OUTLINES_TOP
100
AcDbHatch
 10
0.0
 20
0.0
 30
0.0
210
0.0
220
0.0
230
1.0
  2
SOLID
 70
         1
 71
         1
 91
        1
 92
        2
 72
         0
 73
         1
 93
        3
 10
83.200000000000003
 20
77.581323999999995
 10
82.057000000000002
 20
77.009825000000006
 10
82.057000000000002
 20
78.152823999999995
 97
        1
330
63
 75
         0
 76
         1
 98
        1
 10
0.0
 20
0.0
  0
LWPOLYLINE
  5
65
100
AcDbEntity
  8
ASSEMBLY_OUTLINES_TOP
100
AcDbPolyline
 90
        2
 70
         0
 43
0.2032
 10
86.2715
 20
77.581324
 10
88.5575
 20
77.581324
  0
LWPOLYLINE
  5
66
100
AcDbEntity
  8
ASSEMBLY_OUTLINES_TOP
100
AcDbPolyline
 90
        2
 70
         0
 43
0.2032
 10
82.6285
 20
77.581324
 10
80.3425
 20
77.581324
  0
LWPOLYLINE
  5
67
100
AcDbEntity
  8
ASSEMBLY_OUTLINES_TOP
100
AcDbPolyline
 90
        2
 70
         0
 43
0.2032
 10
85.7
 20
79.292
 10
85.7
 20
77.073324
  0
LWPOLYLINE
  5
68
100
AcDbEntity
  8
ASSEMBLY_OUTLINES_TOP
100
AcDbPolyline
 90
        2
 70
         0
 43
0.2032
 10
83.2
 20
81.792
 10
83.2
 20
77.073324
  0
LWPOLYLINE
  5
69
100
AcDbEntity
  8
ASSEMBLY_OUTLINES_TOP
100
AcDbPolyline
 90
        3
 70
         1
 10
89.144585
 20
79.8
 10
88.573085
 20
80.943
 10
89.716085
 20
80.943
  0
HATCH
  5
6A
100
AcDbEntity
  8
ASSEMBLY_OUTLINES_TOP
100
AcDbHatch
 10
0.0
 20
0.0
 30
0.0
210
0.0
220
0.0
230
1.0
  2
SOLID
 70
         1
 71
         1
 91
        1
 92
        2
 72
         0
 73
         1
 93
        3
 10
89.144585000000006
 20
79.799999999999997
 10
88.573085000000006
 20
80.942999999999998
 10
89.716085000000007
 20
80.942999999999998
 97
        1
330
69
 75
         0
 76
         1
 98
        1
 10
0.0
 20
0.0
  0
LWPOLYLINE
  5
6B
100
AcDbEntity
  8
ASSEMBLY_OUTLINES_TOP
100
AcDbPolyline
 90
        3
 70
         1
 10
89.144585
 20
158.8
 10
89.716084
 20
157.657
 10
88.573085
 20
157.657001
  0
HATCH
  5
6C
100
AcDbEntity
  8
ASSEMBLY_OUTLINES_TOP
100
AcDbHatch
 10
0.0
 20
0.0
 30
0.0
210
0.0
220
0.0
230
1.0
  2
SOLID
 70
         1
 71
         1
 91
        1
 92
        2
 72
         0
 73
         1
 93
        3
 10
89.144585000000006
 20
158.80000000000001
 10
89.716083999999995
 20
157.65700000000001
 10
88.573085000000006
 20
157.65700100000001
 97
        1
330
6B
 75
         0
 76
         1
 98
        1
 10
0.0
 20
0.0
  0
LWPOLYLINE
  5
6D
100
AcDbEntity
  8
ASSEMBLY_OUTLINES_TOP
100
AcDbPolyline
 90
        2
 70
         0
 43
0.2032
 10
89.144585
 20
116.547402
 10
89.144585
 20
80.3715
  0
LWPOLYLINE
  5
6E
100
AcDbEntity
  8
ASSEMBLY_OUTLINES_TOP
100
AcDbPolyline
 90
        2
 70
         0
 43
0.2032
 10
89.144585
 20
158.2285
 10
89.144585
 20
122.052597
  0
LWPOLYLINE
  5
6F
100
AcDbEntity
  8
ASSEMBLY_OUTLINES_TOP
100
AcDbPolyline
 90
        2
 70
         0
 43
0.2032
 10
86.208
 20
79.8
 10
89.652585
 20
79.8
  0
LWPOLYLINE
  5
70
100
AcDbEntity
  8
ASSEMBLY_OUTLINES_TOP
100
AcDbPolyline
 90
        2
 70
         0
 43
0.2032
 10
86.208
 20
158.8
 10
89.652585
 20
158.8
  0
CIRCLE
  5
71
100
AcDbEntity
  8
ASSEMBLY_OUTLINES_TOP
100
AcDbCircle
 10
83.2
 20
134.3
 30
0.0
 40
1.5
  0
HATCH
  5
72
100
AcDbEntity
  8
ASSEMBLY_OUTLINES_TOP
100
AcDbHatch
 10
0.0
 20
0.0
 30
0.0
210
0.0
220
0.0
230
1.0
  2
SOLID
 70
         1
 71
         1
 91
        1
 92
        1
 93
        1
 72
         2
 10
83.200000000000003
 20
134.30000000000001
 40
1.5
 50
0.0
 51
360.0
 73
         1
 97
        1
330
71
 75
         0
 76
         1
 98
        1
 10
0.0
 20
0.0
  0
CIRCLE
  5
73
100
AcDbEntity
  8
ASSEMBLY_OUTLINES_TOP
100
AcDbCircle
 10
83.2
 20
134.3
 30
0.0
 40
2.5
  0
CIRCLE
  5
74
100
AcDbEntity
  8
ASSEMBLY_OUTLINES_TOP
100
AcDbCircle
 10
44.7
 20
156.3
 30
0.0
 40
2.5
  0
CIRCLE
  5
75
100
AcDbEntity
  8
ASSEMBLY_OUTLINES_TOP
100
AcDbCircle
 10
44.7
 20
156.3
 30
0.0
 40
1.5
  0
HATCH
  5
76
100
AcDbEntity
  8
ASSEMBLY_OUTLINES_TOP
100
AcDbHatch
 10
0.0
 20
0.0
 30
0.0
210
0.0
220
0.0
230
1.0
  2
SOLID
 70
         1
 71
         1
 91
        1
 92
        1
 93
        1
 72
         2
 10
44.700000000000003
 20
156.30000000000001
 40
1.5
 50
0.0
 51
360.0
 73
         1
 97
        1
330
75
 75
         0
 76
         1
 98
        1
 10
0.0
 20
0.0
  0
LWPOLYLINE
  5
77
100
AcDbEntity
  8
ASSEMBLY_OUTLINES_TOP
100
AcDbPolyline
 90
        3
 70
         1
 10
85.7
 20
75.529459
 10
84.557
 20
74.95796
 10
84.557
 20
76.100959
  0
HATCH
  5
78
100
AcDbEntity
  8
ASSEMBLY_OUTLINES_TOP
100
AcDbHatch
 10
0.0
 20
0.0
 30
0.0
210
0.0
220
0.0
230
1.0
  2
SOLID
 70
         1
 71
         1
 91
        1
 92
        2
 72
         0
 73
         1
 93
        3
 10
85.700000000000003
 20
75.529459000000003
 10
84.557000000000002
 20
74.95796
 10
84.557000000000002
 20
76.100959000000003
 97
        1
330
77
 75
         0
 76
         1
 98
        1
 10
0.0
 20
0.0
  0
LWPOLYLINE
  5
79
100
AcDbEntity
  8
ASSEMBLY_OUTLINES_TOP
100
AcDbPolyline
 90
        3
 70
         1
 10
24.2
 20
75.529459
 10
25.343
 20
76.100959
 10
25.343
 20
74.957959
  0
HATCH
  5
7A
100
AcDbEntity
  8
ASSEMBLY_OUTLINES_TOP
100
AcDbHatch
 10
0.0
 20
0.0
 30
0.0
210
0.0
220
0.0
230
1.0
  2
SOLID
 70
         1
 71
         1
 91
        1
 92
        2
 72
         0
 73
         1
 93
        3
 10
24.199999999999999
 20
75.529459000000003
 10
25.343
 20
76.100959000000003
 10
25.343
 20
74.957959000000002
 97
        1
330
79
 75
         0
 76
         1
 98
        1
 10
0.0
 20
0.0
  0
LWPOLYLINE
  5
7B
100
AcDbEntity
  8
ASSEMBLY_OUTLINES_TOP
100
AcDbPolyline
 90
        2
 70
         0
 43
0.2032
 10
58.736061
 20
75.529459
 10
85.1285
 20
75.529459
  0
LWPOLYLINE
  5
7C
100
AcDbEntity
  8
ASSEMBLY_OUTLINES_TOP
100
AcDbPolyline
 90
        2
 70
         0
 43
0.2032
 10
24.7715
 20
75.529459
 10
51.16394
 20
75.529459
  0
LWPOLYLINE
  5
7D
100
AcDbEntity
  8
ASSEMBLY_OUTLINES_TOP
100
AcDbPolyline
 90
        2
 70
         0
 43
0.2032
 10
85.7
 20
79.292
 10
85.7
 20
75.021459
  0
LWPOLYLINE
  5
7E
100
AcDbEntity
  8
ASSEMBLY_OUTLINES_TOP
100
AcDbPolyline
 90
        2
 70
         0
 43
0.2032
 10
24.2
 20
79.292
 10
24.2
 20
75.021459
  0
CIRCLE
  5
7F
100
AcDbEntity
  8
ASSEMBLY_OUTLINES_TOP
100
AcDbCircle
 10
29.0
 20
108.2
 30
0.0
 40
2.5
  0
CIRCLE
  5
80
100
AcDbEntity
  8
ASSEMBLY_OUTLINES_TOP
100
AcDbCircle
 10
83.2
 20
82.3
 30
0.0
 40
2.5
  0
LWPOLYLINE
  5
81
100
AcDbEntity
  8
ASSEMBLY_OUTLINES_TOP
100
AcDbPolyline
 90
        4
 70
         1
 43
0.1
 10
57.85
 20
142.65
 10
57.85
 20
155.95
 10
67.85
 20
155.95
 10
67.85
 20
142.65
  0
LWPOLYLINE
  5
82
100
AcDbEntity
  8
ASSEMBLY_OUTLINES_TOP
100
AcDbPolyline
 90
        4
 70
         1
 43
0.1
 10
73.4
 20
142.65
 10
73.4
 20
155.95
 10
83.4
 20
155.95
 10
83.4
 20
142.65
  0
CIRCLE
  5
83
100
AcDbEntity
  8
ASSEMBLY_OUTLINES_TOP
100
AcDbCircle
 10
83.2
 20
82.4
 30
0.0
 40
1.5
  0
HATCH
  5
84
100
AcDbEntity
  8
ASSEMBLY_OUTLINES_TOP
100
AcDbHatch
 10
0.0
 20
0.0
 30
0.0
210
0.0
220
0.0
230
1.0
  2
SOLID
 70
         1
 71
         1
 91
        1
 92
        1
 93
        1
 72
         2
 10
83.200000000000003
 20
82.400000000000006
 40
1.5
 50
0.0
 51
360.0
 73
         1
 97
        1
330
83
 75
         0
 76
         1
 98
        1
 10
0.0
 20
0.0
  0
CIRCLE
  5
85
100
AcDbEntity
  8
ASSEMBLY_OUTLINES_TOP
100
AcDbCircle
 10
29.0
 20
108.2
 30
0.0
 40
1.25
  0
HATCH
  5
86
100
AcDbEntity
  8
ASSEMBLY_OUTLINES_TOP
100
AcDbHatch
 10
0.0
 20
0.0
 30
0.0
210
0.0
220
0.0
230
1.0
  2
SOLID
 70
         1
 71
         1
 91
        1
 92
        1
 93
        1
 72
         2
 10
29.0
 20
108.2
 40
1.25
 50
0.0
 51
360.0
 73
         1
 97
        1
330
85
 75
         0
 76
         1
 98
        1
 10
0.0
 20
0.0
  0
TEXT
  5
88
100
AcDbEntity
  8
ASSEMBLY_OUTLINES_TOP
100
AcDbText
 10
15.362991
 20
76.991498
 30
0.0
 40
1.27
  1
4.8mm
  7
VERIBEST_GERBER_1
 72
         1
 11
18.214776
 21
77.626498
 31
0.0
100
AcDbText
 73
         2
  0
TEXT
  5
89
100
AcDbEntity
  8
ASSEMBLY_OUTLINES_TOP
100
AcDbText
 10
21.336844
 20
90.548141
 30
0.0
 40
1.27
  1
28.4mm
 50
90.0
  7
VERIBEST_GERBER_1
 72
         1
 11
20.701844
 21
94.000001
 31
0.0
100
AcDbText
 73
         2
  0
TEXT
  5
8A
100
AcDbEntity
  8
ASSEMBLY_OUTLINES_TOP
100
AcDbText
 10
89.513339
 20
131.14774
 30
0.0
 40
1.27
  1
2.5mm
  7
VERIBEST_GERBER_1
 72
         1
 11
92.365124
 21
131.78274
 31
0.0
100
AcDbText
 73
         2
  0
TEXT
  5
8B
100
AcDbEntity
  8
ASSEMBLY_OUTLINES_TOP
100
AcDbText
 10
88.035
 20
143.098141
 30
0.0
 40
1.27
  1
24.5mm
 50
90.0
  7
VERIBEST_GERBER_1
 72
         1
 11
87.4
 21
146.550001
 31
0.0
100
AcDbText
 73
         2
  0
TEXT
  5
8C
100
AcDbEntity
  8
ASSEMBLY_OUTLINES_TOP
100
AcDbText
 10
23.799976
 20
161.933439
 30
0.0
 40
1.27
  1
2.5mm
 50
90.0
  7
VERIBEST_GERBER_1
 72
         1
 11
23.164976
 21
164.785224
 31
0.0
100
AcDbText
 73
         2
  0
TEXT
  5
8D
100
AcDbEntity
  8
ASSEMBLY_OUTLINES_TOP
100
AcDbText
 10
30.99814
 20
160.537348
 30
0.0
 40
1.27
  1
20.5mm
  7
VERIBEST_GERBER_1
 72
         1
 11
34.45
 21
161.172348
 31
0.0
100
AcDbText
 73
         2
  0
TEXT
  5
8E
100
AcDbEntity
  8
ASSEMBLY_OUTLINES_TOP
100
AcDbText
 10
88.376084
 20
85.433439
 30
0.0
 40
1.27
  1
2.5mm
 50
90.0
  7
VERIBEST_GERBER_1
 72
         1
 11
87.741084
 21
88.285224
 31
0.0
100
AcDbText
 73
         2
  0
TEXT
  5
8F
100
AcDbEntity
  8
ASSEMBLY_OUTLINES_TOP
100
AcDbText
 10
74.362991
 20
76.946324
 30
0.0
 40
1.27
  1
2.5mm
  7
VERIBEST_GERBER_1
 72
         1
 11
77.214776
 21
77.581324
 31
0.0
100
AcDbText
 73
         2
  0
TEXT
  5
90
100
AcDbEntity
  8
ASSEMBLY_OUTLINES_TOP
100
AcDbText
 10
89.779584
 20
116.902241
 30
0.0
 40
1.27
  1
79mm
 50
90.0
  7
VERIBEST_GERBER_1
 72
         1
 11
89.144584
 21
119.300001
 31
0.0
100
AcDbText
 73
         2
  0
TEXT
  5
91
100
AcDbEntity
  8
ASSEMBLY_OUTLINES_TOP
100
AcDbText
 10
51.56799
 20
74.894458
 30
0.0
 40
1.27
  1
61.5mm
  7
VERIBEST_GERBER_1
 72
         1
 11
54.95
 21
75.529458
 31
0.0
100
AcDbText
 73
         2
  0
LWPOLYLINE
  5
92
100
AcDbEntity
  8
ASSEMBLY_OUTLINES_TOP
100
AcDbPolyline
 90
        4
 70
         1
 43
0.1
 10
47.7
 20
131.15
 10
47.7
 20
132.45
 10
50.5
 20
132.45
 10
50.5
 20
131.15
  0
LWPOLYLINE
  5
93
100
AcDbEntity
  8
ASSEMBLY_OUTLINES_TOP
100
AcDbPolyline
 90
        8
 70
         1
 10
23.75
 20
89.65
 10
24.75
 20
89.65
 10
24.75
 20
91.25
 10
32.75
 20
91.25
 10
32.75
 20
80.35
 10
24.75
 20
80.35
 10
24.75
 20
81.9
 10
23.75
 20
81.9
  0
LWPOLYLINE
  5
94
100
AcDbEntity
  8
ASSEMBLY_OUTLINES_TOP
100
AcDbPolyline
 90
        4
 70
         1
 43
0.1
 10
77.25
 20
85.35
 10
77.25
 20
88.25
 10
78.55
 20
88.25
 10
78.55
 20
85.35
  0
LWPOLYLINE
  5
95
100
AcDbEntity
  8
ASSEMBLY_OUTLINES_TOP
100
AcDbPolyline
 90
        4
 70
         1
 43
0.1
 10
80.675
 20
111.025
 10
80.675
 20
112.775
 10
83.725
 20
112.775
 10
83.725
 20
111.025
  0
LWPOLYLINE
  5
96
100
AcDbEntity
  8
ASSEMBLY_OUTLINES_TOP
100
AcDbPolyline
 90
        2
 70
         0
 43
0.1
 10
80.775
 20
111.025
 10
80.675
 20
111.125
  0
LWPOLYLINE
  5
97
100
AcDbEntity
  8
ASSEMBLY_OUTLINES_TOP
100
AcDbPolyline
 90
        2
 70
         0
 43
0.1
 10
80.875
 20
111.025
 10
80.675
 20
111.225
  0
LWPOLYLINE
  5
98
100
AcDbEntity
  8
ASSEMBLY_OUTLINES_TOP
100
AcDbPolyline
 90
        2
 70
         0
 43
0.1
 10
80.975
 20
111.025
 10
80.675
 20
111.325
  0
LWPOLYLINE
  5
99
100
AcDbEntity
  8
ASSEMBLY_OUTLINES_TOP
100
AcDbPolyline
 90
        2
 70
         0
 43
0.1
 10
81.075
 20
111.025
 10
80.675
 20
111.425
  0
LWPOLYLINE
  5
9A
100
AcDbEntity
  8
ASSEMBLY_OUTLINES_TOP
100
AcDbPolyline
 90
        2
 70
         0
 43
0.1
 10
81.175
 20
111.025
 10
80.675
 20
111.525
  0
LWPOLYLINE
  5
9B
100
AcDbEntity
  8
ASSEMBLY_OUTLINES_TOP
100
AcDbPolyline
 90
        2
 70
         0
 43
0.1
 10
81.275
 20
111.025
 10
80.675
 20
111.625
  0
LWPOLYLINE
  5
9C
100
AcDbEntity
  8
ASSEMBLY_OUTLINES_TOP
100
AcDbPolyline
 90
        4
 70
         1
 43
0.1
 10
82.25
 20
87.55
 10
82.25
 20
88.85
 10
85.15
 20
88.85
 10
85.15
 20
87.55
  0
LWPOLYLINE
  5
9D
100
AcDbEntity
  8
ASSEMBLY_OUTLINES_TOP
100
AcDbPolyline
 90
        4
 70
         1
 43
0.1
 10
54.25
 20
136.65
 10
54.25
 20
137.95
 10
57.15
 20
137.95
 10
57.15
 20
136.65
  0
LWPOLYLINE
  5
9E
100
AcDbEntity
  8
ASSEMBLY_OUTLINES_TOP
100
AcDbPolyline
 90
        4
 70
         1
 43
0.1
 10
49.15
 20
139.05
 10
49.15
 20
143.05
 10
53.15
 20
143.05
 10
53.15
 20
139.05
  0
LWPOLYLINE
  5
9F
100
AcDbEntity
  8
ASSEMBLY_OUTLINES_TOP
100
AcDbPolyline
 90
        2
 70
         0
 43
0.1
 10
49.15
 20
139.15
 10
49.25
 20
139.05
  0
LWPOLYLINE
  5
A0
100
AcDbEntity
  8
ASSEMBLY_OUTLINES_TOP
100
AcDbPolyline
 90
        2
 70
         0
 43
0.1
 10
49.15
 20
139.25
 10
49.35
 20
139.05
  0
LWPOLYLINE
  5
A1
100
AcDbEntity
  8
ASSEMBLY_OUTLINES_TOP
100
AcDbPolyline
 90
        2
 70
         0
 43
0.1
 10
49.15
 20
139.35
 10
49.45
 20
139.05
  0
LWPOLYLINE
  5
A2
100
AcDbEntity
  8
ASSEMBLY_OUTLINES_TOP
100
AcDbPolyline
 90
        2
 70
         0
 43
0.1
 10
49.15
 20
139.45
 10
49.55
 20
139.05
  0
LWPOLYLINE
  5
A3
100
AcDbEntity
  8
ASSEMBLY_OUTLINES_TOP
100
AcDbPolyline
 90
        2
 70
         0
 43
0.1
 10
49.15
 20
139.55
 10
49.65
 20
139.05
  0
LWPOLYLINE
  5
A4
100
AcDbEntity
  8
ASSEMBLY_OUTLINES_TOP
100
AcDbPolyline
 90
        2
 70
         0
 43
0.1
 10
49.15
 20
139.65
 10
49.75
 20
139.05
  0
LWPOLYLINE
  5
A5
100
AcDbEntity
  8
ASSEMBLY_OUTLINES_TOP
100
AcDbPolyline
 90
        2
 70
         0
 43
0.1
 10
49.15
 20
139.75
 10
49.85
 20
139.05
  0
LWPOLYLINE
  5
A6
100
AcDbEntity
  8
ASSEMBLY_OUTLINES_TOP
100
AcDbPolyline
 90
        2
 70
         0
 43
0.1
 10
49.15
 20
139.85
 10
49.95
 20
139.05
  0
LWPOLYLINE
  5
A7
100
AcDbEntity
  8
ASSEMBLY_OUTLINES_TOP
100
AcDbPolyline
 90
        2
 70
         0
 43
0.1
 10
49.15
 20
139.95
 10
50.05
 20
139.05
  0
LWPOLYLINE
  5
A8
100
AcDbEntity
  8
ASSEMBLY_OUTLINES_TOP
100
AcDbPolyline
 90
        2
 70
         0
 43
0.1
 10
49.15
 20
140.05
 10
50.15
 20
139.05
  0
LWPOLYLINE
  5
A9
100
AcDbEntity
  8
ASSEMBLY_OUTLINES_TOP
100
AcDbPolyline
 90
        4
 70
         1
 43
0.1
 10
42.95
 20
118.0
 10
42.95
 20
120.9
 10
44.25
 20
120.9
 10
44.25
 20
118.0
  0
LWPOLYLINE
  5
AA
100
AcDbEntity
  8
ASSEMBLY_OUTLINES_TOP
100
AcDbPolyline
 90
        4
 70
         1
 43
0.1
 10
52.85
 20
134.55
 10
52.85
 20
135.85
 10
55.75
 20
135.85
 10
55.75
 20
134.55
  0
LWPOLYLINE
  5
AB
100
AcDbEntity
  8
ASSEMBLY_OUTLINES_TOP
100
AcDbPolyline
 90
        4
 70
         1
 43
0.1
 10
74.65
 20
142.65
 10
74.65
 20
155.95
 10
82.15
 20
155.95
 10
82.15
 20
142.65
  0
LWPOLYLINE
  5
AC
100
AcDbEntity
  8
ASSEMBLY_OUTLINES_TOP
100
AcDbPolyline
 90
        2
 70
         0
 43
0.1
 10
82.0
 20
142.65
 10
82.1
 20
142.75
  0
LWPOLYLINE
  5
AD
100
AcDbEntity
  8
ASSEMBLY_OUTLINES_TOP
100
AcDbPolyline
 90
        2
 70
         0
 43
0.1
 10
81.9
 20
142.65
 10
82.1
 20
142.85
  0
LWPOLYLINE
  5
AE
100
AcDbEntity
  8
ASSEMBLY_OUTLINES_TOP
100
AcDbPolyline
 90
        2
 70
         0
 43
0.1
 10
81.8
 20
142.65
 10
82.1
 20
142.95
  0
LWPOLYLINE
  5
AF
100
AcDbEntity
  8
ASSEMBLY_OUTLINES_TOP
100
AcDbPolyline
 90
        2
 70
         0
 43
0.1
 10
81.7
 20
142.65
 10
82.1
 20
143.05
  0
LWPOLYLINE
  5
B0
100
AcDbEntity
  8
ASSEMBLY_OUTLINES_TOP
100
AcDbPolyline
 90
        2
 70
         0
 43
0.1
 10
81.6
 20
142.65
 10
82.1
 20
143.15
  0
LWPOLYLINE
  5
B1
100
AcDbEntity
  8
ASSEMBLY_OUTLINES_TOP
100
AcDbPolyline
 90
        2
 70
         0
 43
0.1
 10
81.5
 20
142.65
 10
82.1
 20
143.25
  0
LWPOLYLINE
  5
B2
100
AcDbEntity
  8
ASSEMBLY_OUTLINES_TOP
100
AcDbPolyline
 90
        2
 70
         0
 43
0.1
 10
81.4
 20
142.65
 10
82.1
 20
143.35
  0
LWPOLYLINE
  5
B3
100
AcDbEntity
  8
ASSEMBLY_OUTLINES_TOP
100
AcDbPolyline
 90
        2
 70
         0
 43
0.1
 10
81.3
 20
142.65
 10
82.1
 20
143.45
  0
LWPOLYLINE
  5
B4
100
AcDbEntity
  8
ASSEMBLY_OUTLINES_TOP
100
AcDbPolyline
 90
        2
 70
         0
 43
0.1
 10
81.2
 20
142.65
 10
82.1
 20
143.55
  0
LWPOLYLINE
  5
B5
100
AcDbEntity
  8
ASSEMBLY_OUTLINES_TOP
100
AcDbPolyline
 90
        2
 70
         0
 43
0.1
 10
81.1
 20
142.65
 10
82.1
 20
143.65
  0
LWPOLYLINE
  5
B6
100
AcDbEntity
  8
ASSEMBLY_OUTLINES_TOP
100
AcDbPolyline
 90
        4
 70
         1
 43
0.1
 10
46.15
 20
100.25
 10
46.15
 20
103.15
 10
47.45
 20
103.15
 10
47.45
 20
100.25
  0
LWPOLYLINE
  5
B7
100
AcDbEntity
  8
ASSEMBLY_OUTLINES_TOP
100
AcDbPolyline
 90
        4
 70
         1
 43
0.1
 10
83.75
 20
121.5
 10
83.75
 20
124.4
 10
85.05
 20
124.4
 10
85.05
 20
121.5
  0
LWPOLYLINE
  5
B8
100
AcDbEntity
  8
ASSEMBLY_OUTLINES_TOP
100
AcDbPolyline
 90
        4
 70
         1
 43
0.1
 10
71.7
 20
150.0
 10
71.7
 20
152.8
 10
73.0
 20
152.8
 10
73.0
 20
150.0
  0
LWPOLYLINE
  5
B9
100
AcDbEntity
  8
ASSEMBLY_OUTLINES_TOP
100
AcDbPolyline
 90
        4
 70
         1
 43
0.1
 10
81.95
 20
116.95
 10
81.95
 20
118.25
 10
84.85
 20
118.25
 10
84.85
 20
116.95
  0
LWPOLYLINE
  5
BA
100
AcDbEntity
  8
ASSEMBLY_OUTLINES_TOP
100
AcDbPolyline
 90
        4
 70
         1
 43
0.1
 10
73.7
 20
141.05
 10
73.7
 20
142.35
 10
76.5
 20
142.35
 10
76.5
 20
141.05
  0
LWPOLYLINE
  5
BB
100
AcDbEntity
  8
ASSEMBLY_OUTLINES_TOP
100
AcDbPolyline
 90
        4
 70
         1
 43
0.1
 10
83.7
 20
142.65
 10
83.7
 20
145.45
 10
85.0
 20
145.45
 10
85.0
 20
142.65
  0
LWPOLYLINE
  5
BC
100
AcDbEntity
  8
ASSEMBLY_OUTLINES_TOP
100
AcDbPolyline
 90
        4
 70
         1
 43
0.1
 10
51.2
 20
136.45
 10
51.2
 20
137.75
 10
54.1
 20
137.75
 10
54.1
 20
136.45
  0
LWPOLYLINE
  5
BD
100
AcDbEntity
  8
ASSEMBLY_OUTLINES_TOP
100
AcDbPolyline
 90
        4
 70
         1
 43
0.1
 10
48.2
 20
149.65
 10
48.2
 20
152.55
 10
49.5
 20
152.55
 10
49.5
 20
149.65
  0
LWPOLYLINE
  5
BE
100
AcDbEntity
  8
ASSEMBLY_OUTLINES_TOP
100
AcDbPolyline
 90
        4
 70
         1
 43
0.1
 10
39.25
 20
112.05
 10
39.25
 20
115.05
 10
42.25
 20
115.05
 10
42.25
 20
112.05
  0
LWPOLYLINE
  5
BF
100
AcDbEntity
  8
ASSEMBLY_OUTLINES_TOP
100
AcDbPolyline
 90
        2
 70
         0
 43
0.1
 10
42.25
 20
112.15
 10
42.15
 20
112.05
  0
LWPOLYLINE
  5
C0
100
AcDbEntity
  8
ASSEMBLY_OUTLINES_TOP
100
AcDbPolyline
 90
        2
 70
         0
 43
0.1
 10
42.25
 20
112.25
 10
42.05
 20
112.05
  0
LWPOLYLINE
  5
C1
100
AcDbEntity
  8
ASSEMBLY_OUTLINES_TOP
100
AcDbPolyline
 90
        2
 70
         0
 43
0.1
 10
42.25
 20
112.35
 10
41.95
 20
112.05
  0
LWPOLYLINE
  5
C2
100
AcDbEntity
  8
ASSEMBLY_OUTLINES_TOP
100
AcDbPolyline
 90
        2
 70
         0
 43
0.1
 10
42.25
 20
112.45
 10
41.85
 20
112.05
  0
LWPOLYLINE
  5
C3
100
AcDbEntity
  8
ASSEMBLY_OUTLINES_TOP
100
AcDbPolyline
 90
        2
 70
         0
 43
0.1
 10
42.25
 20
112.55
 10
41.75
 20
112.05
  0
LWPOLYLINE
  5
C4
100
AcDbEntity
  8
ASSEMBLY_OUTLINES_TOP
100
AcDbPolyline
 90
        2
 70
         0
 43
0.1
 10
42.25
 20
112.65
 10
41.65
 20
112.05
  0
LWPOLYLINE
  5
C5
100
AcDbEntity
  8
ASSEMBLY_OUTLINES_TOP
100
AcDbPolyline
 90
        4
 70
         1
 43
0.1
 10
68.15
 20
150.2
 10
68.15
 20
153.0
 10
69.45
 20
153.0
 10
69.45
 20
150.2
  0
LWPOLYLINE
  5
C6
100
AcDbEntity
  8
ASSEMBLY_OUTLINES_TOP
100
AcDbPolyline
 90
        4
 70
         1
 43
0.1
 10
47.65
 20
100.25
 10
47.65
 20
103.15
 10
48.95
 20
103.15
 10
48.95
 20
100.25
  0
LWPOLYLINE
  5
C7
100
AcDbEntity
  8
ASSEMBLY_OUTLINES_TOP
100
AcDbPolyline
 90
        4
 70
         1
 43
0.1
 10
37.85
 20
155.05
 10
37.85
 20
156.35
 10
40.75
 20
156.35
 10
40.75
 20
155.05
  0
LWPOLYLINE
  5
C8
100
AcDbEntity
  8
ASSEMBLY_OUTLINES_TOP
100
AcDbPolyline
 90
        4
 70
         1
 43
0.1
 10
77.1
 20
128.55
 10
77.1
 20
130.35
 10
80.4
 20
130.35
 10
80.4
 20
128.55
  0
LWPOLYLINE
  5
C9
100
AcDbEntity
  8
ASSEMBLY_OUTLINES_TOP
100
AcDbPolyline
 90
        4
 70
         1
 43
0.1
 10
68.15
 20
143.05
 10
68.15
 20
145.85
 10
69.45
 20
145.85
 10
69.45
 20
143.05
  0
LWPOLYLINE
  5
CA
100
AcDbEntity
  8
ASSEMBLY_OUTLINES_TOP
100
AcDbPolyline
 90
        4
 70
         1
 43
0.1
 10
83.5
 20
138.85
 10
83.5
 20
141.75
 10
84.8
 20
141.75
 10
84.8
 20
138.85
  0
LWPOLYLINE
  5
CB
100
AcDbEntity
  8
ASSEMBLY_OUTLINES_TOP
100
AcDbPolyline
 90
        4
 70
         1
 43
0.1
 10
39.2
 20
102.05
 10
39.2
 20
105.35
 10
41.0
 20
105.35
 10
41.0
 20
102.05
  0
LWPOLYLINE
  5
CC
100
AcDbEntity
  8
ASSEMBLY_OUTLINES_TOP
100
AcDbPolyline
 90
        4
 70
         1
 43
0.1
 10
58.65
 20
134.55
 10
58.65
 20
135.85
 10
61.55
 20
135.85
 10
61.55
 20
134.55
  0
LWPOLYLINE
  5
CD
100
AcDbEntity
  8
ASSEMBLY_OUTLINES_TOP
100
AcDbPolyline
 90
        4
 70
         1
 43
0.1
 10
48.45
 20
110.6
 10
48.45
 20
113.9
 10
50.25
 20
113.9
 10
50.25
 20
110.6
  0
LWPOLYLINE
  5
CE
100
AcDbEntity
  8
ASSEMBLY_OUTLINES_TOP
100
AcDbPolyline
 90
        4
 70
         1
 43
0.1
 10
46.15
 20
90.2
 10
46.15
 20
93.0
 10
47.45
 20
93.0
 10
47.45
 20
90.2
  0
LWPOLYLINE
  5
CF
100
AcDbEntity
  8
ASSEMBLY_OUTLINES_TOP
100
AcDbPolyline
 90
        4
 70
         1
 43
0.1
 10
53.65
 20
113.05
 10
53.65
 20
134.05
 10
74.65
 20
134.05
 10
74.65
 20
113.05
  0
LWPOLYLINE
  5
D0
100
AcDbEntity
  8
ASSEMBLY_OUTLINES_TOP
100
AcDbPolyline
 90
        2
 70
         0
 43
0.1
 10
74.55
 20
113.05
 10
74.65
 20
113.15
  0
LWPOLYLINE
  5
D1
100
AcDbEntity
  8
ASSEMBLY_OUTLINES_TOP
100
AcDbPolyline
 90
        2
 70
         0
 43
0.1
 10
74.45
 20
113.05
 10
74.65
 20
113.25
  0
LWPOLYLINE
  5
D2
100
AcDbEntity
  8
ASSEMBLY_OUTLINES_TOP
100
AcDbPolyline
 90
        2
 70
         0
 43
0.1
 10
74.35
 20
113.05
 10
74.65
 20
113.35
  0
LWPOLYLINE
  5
D3
100
AcDbEntity
  8
ASSEMBLY_OUTLINES_TOP
100
AcDbPolyline
 90
        2
 70
         0
 43
0.1
 10
74.25
 20
113.05
 10
74.65
 20
113.45
  0
LWPOLYLINE
  5
D4
100
AcDbEntity
  8
ASSEMBLY_OUTLINES_TOP
100
AcDbPolyline
 90
        2
 70
         0
 43
0.1
 10
74.15
 20
113.05
 10
74.65
 20
113.55
  0
LWPOLYLINE
  5
D5
100
AcDbEntity
  8
ASSEMBLY_OUTLINES_TOP
100
AcDbPolyline
 90
        2
 70
         0
 43
0.1
 10
74.05
 20
113.05
 10
74.65
 20
113.65
  0
LWPOLYLINE
  5
D6
100
AcDbEntity
  8
ASSEMBLY_OUTLINES_TOP
100
AcDbPolyline
 90
        2
 70
         0
 43
0.1
 10
73.95
 20
113.05
 10
74.65
 20
113.75
  0
LWPOLYLINE
  5
D7
100
AcDbEntity
  8
ASSEMBLY_OUTLINES_TOP
100
AcDbPolyline
 90
        2
 70
         0
 43
0.1
 10
73.85
 20
113.05
 10
74.65
 20
113.85
  0
LWPOLYLINE
  5
D8
100
AcDbEntity
  8
ASSEMBLY_OUTLINES_TOP
100
AcDbPolyline
 90
        2
 70
         0
 43
0.1
 10
73.75
 20
113.05
 10
74.65
 20
113.95
  0
LWPOLYLINE
  5
D9
100
AcDbEntity
  8
ASSEMBLY_OUTLINES_TOP
100
AcDbPolyline
 90
        2
 70
         0
 43
0.1
 10
73.65
 20
113.05
 10
74.65
 20
114.05
  0
LWPOLYLINE
  5
DA
100
AcDbEntity
  8
ASSEMBLY_OUTLINES_TOP
100
AcDbPolyline
 90
        4
 70
         1
 43
0.1
 10
70.85
 20
106.2
 10
70.85
 20
107.5
 10
73.75
 20
107.5
 10
73.75
 20
106.2
  0
LWPOLYLINE
  5
DB
100
AcDbEntity
  8
ASSEMBLY_OUTLINES_TOP
100
AcDbPolyline
 90
        4
 70
         1
 43
0.1
 10
81.3
 20
137.25
 10
81.3
 20
138.55
 10
84.1
 20
138.55
 10
84.1
 20
137.25
  0
LWPOLYLINE
  5
DC
100
AcDbEntity
  8
ASSEMBLY_OUTLINES_TOP
100
AcDbPolyline
 90
        4
 70
         1
 43
0.1
 10
49.15
 20
100.25
 10
49.15
 20
103.15
 10
50.45
 20
103.15
 10
50.45
 20
100.25
  0
LWPOLYLINE
  5
DD
100
AcDbEntity
  8
ASSEMBLY_OUTLINES_TOP
100
AcDbPolyline
 90
        4
 70
         1
 43
0.1
 10
81.75
 20
106.55
 10
81.75
 20
109.45
 10
83.05
 20
109.45
 10
83.05
 20
106.55
  0
LWPOLYLINE
  5
DE
100
AcDbEntity
  8
ASSEMBLY_OUTLINES_TOP
100
AcDbPolyline
 90
        8
 70
         1
 10
23.4
 20
146.9
 10
36.4
 20
146.9
 42
0.4142135624
 10
37.4
 20
147.9
 10
37.4
 20
154.9
 42
0.4142135624
 10
36.4
 20
155.9
 10
23.4
 20
155.9
 42
0.4142135624
 10
22.4
 20
154.9
 10
22.4
 20
147.9
 42
0.4142135624
  0
LWPOLYLINE
  5
DF
100
AcDbEntity
  8
ASSEMBLY_OUTLINES_TOP
100
AcDbPolyline
 90
        4
 70
         1
 43
0.1
 10
64.85
 20
109.25
 10
64.85
 20
112.05
 10
66.15
 20
112.05
 10
66.15
 20
109.25
  0
LWPOLYLINE
  5
E0
100
AcDbEntity
  8
ASSEMBLY_OUTLINES_TOP
100
AcDbPolyline
 90
        4
 70
         1
 43
0.1
 10
54.85
 20
108.7
 10
54.85
 20
111.5
 10
56.15
 20
111.5
 10
56.15
 20
108.7
  0
LWPOLYLINE
  5
E1
100
AcDbEntity
  8
ASSEMBLY_OUTLINES_TOP
100
AcDbPolyline
 90
        4
 70
         1
 43
0.1
 10
50.0
 20
95.5
 10
50.0
 20
96.9
 10
53.0
 20
96.9
 10
53.0
 20
95.5
  0
LWPOLYLINE
  5
E2
100
AcDbEntity
  8
ASSEMBLY_OUTLINES_TOP
100
AcDbPolyline
 90
        2
 70
         0
 43
0.1
 10
50.1
 20
95.5
 10
50.0
 20
95.6
  0
LWPOLYLINE
  5
E3
100
AcDbEntity
  8
ASSEMBLY_OUTLINES_TOP
100
AcDbPolyline
 90
        2
 70
         0
 43
0.1
 10
50.2
 20
95.5
 10
50.0
 20
95.7
  0
LWPOLYLINE
  5
E4
100
AcDbEntity
  8
ASSEMBLY_OUTLINES_TOP
100
AcDbPolyline
 90
        2
 70
         0
 43
0.1
 10
50.3
 20
95.5
 10
50.0
 20
95.8
  0
LWPOLYLINE
  5
E5
100
AcDbEntity
  8
ASSEMBLY_OUTLINES_TOP
100
AcDbPolyline
 90
        2
 70
         0
 43
0.1
 10
50.4
 20
95.5
 10
50.0
 20
95.9
  0
LWPOLYLINE
  5
E6
100
AcDbEntity
  8
ASSEMBLY_OUTLINES_TOP
100
AcDbPolyline
 90
        2
 70
         0
 43
0.1
 10
50.5
 20
95.5
 10
50.0
 20
96.0
  0
LWPOLYLINE
  5
E7
100
AcDbEntity
  8
ASSEMBLY_OUTLINES_TOP
100
AcDbPolyline
 90
        2
 70
         0
 43
0.1
 10
50.6
 20
95.5
 10
50.0
 20
96.1
  0
LWPOLYLINE
  5
E8
100
AcDbEntity
  8
ASSEMBLY_OUTLINES_TOP
100
AcDbPolyline
 90
        4
 70
         1
 43
0.1
 10
41.3
 20
92.4
 10
41.3
 20
106.4
 10
45.3
 20
106.4
 10
45.3
 20
92.4
  0
LWPOLYLINE
  5
E9
100
AcDbEntity
  8
ASSEMBLY_OUTLINES_TOP
100
AcDbPolyline
 90
        4
 70
         1
 43
0.1
 10
71.7
 20
146.55
 10
71.7
 20
149.35
 10
73.0
 20
149.35
 10
73.0
 20
146.55
  0
LWPOLYLINE
  5
EA
100
AcDbEntity
  8
ASSEMBLY_OUTLINES_TOP
100
AcDbPolyline
 90
        4
 70
         1
 43
0.1
 10
43.15
 20
148.55
 10
43.15
 20
151.45
 10
44.45
 20
151.45
 10
44.45
 20
148.55
  0
LWPOLYLINE
  5
EB
100
AcDbEntity
  8
ASSEMBLY_OUTLINES_TOP
100
AcDbPolyline
 90
        4
 70
         1
 43
0.1
 10
51.35
 20
104.45
 10
51.35
 20
107.35
 10
52.65
 20
107.35
 10
52.65
 20
104.45
  0
LWPOLYLINE
  5
EC
100
AcDbEntity
  8
ASSEMBLY_OUTLINES_TOP
100
AcDbPolyline
 90
        4
 70
         1
 43
0.1
 10
47.65
 20
132.65
 10
47.65
 20
135.55
 10
48.95
 20
135.55
 10
48.95
 20
132.65
  0
LWPOLYLINE
  5
ED
100
AcDbEntity
  8
ASSEMBLY_OUTLINES_TOP
100
AcDbPolyline
 90
        4
 70
         1
 43
0.1
 10
83.65
 20
153.15
 10
83.65
 20
155.95
 10
84.95
 20
155.95
 10
84.95
 20
153.15
  0
LWPOLYLINE
  5
EE
100
AcDbEntity
  8
ASSEMBLY_OUTLINES_TOP
100
AcDbPolyline
 90
        4
 70
         1
 43
0.1
 10
58.7
 20
93.65
 10
58.7
 20
94.95
 10
61.5
 20
94.95
 10
61.5
 20
93.65
  0
LWPOLYLINE
  5
EF
100
AcDbEntity
  8
ASSEMBLY_OUTLINES_TOP
100
AcDbPolyline
 90
        4
 70
         1
 43
0.1
 10
56.45
 20
108.7
 10
56.45
 20
111.5
 10
57.75
 20
111.5
 10
57.75
 20
108.7
  0
LWPOLYLINE
  5
F0
100
AcDbEntity
  8
ASSEMBLY_OUTLINES_TOP
100
AcDbPolyline
 90
        4
 70
         1
 43
0.1
 10
34.15
 20
126.25
 10
34.15
 20
127.55
 10
37.05
 20
127.55
 10
37.05
 20
126.25
  0
LWPOLYLINE
  5
F1
100
AcDbEntity
  8
ASSEMBLY_OUTLINES_TOP
100
AcDbPolyline
 90
        4
 70
         1
 43
0.1
 10
47.55
 20
90.2
 10
47.55
 20
93.0
 10
48.85
 20
93.0
 10
48.85
 20
90.2
  0
LWPOLYLINE
  5
F2
100
AcDbEntity
  8
ASSEMBLY_OUTLINES_TOP
100
AcDbPolyline
 90
        4
 70
         1
 43
0.1
 10
39.75
 20
115.7
 10
39.75
 20
117.0
 10
42.55
 20
117.0
 10
42.55
 20
115.7
  0
LWPOLYLINE
  5
F3
100
AcDbEntity
  8
ASSEMBLY_OUTLINES_TOP
100
AcDbPolyline
 90
        4
 70
         1
 43
0.1
 10
81.5
 20
156.25
 10
81.5
 20
157.55
 10
84.4
 20
157.55
 10
84.4
 20
156.25
  0
LWPOLYLINE
  5
F4
100
AcDbEntity
  8
ASSEMBLY_OUTLINES_TOP
100
AcDbPolyline
 90
        4
 70
         1
 43
0.1
 10
46.5
 20
148.4
 10
46.5
 20
151.2
 10
47.8
 20
151.2
 10
47.8
 20
148.4
  0
LWPOLYLINE
  5
F5
100
AcDbEntity
  8
ASSEMBLY_OUTLINES_TOP
100
AcDbPolyline
 90
        4
 70
         1
 43
0.1
 10
41.35
 20
151.0
 10
41.35
 20
153.8
 10
42.65
 20
153.8
 10
42.65
 20
151.0
  0
LWPOLYLINE
  5
F6
100
AcDbEntity
  8
ASSEMBLY_OUTLINES_TOP
100
AcDbPolyline
 90
        4
 70
         1
 43
0.1
 10
58.05
 20
104.75
 10
58.05
 20
107.65
 10
59.35
 20
107.65
 10
59.35
 20
104.75
  0
LWPOLYLINE
  5
F7
100
AcDbEntity
  8
ASSEMBLY_OUTLINES_TOP
100
AcDbPolyline
 90
        4
 70
         1
 43
0.1
 10
37.825
 20
150.525
 10
37.825
 20
152.275
 10
40.875
 20
152.275
 10
40.875
 20
150.525
  0
LWPOLYLINE
  5
F8
100
AcDbEntity
  8
ASSEMBLY_OUTLINES_TOP
100
AcDbPolyline
 90
        2
 70
         0
 43
0.1
 10
37.925
 20
150.525
 10
37.825
 20
150.625
  0
LWPOLYLINE
  5
F9
100
AcDbEntity
  8
ASSEMBLY_OUTLINES_TOP
100
AcDbPolyline
 90
        2
 70
         0
 43
0.1
 10
38.025
 20
150.525
 10
37.825
 20
150.725
  0
LWPOLYLINE
  5
FA
100
AcDbEntity
  8
ASSEMBLY_OUTLINES_TOP
100
AcDbPolyline
 90
        2
 70
         0
 43
0.1
 10
38.125
 20
150.525
 10
37.825
 20
150.825
  0
LWPOLYLINE
  5
FB
100
AcDbEntity
  8
ASSEMBLY_OUTLINES_TOP
100
AcDbPolyline
 90
        2
 70
         0
 43
0.1
 10
38.225
 20
150.525
 10
37.825
 20
150.925
  0
LWPOLYLINE
  5
FC
100
AcDbEntity
  8
ASSEMBLY_OUTLINES_TOP
100
AcDbPolyline
 90
        2
 70
         0
 43
0.1
 10
38.325
 20
150.525
 10
37.825
 20
151.025
  0
LWPOLYLINE
  5
FD
100
AcDbEntity
  8
ASSEMBLY_OUTLINES_TOP
100
AcDbPolyline
 90
        2
 70
         0
 43
0.1
 10
38.425
 20
150.525
 10
37.825
 20
151.125
  0
LWPOLYLINE
  5
FE
100
AcDbEntity
  8
ASSEMBLY_OUTLINES_TOP
100
AcDbPolyline
 90
        2
 70
         0
 43
0.5
 10
36.9
 20
81.6
 10
46.0
 20
81.6
  0
LWPOLYLINE
  5
FF
100
AcDbEntity
  8
ASSEMBLY_OUTLINES_TOP
100
AcDbPolyline
 90
        2
 70
         0
 43
0.5
 10
46.0
 20
81.6
 10
46.0
 20
83.0
  0
LWPOLYLINE
  5
100
100
AcDbEntity
  8
ASSEMBLY_OUTLINES_TOP
100
AcDbPolyline
 90
        6
 70
         1
 43
0.15
 10
49.8
 20
79.8
 10
49.8
 20
84.3
 10
32.8
 20
84.3
 10
32.8
 20
80.3
 10
33.6
 20
80.3
 10
33.6
 20
79.8
  0
LWPOLYLINE
  5
101
100
AcDbEntity
  8
ASSEMBLY_OUTLINES_TOP
100
AcDbPolyline
 90
        4
 70
         1
 43
0.1
 10
75.55
 20
130.8
 10
75.55
 20
132.1
 10
78.45
 20
132.1
 10
78.45
 20
130.8
  0
LWPOLYLINE
  5
102
100
AcDbEntity
  8
ASSEMBLY_OUTLINES_TOP
100
AcDbPolyline
 90
        4
 70
         1
 43
0.1
 10
71.7
 20
153.15
 10
71.7
 20
155.95
 10
73.0
 20
155.95
 10
73.0
 20
153.15
  0
LWPOLYLINE
  5
103
100
AcDbEntity
  8
ASSEMBLY_OUTLINES_TOP
100
AcDbPolyline
 90
        4
 70
         1
 43
0.1
 10
48.4
 20
144.05
 10
48.4
 20
145.35
 10
51.2
 20
145.35
 10
51.2
 20
144.05
  0
LWPOLYLINE
  5
104
100
AcDbEntity
  8
ASSEMBLY_OUTLINES_TOP
100
AcDbPolyline
 90
        4
 70
         1
 43
0.1
 10
83.75
 20
118.45
 10
83.75
 20
121.35
 10
85.05
 20
121.35
 10
85.05
 20
118.45
  0
LWPOLYLINE
  5
105
100
AcDbEntity
  8
ASSEMBLY_OUTLINES_TOP
100
AcDbPolyline
 90
        4
 70
         1
 43
0.1
 10
74.75
 20
107.7
 10
74.75
 20
110.5
 10
76.05
 20
110.5
 10
76.05
 20
107.7
  0
LWPOLYLINE
  5
106
100
AcDbEntity
  8
ASSEMBLY_OUTLINES_TOP
100
AcDbPolyline
 90
        4
 70
         1
 43
0.1
 10
49.25
 20
132.65
 10
49.25
 20
135.55
 10
50.55
 20
135.55
 10
50.55
 20
132.65
  0
LWPOLYLINE
  5
107
100
AcDbEntity
  8
ASSEMBLY_OUTLINES_TOP
100
AcDbPolyline
 90
        4
 70
         1
 43
0.1
 10
75.1
 20
132.65
 10
75.1
 20
135.45
 10
76.4
 20
135.45
 10
76.4
 20
132.65
  0
LWPOLYLINE
  5
108
100
AcDbEntity
  8
ASSEMBLY_OUTLINES_TOP
100
AcDbPolyline
 90
        4
 70
         1
 10
66.5
 20
89.9
 10
66.5
 20
103.3
 10
78.6
 20
103.3
 10
78.6
 20
89.9
  0
LWPOLYLINE
  5
109
100
AcDbEntity
  8
ASSEMBLY_OUTLINES_TOP
100
AcDbPolyline
 90
        4
 70
         1
 10
78.6
 20
90.6
 10
78.6
 20
101.6
 10
85.6
 20
101.6
 10
85.6
 20
90.6
  0
LWPOLYLINE
  5
10A
100
AcDbEntity
  8
ASSEMBLY_OUTLINES_TOP
100
AcDbPolyline
 90
        4
 70
         1
 43
0.1
 10
61.65
 20
106.1
 10
61.65
 20
107.4
 10
64.45
 20
107.4
 10
64.45
 20
106.1
  0
LWPOLYLINE
  5
10B
100
AcDbEntity
  8
ASSEMBLY_OUTLINES_TOP
100
AcDbPolyline
 90
        4
 70
         1
 43
0.1
 10
75.75
 20
123.8
 10
75.75
 20
125.6
 10
79.05
 20
125.6
 10
79.05
 20
123.8
  0
LWPOLYLINE
  5
10C
100
AcDbEntity
  8
ASSEMBLY_OUTLINES_TOP
100
AcDbPolyline
 90
        4
 70
         1
 43
0.1
 10
52.25
 20
144.6
 10
52.25
 20
145.9
 10
55.15
 20
145.9
 10
55.15
 20
144.6
  0
LWPOLYLINE
  5
10D
100
AcDbEntity
  8
ASSEMBLY_OUTLINES_TOP
100
AcDbPolyline
 90
        4
 70
         1
 43
0.1
 10
42.1
 20
144.85
 10
42.1
 20
148.15
 10
43.9
 20
148.15
 10
43.9
 20
144.85
  0
LWPOLYLINE
  5
10E
100
AcDbEntity
  8
ASSEMBLY_OUTLINES_TOP
100
AcDbPolyline
 90
        4
 70
         1
 43
0.1
 10
47.1
 20
104.45
 10
47.1
 20
107.35
 10
48.4
 20
107.35
 10
48.4
 20
104.45
  0
LWPOLYLINE
  5
10F
100
AcDbEntity
  8
ASSEMBLY_OUTLINES_TOP
100
AcDbPolyline
 90
        4
 70
         1
 43
0.1
 10
77.15
 20
109.05
 10
77.15
 20
110.45
 10
80.15
 20
110.45
 10
80.15
 20
109.05
  0
LWPOLYLINE
  5
110
100
AcDbEntity
  8
ASSEMBLY_OUTLINES_TOP
100
AcDbPolyline
 90
        2
 70
         0
 43
0.1
 10
77.25
 20
109.05
 10
77.15
 20
109.15
  0
LWPOLYLINE
  5
111
100
AcDbEntity
  8
ASSEMBLY_OUTLINES_TOP
100
AcDbPolyline
 90
        2
 70
         0
 43
0.1
 10
77.35
 20
109.05
 10
77.15
 20
109.25
  0
LWPOLYLINE
  5
112
100
AcDbEntity
  8
ASSEMBLY_OUTLINES_TOP
100
AcDbPolyline
 90
        2
 70
         0
 43
0.1
 10
77.45
 20
109.05
 10
77.15
 20
109.35
  0
LWPOLYLINE
  5
113
100
AcDbEntity
  8
ASSEMBLY_OUTLINES_TOP
100
AcDbPolyline
 90
        2
 70
         0
 43
0.1
 10
77.55
 20
109.05
 10
77.15
 20
109.45
  0
LWPOLYLINE
  5
114
100
AcDbEntity
  8
ASSEMBLY_OUTLINES_TOP
100
AcDbPolyline
 90
        2
 70
         0
 43
0.1
 10
77.65
 20
109.05
 10
77.15
 20
109.55
  0
LWPOLYLINE
  5
115
100
AcDbEntity
  8
ASSEMBLY_OUTLINES_TOP
100
AcDbPolyline
 90
        2
 70
         0
 43
0.1
 10
77.75
 20
109.05
 10
77.15
 20
109.65
  0
LWPOLYLINE
  5
116
100
AcDbEntity
  8
ASSEMBLY_OUTLINES_TOP
100
AcDbPolyline
 90
        4
 70
         1
 43
0.1
 10
60.35
 20
96.75
 10
60.35
 20
98.05
 10
63.25
 20
98.05
 10
63.25
 20
96.75
  0
LWPOLYLINE
  5
117
100
AcDbEntity
  8
ASSEMBLY_OUTLINES_TOP
100
AcDbPolyline
 90
        4
 70
         1
 43
0.1
 10
55.75
 20
134.55
 10
55.75
 20
135.85
 10
58.65
 20
135.85
 10
58.65
 20
134.55
  0
LWPOLYLINE
  5
118
100
AcDbEntity
  8
ASSEMBLY_OUTLINES_TOP
100
AcDbPolyline
 90
        4
 70
         1
 43
0.1
 10
69.3
 20
107.7
 10
69.3
 20
110.5
 10
70.6
 20
110.5
 10
70.6
 20
107.7
  0
LWPOLYLINE
  5
119
100
AcDbEntity
  8
ASSEMBLY_OUTLINES_TOP
100
AcDbPolyline
 90
        4
 70
         1
 43
0.1
 10
50.05
 20
98.35
 10
50.05
 20
99.65
 10
52.95
 20
99.65
 10
52.95
 20
98.35
  0
LWPOLYLINE
  5
11A
100
AcDbEntity
  8
ASSEMBLY_OUTLINES_TOP
100
AcDbPolyline
 90
        4
 70
         1
 43
0.1
 10
51.7
 20
127.575
 10
51.7
 20
130.475
 10
53.0
 20
130.475
 10
53.0
 20
127.575
  0
LWPOLYLINE
  5
11B
100
AcDbEntity
  8
ASSEMBLY_OUTLINES_TOP
100
AcDbPolyline
 90
        4
 70
         1
 43
0.1
 10
60.35
 20
98.25
 10
60.35
 20
99.55
 10
63.25
 20
99.55
 10
63.25
 20
98.25
  0
LWPOLYLINE
  5
11C
100
AcDbEntity
  8
ASSEMBLY_OUTLINES_TOP
100
AcDbPolyline
 90
        4
 70
         1
 43
0.1
 10
48.15
 20
127.45
 10
48.15
 20
130.75
 10
49.95
 20
130.75
 10
49.95
 20
127.45
  0
LWPOLYLINE
  5
11D
100
AcDbEntity
  8
ASSEMBLY_OUTLINES_TOP
100
AcDbPolyline
 90
        4
 70
         1
 10
22.45
 20
110.6
 10
22.45
 20
125.6
 10
34.6
 20
125.6
 10
34.6
 20
110.6
  0
LWPOLYLINE
  5
11E
100
AcDbEntity
  8
ASSEMBLY_OUTLINES_TOP
100
AcDbPolyline
 90
        4
 70
         1
 43
0.1
 10
35.75
 20
123.15
 10
35.75
 20
126.05
 10
37.05
 20
126.05
 10
37.05
 20
123.15
  0
LWPOLYLINE
  5
11F
100
AcDbEntity
  8
ASSEMBLY_OUTLINES_TOP
100
AcDbPolyline
 90
        4
 70
         1
 43
0.1
 10
34.6
 20
90.0
 10
34.6
 20
90.8
 10
35.8
 20
90.8
 10
35.8
 20
90.0
  0
LWPOLYLINE
  5
120
100
AcDbEntity
  8
ASSEMBLY_OUTLINES_TOP
100
AcDbPolyline
 90
        2
 70
         0
 43
0.1
 10
34.6
 20
90.0
 10
34.6
 20
90.8
  0
LWPOLYLINE
  5
121
100
AcDbEntity
  8
ASSEMBLY_OUTLINES_TOP
100
AcDbPolyline
 90
        2
 70
         0
 43
0.1
 10
34.7
 20
90.0
 10
34.7
 20
90.8
  0
LWPOLYLINE
  5
122
100
AcDbEntity
  8
ASSEMBLY_OUTLINES_TOP
100
AcDbPolyline
 90
        2
 70
         0
 43
0.1
 10
34.8
 20
90.0
 10
34.8
 20
90.8
  0
LWPOLYLINE
  5
123
100
AcDbEntity
  8
ASSEMBLY_OUTLINES_TOP
100
AcDbPolyline
 90
        2
 70
         0
 43
0.1
 10
34.9
 20
90.0
 10
34.9
 20
90.8
  0
LWPOLYLINE
  5
124
100
AcDbEntity
  8
ASSEMBLY_OUTLINES_TOP
100
AcDbPolyline
 90
        2
 70
         0
 43
0.1
 10
35.0
 20
90.0
 10
35.0
 20
90.8
  0
LWPOLYLINE
  5
125
100
AcDbEntity
  8
ASSEMBLY_OUTLINES_TOP
100
AcDbPolyline
 90
        2
 70
         0
 43
0.1
 10
35.1
 20
90.0
 10
35.1
 20
90.8
  0
LWPOLYLINE
  5
126
100
AcDbEntity
  8
ASSEMBLY_OUTLINES_TOP
100
AcDbPolyline
 90
        4
 70
         1
 43
0.1
 10
59.8
 20
108.9
 10
59.8
 20
111.7
 10
61.1
 20
111.7
 10
61.1
 20
108.9
  0
LWPOLYLINE
  5
127
100
AcDbEntity
  8
ASSEMBLY_OUTLINES_TOP
100
AcDbPolyline
 90
        4
 70
         1
 43
0.1
 10
54.05
 20
148.0
 10
54.05
 20
151.3
 10
55.85
 20
151.3
 10
55.85
 20
148.0
  0
LWPOLYLINE
  5
128
100
AcDbEntity
  8
ASSEMBLY_OUTLINES_TOP
100
AcDbPolyline
 90
        4
 70
         1
 43
0.1
 10
35.8
 20
120.05
 10
35.8
 20
122.95
 10
37.1
 20
122.95
 10
37.1
 20
120.05
  0
LWPOLYLINE
  5
129
100
AcDbEntity
  8
ASSEMBLY_OUTLINES_TOP
100
AcDbPolyline
 90
        4
 70
         1
 43
0.1
 10
61.3
 20
107.8
 10
61.3
 20
109.1
 10
64.1
 20
109.1
 10
64.1
 20
107.8
  0
LWPOLYLINE
  5
12A
100
AcDbEntity
  8
ASSEMBLY_OUTLINES_TOP
100
AcDbPolyline
 90
        4
 70
         1
 43
0.1
 10
76.0
 20
122.15
 10
76.0
 20
123.45
 10
78.8
 20
123.45
 10
78.8
 20
122.15
  0
LWPOLYLINE
  5
12B
100
AcDbEntity
  8
ASSEMBLY_OUTLINES_TOP
100
AcDbPolyline
 90
        4
 70
         1
 43
0.1
 10
45.35
 20
142.15
 10
45.35
 20
145.05
 10
46.65
 20
145.05
 10
46.65
 20
142.15
  0
LWPOLYLINE
  5
12C
100
AcDbEntity
  8
ASSEMBLY_OUTLINES_TOP
100
AcDbPolyline
 90
        4
 70
         1
 43
0.1
 10
38.525
 20
125.5
 10
38.525
 20
126.8
 10
41.325
 20
126.8
 10
41.325
 20
125.5
  0
LWPOLYLINE
  5
12D
100
AcDbEntity
  8
ASSEMBLY_OUTLINES_TOP
100
AcDbPolyline
 90
        4
 70
         1
 43
0.1
 10
83.75
 20
106.55
 10
83.75
 20
109.45
 10
85.05
 20
109.45
 10
85.05
 20
106.55
  0
LWPOLYLINE
  5
12E
100
AcDbEntity
  8
ASSEMBLY_OUTLINES_TOP
100
AcDbPolyline
 90
        4
 70
         1
 43
0.1
 10
66.15
 20
109.25
 10
66.15
 20
112.05
 10
67.45
 20
112.05
 10
67.45
 20
109.25
  0
LWPOLYLINE
  5
12F
100
AcDbEntity
  8
ASSEMBLY_OUTLINES_TOP
100
AcDbPolyline
 90
        4
 70
         1
 43
0.1
 10
76.65
 20
111.45
 10
76.65
 20
112.75
 10
79.55
 20
112.75
 10
79.55
 20
111.45
  0
LWPOLYLINE
  5
130
100
AcDbEntity
  8
ASSEMBLY_OUTLINES_TOP
100
AcDbPolyline
 90
        4
 70
         1
 43
0.1
 10
76.6
 20
105.2
 10
76.6
 20
106.6
 10
79.6
 20
106.6
 10
79.6
 20
105.2
  0
LWPOLYLINE
  5
131
100
AcDbEntity
  8
ASSEMBLY_OUTLINES_TOP
100
AcDbPolyline
 90
        2
 70
         0
 43
0.1
 10
76.7
 20
105.2
 10
76.6
 20
105.3
  0
LWPOLYLINE
  5
132
100
AcDbEntity
  8
ASSEMBLY_OUTLINES_TOP
100
AcDbPolyline
 90
        2
 70
         0
 43
0.1
 10
76.8
 20
105.2
 10
76.6
 20
105.4
  0
LWPOLYLINE
  5
133
100
AcDbEntity
  8
ASSEMBLY_OUTLINES_TOP
100
AcDbPolyline
 90
        2
 70
         0
 43
0.1
 10
76.9
 20
105.2
 10
76.6
 20
105.5
  0
LWPOLYLINE
  5
134
100
AcDbEntity
  8
ASSEMBLY_OUTLINES_TOP
100
AcDbPolyline
 90
        2
 70
         0
 43
0.1
 10
77.0
 20
105.2
 10
76.6
 20
105.6
  0
LWPOLYLINE
  5
135
100
AcDbEntity
  8
ASSEMBLY_OUTLINES_TOP
100
AcDbPolyline
 90
        2
 70
         0
 43
0.1
 10
77.1
 20
105.2
 10
76.6
 20
105.7
  0
LWPOLYLINE
  5
136
100
AcDbEntity
  8
ASSEMBLY_OUTLINES_TOP
100
AcDbPolyline
 90
        2
 70
         0
 43
0.1
 10
77.2
 20
105.2
 10
76.6
 20
105.8
  0
LWPOLYLINE
  5
137
100
AcDbEntity
  8
ASSEMBLY_OUTLINES_TOP
100
AcDbPolyline
 90
        4
 70
         1
 43
0.1
 10
65.2
 20
156.3
 10
65.2
 20
157.6
 10
68.1
 20
157.6
 10
68.1
 20
156.3
  0
LWPOLYLINE
  5
138
100
AcDbEntity
  8
ASSEMBLY_OUTLINES_TOP
100
AcDbPolyline
 90
        4
 70
         1
 43
0.1
 10
68.15
 20
146.7
 10
68.15
 20
149.5
 10
69.45
 20
149.5
 10
69.45
 20
146.7
  0
LWPOLYLINE
  5
139
100
AcDbEntity
  8
ASSEMBLY_OUTLINES_TOP
100
AcDbPolyline
 90
        4
 70
         1
 43
0.1
 10
67.15
 20
104.65
 10
67.15
 20
107.55
 10
68.45
 20
107.55
 10
68.45
 20
104.65
  0
LWPOLYLINE
  5
13A
100
AcDbEntity
  8
ASSEMBLY_OUTLINES_TOP
100
AcDbPolyline
 90
        4
 70
         1
 43
0.1
 10
70.3
 20
150.0
 10
70.3
 20
152.8
 10
71.6
 20
152.8
 10
71.6
 20
150.0
  0
LWPOLYLINE
  5
13B
100
AcDbEntity
  8
ASSEMBLY_OUTLINES_TOP
100
AcDbPolyline
 90
        4
 70
         1
 43
0.1
 10
44.15
 20
145.3
 10
44.15
 20
148.2
 10
45.45
 20
148.2
 10
45.45
 20
145.3
  0
LWPOLYLINE
  5
13C
100
AcDbEntity
  8
ASSEMBLY_OUTLINES_TOP
100
AcDbPolyline
 90
        4
 70
         1
 43
0.1
 10
57.95
 20
140.95
 10
57.95
 20
142.25
 10
60.75
 20
142.25
 10
60.75
 20
140.95
  0
LWPOLYLINE
  5
13D
100
AcDbEntity
  8
ASSEMBLY_OUTLINES_TOP
100
AcDbPolyline
 90
        4
 70
         1
 43
0.1
 10
76.6
 20
80.0
 10
76.6
 20
84.0
 10
80.6
 20
84.0
 10
80.6
 20
80.0
  0
LWPOLYLINE
  5
13E
100
AcDbEntity
  8
ASSEMBLY_OUTLINES_TOP
100
AcDbPolyline
 90
        4
 70
         1
 43
0.1
 10
56.15
 20
143.0
 10
56.15
 20
145.8
 10
57.45
 20
145.8
 10
57.45
 20
143.0
  0
LWPOLYLINE
  5
13F
100
AcDbEntity
  8
ASSEMBLY_OUTLINES_TOP
100
AcDbPolyline
 90
        4
 70
         1
 43
0.1
 10
46.55
 20
145.4
 10
46.55
 20
148.2
 10
47.85
 20
148.2
 10
47.85
 20
145.4
  0
LWPOLYLINE
  5
140
100
AcDbEntity
  8
ASSEMBLY_OUTLINES_TOP
100
AcDbPolyline
 90
        4
 70
         1
 43
0.1
 10
54.2
 20
151.75
 10
54.2
 20
154.55
 10
55.5
 20
154.55
 10
55.5
 20
151.75
  0
LWPOLYLINE
  5
141
100
AcDbEntity
  8
ASSEMBLY_OUTLINES_TOP
100
AcDbPolyline
 90
        4
 70
         1
 43
0.1
 10
75.15
 20
117.55
 10
75.15
 20
118.85
 10
77.95
 20
118.85
 10
77.95
 20
117.55
  0
LWPOLYLINE
  5
142
100
AcDbEntity
  8
ASSEMBLY_OUTLINES_TOP
100
AcDbPolyline
 90
        4
 70
         1
 43
0.1
 10
56.15
 20
146.6
 10
56.15
 20
149.4
 10
57.45
 20
149.4
 10
57.45
 20
146.6
  0
LWPOLYLINE
  5
143
100
AcDbEntity
  8
ASSEMBLY_OUTLINES_TOP
100
AcDbPolyline
 90
        4
 70
         1
 43
0.1
 10
49.95
 20
104.45
 10
49.95
 20
107.35
 10
51.25
 20
107.35
 10
51.25
 20
104.45
  0
LWPOLYLINE
  5
144
100
AcDbEntity
  8
ASSEMBLY_OUTLINES_TOP
100
AcDbPolyline
 90
        4
 70
         1
 43
0.1
 10
57.95
 20
108.2
 10
57.95
 20
111.5
 10
59.75
 20
111.5
 10
59.75
 20
108.2
  0
LWPOLYLINE
  5
145
100
AcDbEntity
  8
ASSEMBLY_OUTLINES_TOP
100
AcDbPolyline
 90
        4
 70
         1
 43
0.1
 10
81.65
 20
127.95
 10
81.65
 20
130.75
 10
82.95
 20
130.75
 10
82.95
 20
127.95
  0
LWPOLYLINE
  5
146
100
AcDbEntity
  8
ASSEMBLY_OUTLINES_TOP
100
AcDbPolyline
 90
        4
 70
         1
 43
0.1
 10
61.25
 20
111.15
 10
61.25
 20
112.45
 10
64.15
 20
112.45
 10
64.15
 20
111.15
  0
LWPOLYLINE
  5
147
100
AcDbEntity
  8
ASSEMBLY_OUTLINES_TOP
100
AcDbPolyline
 90
        4
 70
         1
 43
0.1
 10
69.95
 20
153.25
 10
69.95
 20
156.05
 10
71.25
 20
156.05
 10
71.25
 20
153.25
  0
LWPOLYLINE
  5
148
100
AcDbEntity
  8
ASSEMBLY_OUTLINES_TOP
100
AcDbPolyline
 90
        4
 70
         1
 43
0.1
 10
75.95
 20
120.7
 10
75.95
 20
122.0
 10
78.75
 20
122.0
 10
78.75
 20
120.7
  0
LWPOLYLINE
  5
149
100
AcDbEntity
  8
ASSEMBLY_OUTLINES_TOP
100
AcDbPolyline
 90
        4
 70
         1
 43
0.1
 10
79.05
 20
130.85
 10
79.05
 20
133.75
 10
80.35
 20
133.75
 10
80.35
 20
130.85
  0
LWPOLYLINE
  5
14A
100
AcDbEntity
  8
ASSEMBLY_OUTLINES_TOP
100
AcDbPolyline
 90
        4
 70
         1
 43
0.1
 10
56.0
 20
90.5
 10
56.0
 20
93.5
 10
57.4
 20
93.5
 10
57.4
 20
90.5
  0
LWPOLYLINE
  5
14B
100
AcDbEntity
  8
ASSEMBLY_OUTLINES_TOP
100
AcDbPolyline
 90
        2
 70
         0
 43
0.1
 10
57.4
 20
90.6
 10
57.3
 20
90.5
  0
LWPOLYLINE
  5
14C
100
AcDbEntity
  8
ASSEMBLY_OUTLINES_TOP
100
AcDbPolyline
 90
        2
 70
         0
 43
0.1
 10
57.4
 20
90.7
 10
57.2
 20
90.5
  0
LWPOLYLINE
  5
14D
100
AcDbEntity
  8
ASSEMBLY_OUTLINES_TOP
100
AcDbPolyline
 90
        2
 70
         0
 43
0.1
 10
57.4
 20
90.8
 10
57.1
 20
90.5
  0
LWPOLYLINE
  5
14E
100
AcDbEntity
  8
ASSEMBLY_OUTLINES_TOP
100
AcDbPolyline
 90
        2
 70
         0
 43
0.1
 10
57.4
 20
90.9
 10
57.0
 20
90.5
  0
LWPOLYLINE
  5
14F
100
AcDbEntity
  8
ASSEMBLY_OUTLINES_TOP
100
AcDbPolyline
 90
        2
 70
         0
 43
0.1
 10
57.4
 20
91.0
 10
56.9
 20
90.5
  0
LWPOLYLINE
  5
150
100
AcDbEntity
  8
ASSEMBLY_OUTLINES_TOP
100
AcDbPolyline
 90
        2
 70
         0
 43
0.1
 10
57.4
 20
91.1
 10
56.8
 20
90.5
  0
LWPOLYLINE
  5
151
100
AcDbEntity
  8
ASSEMBLY_OUTLINES_TOP
100
AcDbPolyline
 90
        4
 70
         1
 43
0.1
 10
78.55
 20
156.25
 10
78.55
 20
157.55
 10
81.45
 20
157.55
 10
81.45
 20
156.25
  0
LWPOLYLINE
  5
152
100
AcDbEntity
  8
ASSEMBLY_OUTLINES_TOP
100
AcDbPolyline
 90
        4
 70
         1
 43
0.1
 10
51.3
 20
130.65
 10
51.3
 20
133.55
 10
52.6
 20
133.55
 10
52.6
 20
130.65
  0
LWPOLYLINE
  5
153
100
AcDbEntity
  8
ASSEMBLY_OUTLINES_TOP
100
AcDbPolyline
 90
        4
 70
         1
 43
0.1
 10
52.75
 20
104.45
 10
52.75
 20
107.35
 10
54.05
 20
107.35
 10
54.05
 20
104.45
  0
LWPOLYLINE
  5
154
100
AcDbEntity
  8
ASSEMBLY_OUTLINES_TOP
100
AcDbPolyline
 90
        4
 70
         1
 43
0.1
 10
50.65
 20
100.25
 10
50.65
 20
103.15
 10
51.95
 20
103.15
 10
51.95
 20
100.25
  0
LWPOLYLINE
  5
155
100
AcDbEntity
  8
ASSEMBLY_OUTLINES_TOP
100
AcDbPolyline
 90
        4
 70
         1
 43
0.1
 10
60.4
 20
99.75
 10
60.4
 20
101.05
 10
63.2
 20
101.05
 10
63.2
 20
99.75
  0
LWPOLYLINE
  5
156
100
AcDbEntity
  8
ASSEMBLY_OUTLINES_TOP
100
AcDbPolyline
 90
        4
 70
         1
 43
0.1
 10
82.05
 20
138.85
 10
82.05
 20
141.75
 10
83.35
 20
141.75
 10
83.35
 20
138.85
  0
LWPOLYLINE
  5
157
100
AcDbEntity
  8
ASSEMBLY_OUTLINES_TOP
100
AcDbPolyline
 90
        4
 70
         1
 43
0.1
 10
78.3
 20
112.9
 10
78.3
 20
115.7
 10
79.6
 20
115.7
 10
79.6
 20
112.9
  0
LWPOLYLINE
  5
158
100
AcDbEntity
  8
ASSEMBLY_OUTLINES_TOP
100
AcDbPolyline
 90
        4
 70
         1
 43
0.1
 10
46.8
 20
152.7
 10
46.8
 20
154.0
 10
49.7
 20
154.0
 10
49.7
 20
152.7
  0
LWPOLYLINE
  5
159
100
AcDbEntity
  8
ASSEMBLY_OUTLINES_TOP
100
AcDbPolyline
 90
        4
 70
         1
 43
0.1
 10
46.75
 20
142.15
 10
46.75
 20
145.05
 10
48.05
 20
145.05
 10
48.05
 20
142.15
  0
LWPOLYLINE
  5
15A
100
AcDbEntity
  8
ASSEMBLY_OUTLINES_TOP
100
AcDbPolyline
 90
        4
 70
         1
 43
0.1
 10
50.05
 20
119.25
 10
50.05
 20
120.55
 10
52.85
 20
120.55
 10
52.85
 20
119.25
  0
LWPOLYLINE
  5
15B
100
AcDbEntity
  8
ASSEMBLY_OUTLINES_TOP
100
AcDbPolyline
 90
        4
 70
         1
 43
0.1
 10
62.25
 20
156.3
 10
62.25
 20
157.6
 10
65.15
 20
157.6
 10
65.15
 20
156.3
  0
LWPOLYLINE
  5
15C
100
AcDbEntity
  8
ASSEMBLY_OUTLINES_TOP
100
AcDbPolyline
 90
        4
 70
         1
 43
0.1
 10
56.15
 20
149.95
 10
56.15
 20
152.75
 10
57.45
 20
152.75
 10
57.45
 20
149.95
  0
LWPOLYLINE
  5
15D
100
AcDbEntity
  8
ASSEMBLY_OUTLINES_TOP
100
AcDbPolyline
 90
        8
 70
         1
 43
0.1
 10
43.575
 20
126.25
 10
43.575
 20
122.95
 42
0.4142135624
 10
44.575
 20
121.95
 10
47.775
 20
121.95
 42
0.4142135624
 10
48.775
 20
122.95
 10
48.775
 20
126.25
 42
0.4142135624
 10
47.775
 20
127.25
 10
44.575
 20
127.25
 42
0.4142135624
  0
LWPOLYLINE
  5
15E
100
AcDbEntity
  8
ASSEMBLY_OUTLINES_TOP
100
AcDbPolyline
 90
        4
 70
         1
 43
0.1
 10
68.15
 20
153.15
 10
68.15
 20
155.95
 10
69.45
 20
155.95
 10
69.45
 20
153.15
  0
LWPOLYLINE
  5
15F
100
AcDbEntity
  8
ASSEMBLY_OUTLINES_TOP
100
AcDbPolyline
 90
        4
 70
         1
 43
0.1
 10
48.95
 20
90.2
 10
48.95
 20
93.0
 10
50.25
 20
93.0
 10
50.25
 20
90.2
  0
LWPOLYLINE
  5
160
100
AcDbEntity
  8
ASSEMBLY_OUTLINES_TOP
100
AcDbPolyline
 90
        4
 70
         1
 43
0.1
 10
75.2
 20
114.4
 10
75.2
 20
115.7
 10
78.0
 20
115.7
 10
78.0
 20
114.4
  0
LWPOLYLINE
  5
161
100
AcDbEntity
  8
ASSEMBLY_OUTLINES_TOP
100
AcDbPolyline
 90
        4
 70
         1
 43
0.1
 10
83.9
 20
110.4
 10
83.9
 20
113.2
 10
85.2
 20
113.2
 10
85.2
 20
110.4
  0
LWPOLYLINE
  5
162
100
AcDbEntity
  8
ASSEMBLY_OUTLINES_TOP
100
AcDbPolyline
 90
        4
 70
         1
 43
0.1
 10
69.95
 20
146.8
 10
69.95
 20
149.6
 10
71.25
 20
149.6
 10
71.25
 20
146.8
  0
LWPOLYLINE
  5
163
100
AcDbEntity
  8
ASSEMBLY_OUTLINES_TOP
100
AcDbPolyline
 90
        4
 70
         1
 43
0.1
 10
68.55
 20
104.85
 10
68.55
 20
107.65
 10
69.85
 20
107.65
 10
69.85
 20
104.85
  0
LWPOLYLINE
  5
164
100
AcDbEntity
  8
ASSEMBLY_OUTLINES_TOP
100
AcDbPolyline
 90
        4
 70
         1
 43
0.1
 10
48.1
 20
136.45
 10
48.1
 20
137.75
 10
51.0
 20
137.75
 10
51.0
 20
136.45
  0
LWPOLYLINE
  5
165
100
AcDbEntity
  8
ASSEMBLY_OUTLINES_TOP
100
AcDbPolyline
 90
        4
 70
         1
 43
0.1
 10
79.25
 20
85.35
 10
79.25
 20
88.45
 10
80.95
 20
88.45
 10
80.95
 20
85.35
  0
LWPOLYLINE
  5
166
100
AcDbEntity
  8
ASSEMBLY_OUTLINES_TOP
100
AcDbPolyline
 90
        2
 70
         0
 43
0.1
 10
80.95
 20
85.45
 10
79.25
 20
85.45
  0
LWPOLYLINE
  5
167
100
AcDbEntity
  8
ASSEMBLY_OUTLINES_TOP
100
AcDbPolyline
 90
        2
 70
         0
 43
0.1
 10
80.95
 20
85.55
 10
79.25
 20
85.55
  0
LWPOLYLINE
  5
168
100
AcDbEntity
  8
ASSEMBLY_OUTLINES_TOP
100
AcDbPolyline
 90
        2
 70
         0
 43
0.1
 10
80.95
 20
85.65
 10
79.25
 20
85.65
  0
LWPOLYLINE
  5
169
100
AcDbEntity
  8
ASSEMBLY_OUTLINES_TOP
100
AcDbPolyline
 90
        2
 70
         0
 43
0.1
 10
80.95
 20
85.75
 10
79.25
 20
85.75
  0
LWPOLYLINE
  5
16A
100
AcDbEntity
  8
ASSEMBLY_OUTLINES_TOP
100
AcDbPolyline
 90
        2
 70
         0
 43
0.1
 10
80.95
 20
85.85
 10
79.25
 20
85.85
  0
LWPOLYLINE
  5
16B
100
AcDbEntity
  8
ASSEMBLY_OUTLINES_TOP
100
AcDbPolyline
 90
        2
 70
         0
 43
0.1
 10
80.95
 20
85.95
 10
79.25
 20
85.95
  0
LWPOLYLINE
  5
16C
100
AcDbEntity
  8
ASSEMBLY_OUTLINES_TOP
100
AcDbPolyline
 90
        4
 70
         1
 43
0.1
 10
83.7
 20
146.6
 10
83.7
 20
149.4
 10
85.0
 20
149.4
 10
85.0
 20
146.6
  0
LWPOLYLINE
  5
16D
100
AcDbEntity
  8
ASSEMBLY_OUTLINES_TOP
100
AcDbPolyline
 90
        4
 70
         1
 43
0.1
 10
39.375
 20
121.95
 10
39.375
 20
124.95
 10
42.375
 20
124.95
 10
42.375
 20
121.95
  0
LWPOLYLINE
  5
16E
100
AcDbEntity
  8
ASSEMBLY_OUTLINES_TOP
100
AcDbPolyline
 90
        2
 70
         0
 43
0.1
 10
42.375
 20
122.05
 10
42.275
 20
121.95
  0
LWPOLYLINE
  5
16F
100
AcDbEntity
  8
ASSEMBLY_OUTLINES_TOP
100
AcDbPolyline
 90
        2
 70
         0
 43
0.1
 10
42.375
 20
122.15
 10
42.175
 20
121.95
  0
LWPOLYLINE
  5
170
100
AcDbEntity
  8
ASSEMBLY_OUTLINES_TOP
100
AcDbPolyline
 90
        2
 70
         0
 43
0.1
 10
42.375
 20
122.25
 10
42.075
 20
121.95
  0
LWPOLYLINE
  5
171
100
AcDbEntity
  8
ASSEMBLY_OUTLINES_TOP
100
AcDbPolyline
 90
        2
 70
         0
 43
0.1
 10
42.375
 20
122.35
 10
41.975
 20
121.95
  0
LWPOLYLINE
  5
172
100
AcDbEntity
  8
ASSEMBLY_OUTLINES_TOP
100
AcDbPolyline
 90
        2
 70
         0
 43
0.1
 10
42.375
 20
122.45
 10
41.875
 20
121.95
  0
LWPOLYLINE
  5
173
100
AcDbEntity
  8
ASSEMBLY_OUTLINES_TOP
100
AcDbPolyline
 90
        2
 70
         0
 43
0.1
 10
42.375
 20
122.55
 10
41.775
 20
121.95
  0
LWPOLYLINE
  5
174
100
AcDbEntity
  8
ASSEMBLY_OUTLINES_TOP
100
AcDbPolyline
 90
        4
 70
         1
 43
0.1
 10
40.05
 20
118.0
 10
40.05
 20
120.9
 10
41.35
 20
120.9
 10
41.35
 20
118.0
  0
LWPOLYLINE
  5
175
100
AcDbEntity
  8
ASSEMBLY_OUTLINES_TOP
100
AcDbPolyline
 90
        4
 70
         1
 43
0.1
 10
75.6
 20
156.25
 10
75.6
 20
157.55
 10
78.5
 20
157.55
 10
78.5
 20
156.25
  0
LWPOLYLINE
  5
176
100
AcDbEntity
  8
ASSEMBLY_OUTLINES_TOP
100
AcDbPolyline
 90
        4
 70
         1
 43
0.1
 10
75.15
 20
119.0
 10
75.15
 20
120.3
 10
77.95
 20
120.3
 10
77.95
 20
119.0
  0
LWPOLYLINE
  5
177
100
AcDbEntity
  8
ASSEMBLY_OUTLINES_TOP
100
AcDbPolyline
 90
        4
 70
         1
 43
0.1
 10
75.2
 20
112.9
 10
75.2
 20
114.2
 10
78.1
 20
114.2
 10
78.1
 20
112.9
  0
LWPOLYLINE
  5
178
100
AcDbEntity
  8
ASSEMBLY_OUTLINES_TOP
100
AcDbPolyline
 90
        4
 70
         1
 43
0.1
 10
35.95
 20
116.8
 10
35.95
 20
119.6
 10
37.25
 20
119.6
 10
37.25
 20
116.8
  0
LWPOLYLINE
  5
179
100
AcDbEntity
  8
ASSEMBLY_OUTLINES_TOP
100
AcDbPolyline
 90
        4
 70
         1
 43
0.1
 10
50.275
 20
152.175
 10
50.275
 20
153.925
 10
53.325
 20
153.925
 10
53.325
 20
152.175
  0
LWPOLYLINE
  5
17A
100
AcDbEntity
  8
ASSEMBLY_OUTLINES_TOP
100
AcDbPolyline
 90
        2
 70
         0
 43
0.1
 10
50.375
 20
152.175
 10
50.275
 20
152.275
  0
LWPOLYLINE
  5
17B
100
AcDbEntity
  8
ASSEMBLY_OUTLINES_TOP
100
AcDbPolyline
 90
        2
 70
         0
 43
0.1
 10
50.475
 20
152.175
 10
50.275
 20
152.375
  0
LWPOLYLINE
  5
17C
100
AcDbEntity
  8
ASSEMBLY_OUTLINES_TOP
100
AcDbPolyline
 90
        2
 70
         0
 43
0.1
 10
50.575
 20
152.175
 10
50.275
 20
152.475
  0
LWPOLYLINE
  5
17D
100
AcDbEntity
  8
ASSEMBLY_OUTLINES_TOP
100
AcDbPolyline
 90
        2
 70
         0
 43
0.1
 10
50.675
 20
152.175
 10
50.275
 20
152.575
  0
LWPOLYLINE
  5
17E
100
AcDbEntity
  8
ASSEMBLY_OUTLINES_TOP
100
AcDbPolyline
 90
        2
 70
         0
 43
0.1
 10
50.775
 20
152.175
 10
50.275
 20
152.675
  0
LWPOLYLINE
  5
17F
100
AcDbEntity
  8
ASSEMBLY_OUTLINES_TOP
100
AcDbPolyline
 90
        2
 70
         0
 43
0.1
 10
50.875
 20
152.175
 10
50.275
 20
152.775
  0
LWPOLYLINE
  5
180
100
AcDbEntity
  8
ASSEMBLY_OUTLINES_TOP
100
AcDbPolyline
 90
        4
 70
         1
 43
0.1
 10
83.65
 20
150.25
 10
83.65
 20
153.05
 10
84.95
 20
153.05
 10
84.95
 20
150.25
  0
LWPOLYLINE
  5
181
100
AcDbEntity
  8
ASSEMBLY_OUTLINES_TOP
100
AcDbPolyline
 90
        4
 70
         1
 43
0.1
 10
48.55
 20
104.45
 10
48.55
 20
107.35
 10
49.85
 20
107.35
 10
49.85
 20
104.45
  0
LWPOLYLINE
  5
182
100
AcDbEntity
  8
ASSEMBLY_OUTLINES_TOP
100
AcDbPolyline
 90
        4
 70
         1
 43
0.1
 10
79.6
 20
120.75
 10
79.6
 20
122.05
 10
82.5
 20
122.05
 10
82.5
 20
120.75
  0
LWPOLYLINE
  5
183
100
AcDbEntity
  8
ASSEMBLY_OUTLINES_TOP
100
AcDbPolyline
 90
        4
 70
         1
 43
0.1
 10
59.1
 20
142.65
 10
59.1
 20
155.95
 10
66.6
 20
155.95
 10
66.6
 20
142.65
  0
LWPOLYLINE
  5
184
100
AcDbEntity
  8
ASSEMBLY_OUTLINES_TOP
100
AcDbPolyline
 90
        2
 70
         0
 43
0.1
 10
66.5
 20
142.65
 10
66.6
 20
142.75
  0
LWPOLYLINE
  5
185
100
AcDbEntity
  8
ASSEMBLY_OUTLINES_TOP
100
AcDbPolyline
 90
        2
 70
         0
 43
0.1
 10
66.4
 20
142.65
 10
66.6
 20
142.85
  0
LWPOLYLINE
  5
186
100
AcDbEntity
  8
ASSEMBLY_OUTLINES_TOP
100
AcDbPolyline
 90
        2
 70
         0
 43
0.1
 10
66.3
 20
142.65
 10
66.6
 20
142.95
  0
LWPOLYLINE
  5
187
100
AcDbEntity
  8
ASSEMBLY_OUTLINES_TOP
100
AcDbPolyline
 90
        2
 70
         0
 43
0.1
 10
66.2
 20
142.65
 10
66.6
 20
143.05
  0
LWPOLYLINE
  5
188
100
AcDbEntity
  8
ASSEMBLY_OUTLINES_TOP
100
AcDbPolyline
 90
        2
 70
         0
 43
0.1
 10
66.1
 20
142.65
 10
66.6
 20
143.15
  0
LWPOLYLINE
  5
189
100
AcDbEntity
  8
ASSEMBLY_OUTLINES_TOP
100
AcDbPolyline
 90
        2
 70
         0
 43
0.1
 10
66.0
 20
142.65
 10
66.6
 20
143.25
  0
LWPOLYLINE
  5
18A
100
AcDbEntity
  8
ASSEMBLY_OUTLINES_TOP
100
AcDbPolyline
 90
        2
 70
         0
 43
0.1
 10
65.9
 20
142.65
 10
66.6
 20
143.35
  0
LWPOLYLINE
  5
18B
100
AcDbEntity
  8
ASSEMBLY_OUTLINES_TOP
100
AcDbPolyline
 90
        2
 70
         0
 43
0.1
 10
65.8
 20
142.65
 10
66.6
 20
143.45
  0
LWPOLYLINE
  5
18C
100
AcDbEntity
  8
ASSEMBLY_OUTLINES_TOP
100
AcDbPolyline
 90
        2
 70
         0
 43
0.1
 10
65.7
 20
142.65
 10
66.6
 20
143.55
  0
LWPOLYLINE
  5
18D
100
AcDbEntity
  8
ASSEMBLY_OUTLINES_TOP
100
AcDbPolyline
 90
        2
 70
         0
 43
0.1
 10
65.6
 20
142.65
 10
66.6
 20
143.65
  0
LWPOLYLINE
  5
18E
100
AcDbEntity
  8
ASSEMBLY_OUTLINES_TOP
100
AcDbPolyline
 90
        4
 70
         1
 43
0.1
 10
49.35
 20
115.5
 10
49.35
 20
116.8
 10
52.25
 20
116.8
 10
52.25
 20
115.5
  0
LWPOLYLINE
  5
18F
100
AcDbEntity
  8
ASSEMBLY_OUTLINES_TOP
100
AcDbPolyline
 90
        4
 70
         1
 43
0.1
 10
62.3
 20
93.65
 10
62.3
 20
96.45
 10
63.6
 20
96.45
 10
63.6
 20
93.65
  0
LWPOLYLINE
  5
190
100
AcDbEntity
  8
ASSEMBLY_OUTLINES_TOP
100
AcDbPolyline
 90
        4
 70
         1
 43
0.1
 10
43.2
 20
151.75
 10
43.2
 20
153.05
 10
46.1
 20
153.05
 10
46.1
 20
151.75
  0
LWPOLYLINE
  5
191
100
AcDbEntity
  8
ASSEMBLY_OUTLINES_TOP
100
AcDbPolyline
 90
        4
 70
         1
 43
0.1
 10
80.35
 20
106.55
 10
80.35
 20
109.45
 10
81.65
 20
109.45
 10
81.65
 20
106.55
  0
LWPOLYLINE
  5
192
100
AcDbEntity
  8
ASSEMBLY_OUTLINES_TOP
100
AcDbPolyline
 90
        4
 70
         1
 43
0.1
 10
71.75
 20
143.0
 10
71.75
 20
145.8
 10
73.05
 20
145.8
 10
73.05
 20
143.0
  0
LWPOLYLINE
  5
193
100
AcDbEntity
  8
ASSEMBLY_OUTLINES_TOP
100
AcDbPolyline
 90
        4
 70
         1
 43
0.1
 10
60.35
 20
101.45
 10
60.35
 20
102.75
 10
63.25
 20
102.75
 10
63.25
 20
101.45
  0
LWPOLYLINE
  5
194
100
AcDbEntity
  8
ASSEMBLY_OUTLINES_TOP
100
AcDbPolyline
 90
        4
 70
         1
 43
0.1
 10
67.7
 20
109.1
 10
67.7
 20
111.9
 10
69.0
 20
111.9
 10
69.0
 20
109.1
  0
LWPOLYLINE
  5
195
100
AcDbEntity
  8
ASSEMBLY_OUTLINES_TOP
100
AcDbPolyline
 90
        4
 70
         1
 43
0.1
 10
54.35
 20
140.75
 10
54.35
 20
143.65
 10
55.65
 20
143.65
 10
55.65
 20
140.75
  0
LWPOLYLINE
  5
196
100
AcDbEntity
  8
ASSEMBLY_OUTLINES_TOP
100
AcDbPolyline
 90
        4
 70
         1
 43
0.1
 10
46.1
 20
95.5
 10
46.1
 20
96.9
 10
49.1
 20
96.9
 10
49.1
 20
95.5
  0
LWPOLYLINE
  5
197
100
AcDbEntity
  8
ASSEMBLY_OUTLINES_TOP
100
AcDbPolyline
 90
        2
 70
         0
 43
0.1
 10
46.2
 20
95.5
 10
46.1
 20
95.6
  0
LWPOLYLINE
  5
198
100
AcDbEntity
  8
ASSEMBLY_OUTLINES_TOP
100
AcDbPolyline
 90
        2
 70
         0
 43
0.1
 10
46.3
 20
95.5
 10
46.1
 20
95.7
  0
LWPOLYLINE
  5
199
100
AcDbEntity
  8
ASSEMBLY_OUTLINES_TOP
100
AcDbPolyline
 90
        2
 70
         0
 43
0.1
 10
46.4
 20
95.5
 10
46.1
 20
95.8
  0
LWPOLYLINE
  5
19A
100
AcDbEntity
  8
ASSEMBLY_OUTLINES_TOP
100
AcDbPolyline
 90
        2
 70
         0
 43
0.1
 10
46.5
 20
95.5
 10
46.1
 20
95.9
  0
LWPOLYLINE
  5
19B
100
AcDbEntity
  8
ASSEMBLY_OUTLINES_TOP
100
AcDbPolyline
 90
        2
 70
         0
 43
0.1
 10
46.6
 20
95.5
 10
46.1
 20
96.0
  0
LWPOLYLINE
  5
19C
100
AcDbEntity
  8
ASSEMBLY_OUTLINES_TOP
100
AcDbPolyline
 90
        2
 70
         0
 43
0.1
 10
46.7
 20
95.5
 10
46.1
 20
96.1
  0
LWPOLYLINE
  5
19D
100
AcDbEntity
  8
ASSEMBLY_OUTLINES_TOP
100
AcDbPolyline
 90
        4
 70
         1
 43
0.1
 10
61.25
 20
109.65
 10
61.25
 20
110.95
 10
64.15
 20
110.95
 10
64.15
 20
109.65
  0
LWPOLYLINE
  5
19E
100
AcDbEntity
  8
ASSEMBLY_OUTLINES_TOP
100
AcDbPolyline
 90
        4
 70
         1
 43
0.1
 10
53.85
 20
138.5
 10
53.85
 20
139.8
 10
56.65
 20
139.8
 10
56.65
 20
138.5
  0
LWPOLYLINE
  5
19F
100
AcDbEntity
  8
ASSEMBLY_OUTLINES_TOP
100
AcDbPolyline
 90
        4
 70
         1
 43
0.1
 10
70.0
 20
142.9
 10
70.0
 20
145.7
 10
71.3
 20
145.7
 10
71.3
 20
142.9
  0
LWPOLYLINE
  5
1A0
100
AcDbEntity
  8
ASSEMBLY_OUTLINES_TOP
100
AcDbPolyline
 90
        4
 70
         1
 43
0.1
 10
45.65
 20
104.45
 10
45.65
 20
107.35
 10
46.95
 20
107.35
 10
46.95
 20
104.45
  0
LWPOLYLINE
  5
1A1
100
AcDbEntity
  8
ASSEMBLY_OUTLINES_TOP
100
AcDbPolyline
 90
        4
 70
         1
 43
0.1
 10
58.65
 20
95.15
 10
58.65
 20
96.45
 10
61.55
 20
96.45
 10
61.55
 20
95.15
  0
LWPOLYLINE
  5
1A2
100
AcDbEntity
  8
ASSEMBLY_OUTLINES_TOP
100
AcDbPolyline
 90
        4
 70
         1
 43
0.1
 10
59.05
 20
90.55
 10
59.05
 20
93.45
 10
60.35
 20
93.45
 10
60.35
 20
90.55
  0
LWPOLYLINE
  5
1A3
100
AcDbEntity
  8
ASSEMBLY_OUTLINES_TOP
100
AcDbPolyline
 90
        4
 70
         1
 43
0.1
 10
62.35
 20
104.5
 10
62.35
 20
105.8
 10
65.15
 20
105.8
 10
65.15
 20
104.5
  0
LWPOLYLINE
  5
1A4
100
AcDbEntity
  8
ASSEMBLY_OUTLINES_TOP
100
AcDbPolyline
 90
        8
 70
         1
 43
0.1
 10
49.75
 20
150.0
 10
49.75
 20
146.99
 42
0.4142135624
 10
50.25
 20
146.49
 10
53.25
 20
146.49
 42
0.4142135624
 10
53.75
 20
146.99
 10
53.75
 20
150.0
 42
0.4142135624
 10
53.25
 20
150.5
 10
50.25
 20
150.5
 42
0.4142135624
  0
CIRCLE
  5
1A5
100
AcDbEntity
  8
ASSEMBLY_OUTLINES_TOP
100
AcDbCircle
 10
51.75
 20
149.525
 30
0.0
 40
0.475
  0
HATCH
  5
1A6
100
AcDbEntity
  8
ASSEMBLY_OUTLINES_TOP
100
AcDbHatch
 10
0.0
 20
0.0
 30
0.0
210
0.0
220
0.0
230
1.0
  2
SOLID
 70
         1
 71
         1
 91
        1
 92
        1
 93
        1
 72
         2
 10
51.75
 20
149.52500000000001
 40
0.475
 50
0.0
 51
360.0
 73
         1
 97
        1
330
1A5
 75
         0
 76
         1
 98
        1
 10
0.0
 20
0.0
  0
LWPOLYLINE
  5
1A7
100
AcDbEntity
  8
ASSEMBLY_OUTLINES_TOP
100
AcDbPolyline
 90
        4
 70
         1
 43
0.1
 10
52.15
 20
100.25
 10
52.15
 20
103.15
 10
53.45
 20
103.15
 10
53.45
 20
100.25
  0
LWPOLYLINE
  5
1A8
100
AcDbEntity
  8
ASSEMBLY_OUTLINES_TOP
100
AcDbPolyline
 90
        4
 70
         1
 43
0.1
 10
70.5
 20
104.8
 10
70.5
 20
106.1
 10
73.4
 20
106.1
 10
73.4
 20
104.8
  0
LWPOLYLINE
  5
1A9
100
AcDbEntity
  8
ASSEMBLY_OUTLINES_TOP
100
AcDbPolyline
 90
        4
 70
         1
 43
0.1
 10
44.75
 20
148.5
 10
44.75
 20
151.3
 10
46.05
 20
151.3
 10
46.05
 20
148.5
  0
LWPOLYLINE
  5
1AA
100
AcDbEntity
  8
ASSEMBLY_OUTLINES_TOP
100
AcDbPolyline
 90
        4
 70
         1
 43
0.1
 10
33.0
 20
85.5
 10
33.0
 20
89.5
 10
73.0
 20
89.5
 10
73.0
 20
85.5
  0
LWPOLYLINE
  5
1AB
100
AcDbEntity
  8
ASSEMBLY_OUTLINES_TOP
100
AcDbPolyline
 90
        4
 70
         1
 43
0.1
 10
38.0
 20
107.0
 10
38.0
 20
108.4
 10
41.0
 20
108.4
 10
41.0
 20
107.0
  0
LWPOLYLINE
  5
1AC
100
AcDbEntity
  8
ASSEMBLY_OUTLINES_TOP
100
AcDbPolyline
 90
        2
 70
         0
 43
0.1
 10
40.9
 20
108.4
 10
41.0
 20
108.3
  0
LWPOLYLINE
  5
1AD
100
AcDbEntity
  8
ASSEMBLY_OUTLINES_TOP
100
AcDbPolyline
 90
        2
 70
         0
 43
0.1
 10
40.8
 20
108.4
 10
41.0
 20
108.2
  0
LWPOLYLINE
  5
1AE
100
AcDbEntity
  8
ASSEMBLY_OUTLINES_TOP
100
AcDbPolyline
 90
        2
 70
         0
 43
0.1
 10
40.7
 20
108.4
 10
41.0
 20
108.1
  0
LWPOLYLINE
  5
1AF
100
AcDbEntity
  8
ASSEMBLY_OUTLINES_TOP
100
AcDbPolyline
 90
        2
 70
         0
 43
0.1
 10
40.6
 20
108.4
 10
41.0
 20
108.0
  0
LWPOLYLINE
  5
1B0
100
AcDbEntity
  8
ASSEMBLY_OUTLINES_TOP
100
AcDbPolyline
 90
        2
 70
         0
 43
0.1
 10
40.5
 20
108.4
 10
41.0
 20
107.9
  0
LWPOLYLINE
  5
1B1
100
AcDbEntity
  8
ASSEMBLY_OUTLINES_TOP
100
AcDbPolyline
 90
        2
 70
         0
 43
0.1
 10
40.4
 20
108.4
 10
41.0
 20
107.8
  0
LWPOLYLINE
  5
1B2
100
AcDbEntity
  8
ASSEMBLY_OUTLINES_TOP
100
AcDbPolyline
 90
        4
 70
         1
 43
0.1
 10
65.675
 20
104.125
 10
65.675
 20
107.275
 10
66.725
 20
107.275
 10
66.725
 20
104.125
  0
LWPOLYLINE
  5
1B3
100
AcDbEntity
  8
ASSEMBLY_OUTLINES_TOP
100
AcDbPolyline
 90
        2
 70
         0
 43
0.1
 10
65.675
 20
107.275
 10
66.725
 20
107.275
  0
LWPOLYLINE
  5
1B4
100
AcDbEntity
  8
ASSEMBLY_OUTLINES_TOP
100
AcDbPolyline
 90
        2
 70
         0
 43
0.1
 10
65.675
 20
107.175
 10
66.725
 20
107.175
  0
LWPOLYLINE
  5
1B5
100
AcDbEntity
  8
ASSEMBLY_OUTLINES_TOP
100
AcDbPolyline
 90
        2
 70
         0
 43
0.1
 10
65.675
 20
107.075
 10
66.725
 20
107.075
  0
LWPOLYLINE
  5
1B6
100
AcDbEntity
  8
ASSEMBLY_OUTLINES_TOP
100
AcDbPolyline
 90
        2
 70
         0
 43
0.1
 10
65.675
 20
106.975
 10
66.725
 20
106.975
  0
LWPOLYLINE
  5
1B7
100
AcDbEntity
  8
ASSEMBLY_OUTLINES_TOP
100
AcDbPolyline
 90
        2
 70
         0
 43
0.1
 10
65.675
 20
106.875
 10
66.725
 20
106.875
  0
LWPOLYLINE
  5
1B8
100
AcDbEntity
  8
ASSEMBLY_OUTLINES_TOP
100
AcDbPolyline
 90
        2
 70
         0
 43
0.1
 10
65.675
 20
106.775
 10
66.725
 20
106.775
  0
LWPOLYLINE
  5
1B9
100
AcDbEntity
  8
ASSEMBLY_OUTLINES_TOP
100
AcDbPolyline
 90
        2
 70
         0
 43
0.1
 10
65.675
 20
106.675
 10
66.725
 20
106.675
  0
LWPOLYLINE
  5
1BA
100
AcDbEntity
  8
ASSEMBLY_OUTLINES_TOP
100
AcDbPolyline
 90
        2
 70
         0
 43
0.1
 10
65.675
 20
106.575
 10
66.725
 20
106.575
  0
LWPOLYLINE
  5
1BB
100
AcDbEntity
  8
ASSEMBLY_OUTLINES_TOP
100
AcDbPolyline
 90
        4
 70
         1
 43
0.1
 10
41.5
 20
118.0
 10
41.5
 20
120.9
 10
42.8
 20
120.9
 10
42.8
 20
118.0
  0
LWPOLYLINE
  5
1BC
100
AcDbEntity
  8
ASSEMBLY_OUTLINES_TOP
100
AcDbPolyline
 90
        4
 70
         1
 43
0.1
 10
38.6
 20
118.0
 10
38.6
 20
120.9
 10
39.9
 20
120.9
 10
39.9
 20
118.0
  0
LWPOLYLINE
  5
1BD
100
AcDbEntity
  8
ASSEMBLY_OUTLINES_TOP
100
AcDbPolyline
 90
        8
 70
         1
 43
0.1
 10
37.9
 20
148.5
 10
37.9
 20
145.49
 42
0.4142135624
 10
38.4
 20
144.99
 10
41.4
 20
144.99
 42
0.4142135624
 10
41.9
 20
145.49
 10
41.9
 20
148.5
 42
0.4142135624
 10
41.4
 20
149.0
 10
38.4
 20
149.0
 42
0.4142135624
  0
CIRCLE
  5
1BE
100
AcDbEntity
  8
ASSEMBLY_OUTLINES_TOP
100
AcDbCircle
 10
39.9
 20
148.025
 30
0.0
 40
0.475
  0
HATCH
  5
1BF
100
AcDbEntity
  8
ASSEMBLY_OUTLINES_TOP
100
AcDbHatch
 10
0.0
 20
0.0
 30
0.0
210
0.0
220
0.0
230
1.0
  2
SOLID
 70
         1
 71
         1
 91
        1
 92
        1
 93
        1
 72
         2
 10
39.899999999999999
 20
148.02500000000001
 40
0.475
 50
0.0
 51
360.0
 73
         1
 97
        1
330
1BE
 75
         0
 76
         1
 98
        1
 10
0.0
 20
0.0
  0
LWPOLYLINE
  5
1C0
100
AcDbEntity
  8
ASSEMBLY_OUTLINES_TOP
100
AcDbPolyline
 90
        4
 70
         1
 43
0.1
 10
53.55
 20
96.55
 10
53.55
 20
97.85
 10
56.45
 20
97.85
 10
56.45
 20
96.55
  0
LWPOLYLINE
  5
1C1
100
AcDbEntity
  8
ASSEMBLY_OUTLINES_TOP
100
AcDbPolyline
 90
        4
 70
         1
 43
0.1
 10
48.2
 20
146.35
 10
48.2
 20
149.25
 10
49.5
 20
149.25
 10
49.5
 20
146.35
  0
LWPOLYLINE
  5
1C2
100
AcDbEntity
  8
ASSEMBLY_OUTLINES_TOP
100
AcDbPolyline
 90
        4
 70
         1
 43
0.1
 10
75.15
 20
115.95
 10
75.15
 20
117.25
 10
77.95
 20
117.25
 10
77.95
 20
115.95
  0
LWPOLYLINE
  5
1C3
100
AcDbEntity
  8
ASSEMBLY_OUTLINES_TOP
100
AcDbPolyline
 90
        4
 70
         1
 43
0.1
 10
49.7
 20
120.65
 10
49.7
 20
122.45
 10
53.0
 20
122.45
 10
53.0
 20
120.65
  0
LWPOLYLINE
  5
1C4
100
AcDbEntity
  8
ASSEMBLY_OUTLINES_TOP
100
AcDbPolyline
 90
        4
 70
         1
 43
0.1
 10
83.85
 20
103.5
 10
83.85
 20
106.3
 10
85.15
 20
106.3
 10
85.15
 20
103.5
  0
LWPOLYLINE
  5
1C5
100
AcDbEntity
  8
ASSEMBLY_OUTLINES_TOP
100
AcDbPolyline
 90
        4
 70
         1
 43
0.1
 10
38.65
 20
153.95
 10
38.65
 20
154.75
 10
39.85
 20
154.75
 10
39.85
 20
153.95
  0
LWPOLYLINE
  5
1C6
100
AcDbEntity
  8
ASSEMBLY_OUTLINES_TOP
100
AcDbPolyline
 90
        2
 70
         0
 43
0.1
 10
39.85
 20
154.75
 10
39.85
 20
153.95
  0
LWPOLYLINE
  5
1C7
100
AcDbEntity
  8
ASSEMBLY_OUTLINES_TOP
100
AcDbPolyline
 90
        2
 70
         0
 43
0.1
 10
39.75
 20
154.75
 10
39.75
 20
153.95
  0
LWPOLYLINE
  5
1C8
100
AcDbEntity
  8
ASSEMBLY_OUTLINES_TOP
100
AcDbPolyline
 90
        2
 70
         0
 43
0.1
 10
39.65
 20
154.75
 10
39.65
 20
153.95
  0
LWPOLYLINE
  5
1C9
100
AcDbEntity
  8
ASSEMBLY_OUTLINES_TOP
100
AcDbPolyline
 90
        2
 70
         0
 43
0.1
 10
39.55
 20
154.75
 10
39.55
 20
153.95
  0
LWPOLYLINE
  5
1CA
100
AcDbEntity
  8
ASSEMBLY_OUTLINES_TOP
100
AcDbPolyline
 90
        2
 70
         0
 43
0.1
 10
39.45
 20
154.75
 10
39.45
 20
153.95
  0
LWPOLYLINE
  5
1CB
100
AcDbEntity
  8
ASSEMBLY_OUTLINES_TOP
100
AcDbPolyline
 90
        2
 70
         0
 43
0.1
 10
39.35
 20
154.75
 10
39.35
 20
153.95
  0
LWPOLYLINE
  5
1CC
100
AcDbEntity
  8
ASSEMBLY_OUTLINES_TOP
100
AcDbPolyline
 90
        4
 70
         1
 43
0.1
 10
46.15
 20
115.65
 10
46.15
 20
116.95
 10
49.05
 20
116.95
 10
49.05
 20
115.65
  0
LWPOLYLINE
  5
1CD
100
AcDbEntity
  8
ASSEMBLY_OUTLINES_TOP
100
AcDbPolyline
 90
        4
 70
         1
 43
0.1
 10
79.6
 20
118.85
 10
79.6
 20
120.65
 10
82.9
 20
120.65
 10
82.9
 20
118.85
  0
LWPOLYLINE
  5
1CE
100
AcDbEntity
  8
ASSEMBLY_OUTLINES_TOP
100
AcDbPolyline
 90
        4
 70
         1
 43
0.1
 10
22.4
 20
93.85
 10
22.4
 20
106.35
 10
36.4
 20
106.35
 10
36.4
 20
93.85
  0
LWPOLYLINE
  5
1CF
100
AcDbEntity
  8
ASSEMBLY_OUTLINES_TOP
100
AcDbPolyline
 90
        4
 70
         1
 43
0.1
 10
50.45
 20
110.6
 10
50.45
 20
113.9
 10
52.25
 20
113.9
 10
52.25
 20
110.6
  0
LWPOLYLINE
  5
1D0
100
AcDbEntity
  8
ASSEMBLY_OUTLINES_TOP
100
AcDbPolyline
 90
        4
 70
         1
 43
0.1
 10
49.9
 20
123.3
 10
49.9
 20
124.6
 10
52.7
 20
124.6
 10
52.7
 20
123.3
  0
LWPOLYLINE
  5
1D1
100
AcDbEntity
  8
ASSEMBLY_OUTLINES_TOP
100
AcDbPolyline
 90
        4
 70
         1
 43
0.1
 10
50.6
 20
80.0
 10
50.6
 20
84.0
 10
76.6
 20
84.0
 10
76.6
 20
80.0
  0
LWPOLYLINE
  5
1D2
100
AcDbEntity
  8
ASSEMBLY_OUTLINES_TOP
100
AcDbPolyline
 90
        4
 70
         1
 43
0.1
 10
50.2
 20
127.55
 10
50.2
 20
130.45
 10
51.5
 20
130.45
 10
51.5
 20
127.55
  0
LWPOLYLINE
  5
1D3
100
AcDbEntity
  8
ASSEMBLY_OUTLINES_TOP
100
AcDbPolyline
 90
        4
 70
         1
 43
0.1
 10
39.3
 20
110.1
 10
39.3
 20
111.4
 10
42.1
 20
111.4
 10
42.1
 20
110.1
  0
LWPOLYLINE
  5
1D4
100
AcDbEntity
  8
ASSEMBLY_OUTLINES_TOP
100
AcDbPolyline
 90
        4
 70
         1
 43
0.1
 10
62.35
 20
103.0
 10
62.35
 20
104.3
 10
65.15
 20
104.3
 10
65.15
 20
103.0
  0
LWPOLYLINE
  5
1D5
100
AcDbEntity
  8
ASSEMBLY_OUTLINES_TOP
100
AcDbPolyline
 90
        4
 70
         1
 43
0.1
 10
43.15
 20
115.65
 10
43.15
 20
116.95
 10
46.05
 20
116.95
 10
46.05
 20
115.65
  0
LWPOLYLINE
  5
1D6
100
AcDbEntity
  8
ASSEMBLY_OUTLINES_TOP
100
AcDbPolyline
 90
        4
 70
         1
 43
0.1
 10
46.05
 20
98.35
 10
46.05
 20
99.65
 10
48.95
 20
99.65
 10
48.95
 20
98.35
  0
LWPOLYLINE
  5
1D7
100
AcDbEntity
  8
ASSEMBLY_OUTLINES_TOP
100
AcDbPolyline
 90
        4
 70
         1
 43
0.1
 10
79.9
 20
125.05
 10
79.9
 20
127.95
 10
81.2
 20
127.95
 10
81.2
 20
125.05
  0
LWPOLYLINE
  5
1D8
100
AcDbEntity
  8
ASSEMBLY_OUTLINES_TOP
100
AcDbPolyline
 90
        4
 70
         1
 43
0.1
 10
56.15
 20
153.6
 10
56.15
 20
156.4
 10
57.45
 20
156.4
 10
57.45
 20
153.6
  0
LWPOLYLINE
  5
1D9
100
AcDbEntity
  8
ASSEMBLY_OUTLINES_TOP
100
AcDbPolyline
 90
        4
 70
         1
 43
0.1
 10
75.9
 20
125.65
 10
75.9
 20
126.95
 10
78.7
 20
126.95
 10
78.7
 20
125.65
  0
LWPOLYLINE
  5
1DA
100
AcDbEntity
  8
ASSEMBLY_OUTLINES_TOP
100
AcDbPolyline
 90
        4
 70
         1
 43
0.1
 10
59.3
 20
156.3
 10
59.3
 20
157.6
 10
62.2
 20
157.6
 10
62.2
 20
156.3
  0
LWPOLYLINE
  5
1DB
100
AcDbEntity
  8
ASSEMBLY_OUTLINES_TOP
100
AcDbPolyline
 90
        4
 70
         1
 43
0.1
 10
35.45
 20
109.65
 10
35.45
 20
112.55
 10
36.75
 20
112.55
 10
36.75
 20
109.65
  0
LWPOLYLINE
  5
1DC
100
AcDbEntity
  8
ASSEMBLY_OUTLINES_TOP
100
AcDbPolyline
 90
        4
 70
         1
 43
0.1
 10
81.95
 20
114.05
 10
81.95
 20
115.35
 10
84.75
 20
115.35
 10
84.75
 20
114.05
  0
LWPOLYLINE
  5
1DD
100
AcDbEntity
  8
ASSEMBLY_OUTLINES_TOP
100
AcDbPolyline
 90
        8
 70
         1
 43
0.1
 10
42.9
 20
114.25
 10
42.9
 20
110.95
 42
0.4142135624
 10
43.9
 20
109.95
 10
47.1
 20
109.95
 42
0.4142135624
 10
48.1
 20
110.95
 10
48.1
 20
114.25
 42
0.4142135624
 10
47.1
 20
115.25
 10
43.9
 20
115.25
 42
0.4142135624
  0
LWPOLYLINE
  5
1DE
100
AcDbEntity
  8
ASSEMBLY_OUTLINES_TOP
100
AcDbPolyline
 90
        4
 70
         1
 43
0.1
 10
53.55
 20
98.05
 10
53.55
 20
99.35
 10
56.45
 20
99.35
 10
56.45
 20
98.05
  0
LWPOLYLINE
  5
1DF
100
AcDbEntity
  8
ASSEMBLY_OUTLINES_TOP
100
AcDbPolyline
 90
        4
 70
         1
 43
0.1
 10
75.9
 20
127.05
 10
75.9
 20
128.35
 10
78.7
 20
128.35
 10
78.7
 20
127.05
  0
LWPOLYLINE
  5
1E0
100
AcDbEntity
  8
ASSEMBLY_OUTLINES_TOP
100
AcDbPolyline
 90
        4
 70
         1
 43
0.1
 10
81.9
 20
115.5
 10
81.9
 20
116.8
 10
84.8
 20
116.8
 10
84.8
 20
115.5
  0
LWPOLYLINE
  5
1E1
100
AcDbEntity
  8
ASSEMBLY_OUTLINES_TOP
100
AcDbPolyline
 90
        4
 70
         1
 43
0.1
 10
44.4
 20
118.0
 10
44.4
 20
120.9
 10
45.7
 20
120.9
 10
45.7
 20
118.0
  0
LWPOLYLINE
  5
1E2
100
AcDbEntity
  8
ASSEMBLY_OUTLINES_TOP
100
AcDbPolyline
 90
        4
 70
         1
 43
0.1
 10
50.35
 20
90.2
 10
50.35
 20
93.0
 10
51.65
 20
93.0
 10
51.65
 20
90.2
  0
LWPOLYLINE
  5
1E3
100
AcDbEntity
  8
ASSEMBLY_OUTLINES_TOP
100
AcDbPolyline
 90
        4
 70
         1
 43
0.1
 10
44.7
 20
127.45
 10
44.7
 20
129.25
 10
48.0
 20
129.25
 10
48.0
 20
127.45
  0
LWPOLYLINE
  5
1E4
100
AcDbEntity
  8
ASSEMBLY_OUTLINES_TOP
100
AcDbPolyline
 90
        4
 70
         1
 43
0.1
 10
79.6
 20
122.1
 10
79.6
 20
123.4
 10
82.5
 20
123.4
 10
82.5
 20
122.1
  0
LWPOLYLINE
  5
1E5
100
AcDbEntity
  8
ASSEMBLY_OUTLINES_TOP
100
AcDbPolyline
 90
        4
 70
         1
 43
0.1
 10
38.45
 20
90.25
 10
38.45
 20
91.55
 10
41.35
 20
91.55
 10
41.35
 20
90.25
  0
LWPOLYLINE
  5
1E6
100
AcDbEntity
  8
ASSEMBLY_OUTLINES_TOP
100
AcDbPolyline
 90
        4
 70
         1
 43
0.1
 10
79.7
 20
115.35
 10
79.7
 20
118.65
 10
81.5
 20
118.65
 10
81.5
 20
115.35
  0
LWPOLYLINE
  5
1E7
100
AcDbEntity
  8
ASSEMBLY_OUTLINES_TOP
100
AcDbPolyline
 90
        4
 70
         1
 43
0.1
 10
71.1
 20
108.25
 10
71.1
 20
110.75
 10
74.3
 20
110.75
 10
74.3
 20
108.25
  0
LWPOLYLINE
  5
1E8
100
AcDbEntity
  8
ASSEMBLY_OUTLINES_TOP
100
AcDbPolyline
 90
        2
 70
         0
 43
0.1
 10
74.3
 20
110.65
 10
74.2
 20
110.75
  0
LWPOLYLINE
  5
1E9
100
AcDbEntity
  8
ASSEMBLY_OUTLINES_TOP
100
AcDbPolyline
 90
        2
 70
         0
 43
0.1
 10
74.3
 20
110.55
 10
74.1
 20
110.75
  0
LWPOLYLINE
  5
1EA
100
AcDbEntity
  8
ASSEMBLY_OUTLINES_TOP
100
AcDbPolyline
 90
        2
 70
         0
 43
0.1
 10
74.3
 20
110.45
 10
74.0
 20
110.75
  0
LWPOLYLINE
  5
1EB
100
AcDbEntity
  8
ASSEMBLY_OUTLINES_TOP
100
AcDbPolyline
 90
        2
 70
         0
 43
0.1
 10
74.3
 20
110.35
 10
73.9
 20
110.75
  0
LWPOLYLINE
  5
1EC
100
AcDbEntity
  8
ASSEMBLY_OUTLINES_TOP
100
AcDbPolyline
 90
        2
 70
         0
 43
0.1
 10
74.3
 20
110.25
 10
73.8
 20
110.75
  0
LWPOLYLINE
  5
1ED
100
AcDbEntity
  8
ASSEMBLY_OUTLINES_TOP
100
AcDbPolyline
 90
        2
 70
         0
 43
0.1
 10
74.3
 20
110.15
 10
73.7
 20
110.75
  0
LWPOLYLINE
  5
1EE
100
AcDbEntity
  8
ASSEMBLY_OUTLINES_TOP
100
AcDbPolyline
 90
        2
 70
         0
 43
0.1
 10
74.3
 20
110.05
 10
73.6
 20
110.75
  0
LWPOLYLINE
  5
1EF
100
AcDbEntity
  8
ASSEMBLY_OUTLINES_TOP
100
AcDbPolyline
 90
        2
 70
         0
 43
0.1
 10
74.3
 20
109.95
 10
73.5
 20
110.75
  0
LWPOLYLINE
  5
1F0
100
AcDbEntity
  8
ASSEMBLY_OUTLINES_TOP
100
AcDbPolyline
 90
        2
 70
         0
 43
0.1
 10
74.3
 20
109.85
 10
73.4
 20
110.75
  0
LWPOLYLINE
  5
1F1
100
AcDbEntity
  8
ASSEMBLY_OUTLINES_TOP
100
AcDbPolyline
 90
        2
 70
         0
 43
0.1
 10
74.3
 20
109.75
 10
73.3
 20
110.75
  0
LWPOLYLINE
  5
1F2
100
AcDbEntity
  8
ASSEMBLY_OUTLINES_TOP
100
AcDbPolyline
 90
        4
 70
         1
 43
0.1
 10
69.7
 20
135.75
 10
69.7
 20
138.55
 10
71.0
 20
138.55
 10
71.0
 20
135.75
  0
LWPOLYLINE
  5
1F3
100
AcDbEntity
  8
ASSEMBLY_OUTLINES_TOP
100
AcDbPolyline
 90
        4
 70
         1
 43
0.1
 10
22.39
 20
128.03
 10
22.39
 20
144.29
 10
43.5
 20
144.29
 10
43.5
 20
128.03
  0
LWPOLYLINE
  5
1F4
100
AcDbEntity
  8
ASSEMBLY_OUTLINES_TOP
100
AcDbPolyline
 90
        4
 70
         1
 43
0.1
 10
80.925
 20
103.375
 10
80.925
 20
106.425
 10
82.675
 20
106.425
 10
82.675
 20
103.375
  0
LWPOLYLINE
  5
1F5
100
AcDbEntity
  8
ASSEMBLY_OUTLINES_TOP
100
AcDbPolyline
 90
        2
 70
         0
 43
0.1
 10
80.925
 20
106.325
 10
81.025
 20
106.425
  0
LWPOLYLINE
  5
1F6
100
AcDbEntity
  8
ASSEMBLY_OUTLINES_TOP
100
AcDbPolyline
 90
        2
 70
         0
 43
0.1
 10
80.925
 20
106.225
 10
81.125
 20
106.425
  0
LWPOLYLINE
  5
1F7
100
AcDbEntity
  8
ASSEMBLY_OUTLINES_TOP
100
AcDbPolyline
 90
        2
 70
         0
 43
0.1
 10
80.925
 20
106.125
 10
81.225
 20
106.425
  0
LWPOLYLINE
  5
1F8
100
AcDbEntity
  8
ASSEMBLY_OUTLINES_TOP
100
AcDbPolyline
 90
        2
 70
         0
 43
0.1
 10
80.925
 20
106.025
 10
81.325
 20
106.425
  0
LWPOLYLINE
  5
1F9
100
AcDbEntity
  8
ASSEMBLY_OUTLINES_TOP
100
AcDbPolyline
 90
        2
 70
         0
 43
0.1
 10
80.925
 20
105.925
 10
81.425
 20
106.425
  0
LWPOLYLINE
  5
1FA
100
AcDbEntity
  8
ASSEMBLY_OUTLINES_TOP
100
AcDbPolyline
 90
        2
 70
         0
 43
0.1
 10
80.925
 20
105.825
 10
81.525
 20
106.425
  0
TEXT
  5
1FC
100
AcDbEntity
  8
ASSEMBLY_REF_DES_TOP
100
AcDbText
 10
48.3818
 20
131.45455
 30
0.0
 40
0.7
  1
C35
  7
GOST_TYPE_B
 72
         1
 11
49.1
 21
131.8
 31
0.0
100
AcDbText
 73
         2
  0
TEXT
  5
1FD
100
AcDbEntity
  8
ASSEMBLY_REF_DES_TOP
100
AcDbText
 10
27.50295
 20
85.70455
 30
0.0
 40
0.7
  1
X7
  7
GOST_TYPE_B
 72
         1
 11
28.05
 21
86.05
 31
0.0
100
AcDbText
 73
         2
  0
TEXT
  5
1FE
100
AcDbEntity
  8
ASSEMBLY_REF_DES_TOP
100
AcDbText
 10
77.50455
 20
87.6368
 30
0.0
 40
0.7
  1
R85
 50
270.0
  7
GOST_TYPE_B
 72
         1
 11
77.85
 21
86.85
 31
0.0
100
AcDbText
 73
         2
  0
TEXT
  5
1FF
100
AcDbEntity
  8
ASSEMBLY_REF_DES_TOP
100
AcDbText
 10
81.3496
 20
111.44455
 30
0.0
 40
0.7
  1
DA5
  7
GOST_TYPE_B
 72
         1
 11
82.17
 21
111.79
 31
0.0
100
AcDbText
 73
         2
  0
TEXT
  5
200
100
AcDbEntity
  8
ASSEMBLY_REF_DES_TOP
100
AcDbText
 10
82.92995
 20
87.90455
 30
0.0
 40
0.7
  1
R84
  7
GOST_TYPE_B
 72
         1
 11
83.75
 21
88.25
 31
0.0
100
AcDbText
 73
         2
  0
TEXT
  5
201
100
AcDbEntity
  8
ASSEMBLY_REF_DES_TOP
100
AcDbText
 10
54.99785
 20
137.00455
 30
0.0
 40
0.7
  1
R22
  7
GOST_TYPE_B
 72
         1
 11
55.75
 21
137.35
 31
0.0
100
AcDbText
 73
         2
  0
TEXT
  5
202
100
AcDbEntity
  8
ASSEMBLY_REF_DES_TOP
100
AcDbText
 10
50.36495
 20
140.8227
 30
0.0
 40
0.7
  1
DD3
  7
GOST_TYPE_B
 72
         1
 11
51.15105
 21
141.16815
 31
0.0
100
AcDbText
 73
         2
  0
TEXT
  5
203
100
AcDbEntity
  8
ASSEMBLY_REF_DES_TOP
100
AcDbText
 10
43.30455
 20
120.2211
 30
0.0
 40
0.7
  1
R44
 50
270.0
  7
GOST_TYPE_B
 72
         1
 11
43.65
 21
119.4
 31
0.0
100
AcDbText
 73
         2
  0
TEXT
  5
204
100
AcDbEntity
  8
ASSEMBLY_REF_DES_TOP
100
AcDbText
 10
53.59785
 20
134.90455
 30
0.0
 40
0.7
  1
R25
  7
GOST_TYPE_B
 72
         1
 11
54.35
 21
135.25
 31
0.0
100
AcDbText
 73
         2
  0
TEXT
  5
205
100
AcDbEntity
  8
ASSEMBLY_REF_DES_TOP
100
AcDbText
 10
77.381176
 20
148.971824
 30
0.0
 40
0.7
  1
DD2
  7
GOST_TYPE_B
 72
         1
 11
78.167276
 21
149.317274
 31
0.0
100
AcDbText
 73
         2
  0
TEXT
  5
206
100
AcDbEntity
  8
ASSEMBLY_REF_DES_TOP
100
AcDbText
 10
46.50455
 20
102.4025
 30
0.0
 40
0.7
  1
R70
 50
270.0
  7
GOST_TYPE_B
 72
         1
 11
46.85
 21
101.65
 31
0.0
100
AcDbText
 73
         2
  0
TEXT
  5
207
100
AcDbEntity
  8
ASSEMBLY_REF_DES_TOP
100
AcDbText
 10
84.00455
 20
123.7525
 30
0.0
 40
0.7
  1
R37
 50
270.0
  7
GOST_TYPE_B
 72
         1
 11
84.35
 21
123.0
 31
0.0
100
AcDbText
 73
         2
  0
TEXT
  5
208
100
AcDbEntity
  8
ASSEMBLY_REF_DES_TOP
100
AcDbText
 10
72.00455
 20
152.0496
 30
0.0
 40
0.7
  1
C12
 50
270.0
  7
GOST_TYPE_B
 72
         1
 11
72.35
 21
151.4
 31
0.0
100
AcDbText
 73
         2
  0
TEXT
  5
209
100
AcDbEntity
  8
ASSEMBLY_REF_DES_TOP
100
AcDbText
 10
82.69785
 20
117.30455
 30
0.0
 40
0.7
  1
R50
  7
GOST_TYPE_B
 72
         1
 11
83.45
 21
117.65
 31
0.0
100
AcDbText
 73
         2
  0
TEXT
  5
20A
100
AcDbEntity
  8
ASSEMBLY_REF_DES_TOP
100
AcDbText
 10
74.3818
 20
141.35455
 30
0.0
 40
0.7
  1
C30
  7
GOST_TYPE_B
 72
         1
 11
75.1
 21
141.7
 31
0.0
100
AcDbText
 73
         2
  0
TEXT
  5
20B
100
AcDbEntity
  8
ASSEMBLY_REF_DES_TOP
100
AcDbText
 10
84.00455
 20
144.8025
 30
0.0
 40
0.7
  1
C28
 50
270.0
  7
GOST_TYPE_B
 72
         1
 11
84.35
 21
144.05
 31
0.0
100
AcDbText
 73
         2
  0
TEXT
  5
20C
100
AcDbEntity
  8
ASSEMBLY_REF_DES_TOP
100
AcDbText
 10
52.01645
 20
136.80455
 30
0.0
 40
0.7
  1
R21
  7
GOST_TYPE_B
 72
         1
 11
52.7
 21
137.15
 31
0.0
100
AcDbText
 73
         2
  0
TEXT
  5
20D
100
AcDbEntity
  8
ASSEMBLY_REF_DES_TOP
100
AcDbText
 10
48.50455
 20
151.7153
 30
0.0
 40
0.7
  1
R11
 50
270.0
  7
GOST_TYPE_B
 72
         1
 11
48.85
 21
151.1
 31
0.0
100
AcDbText
 73
         2
  0
TEXT
  5
20E
100
AcDbEntity
  8
ASSEMBLY_REF_DES_TOP
100
AcDbText
 10
39.84565
 20
112.60455
 30
0.0
 40
0.7
  1
DA4
  7
GOST_TYPE_B
 72
         1
 11
40.7
 21
112.95
 31
0.0
100
AcDbText
 73
         2
  0
TEXT
  5
20F
100
AcDbEntity
  8
ASSEMBLY_REF_DES_TOP
100
AcDbText
 10
68.45455
 20
152.2496
 30
0.0
 40
0.7
  1
C10
 50
270.0
  7
GOST_TYPE_B
 72
         1
 11
68.8
 21
151.6
 31
0.0
100
AcDbText
 73
         2
  0
TEXT
  5
210
100
AcDbEntity
  8
ASSEMBLY_REF_DES_TOP
100
AcDbText
 10
48.00455
 20
102.3339
 30
0.0
 40
0.7
  1
R71
 50
270.0
  7
GOST_TYPE_B
 72
         1
 11
48.35
 21
101.65
 31
0.0
100
AcDbText
 73
         2
  0
TEXT
  5
211
100
AcDbEntity
  8
ASSEMBLY_REF_DES_TOP
100
AcDbText
 10
38.73725
 20
155.30455
 30
0.0
 40
0.7
  1
R7
  7
GOST_TYPE_B
 72
         1
 11
39.25
 21
155.65
 31
0.0
100
AcDbText
 73
         2
  0
TEXT
  5
212
100
AcDbEntity
  8
ASSEMBLY_REF_DES_TOP
100
AcDbText
 10
77.99785
 20
129.10455
 30
0.0
 40
0.7
  1
C38
  7
GOST_TYPE_B
 72
         1
 11
78.75
 21
129.45
 31
0.0
100
AcDbText
 73
         2
  0
TEXT
  5
213
100
AcDbEntity
  8
ASSEMBLY_REF_DES_TOP
100
AcDbText
 10
68.45455
 20
145.1682
 30
0.0
 40
0.7
  1
C25
 50
270.0
  7
GOST_TYPE_B
 72
         1
 11
68.8
 21
144.45
 31
0.0
100
AcDbText
 73
         2
  0
TEXT
  5
214
100
AcDbEntity
  8
ASSEMBLY_REF_DES_TOP
100
AcDbText
 10
83.80455
 20
140.9839
 30
0.0
 40
0.7
  1
R19
 50
270.0
  7
GOST_TYPE_B
 72
         1
 11
84.15
 21
140.3
 31
0.0
100
AcDbText
 73
         2
  0
TEXT
  5
215
100
AcDbEntity
  8
ASSEMBLY_REF_DES_TOP
100
AcDbText
 10
39.75455
 20
104.4182
 30
0.0
 40
0.7
  1
C77
 50
270.0
  7
GOST_TYPE_B
 72
         1
 11
40.1
 21
103.7
 31
0.0
100
AcDbText
 73
         2
  0
TEXT
  5
216
100
AcDbEntity
  8
ASSEMBLY_REF_DES_TOP
100
AcDbText
 10
59.39785
 20
134.90455
 30
0.0
 40
0.7
  1
R27
  7
GOST_TYPE_B
 72
         1
 11
60.15
 21
135.25
 31
0.0
100
AcDbText
 73
         2
  0
TEXT
  5
217
100
AcDbEntity
  8
ASSEMBLY_REF_DES_TOP
100
AcDbText
 10
49.00455
 20
112.9682
 30
0.0
 40
0.7
  1
C59
 50
270.0
  7
GOST_TYPE_B
 72
         1
 11
49.35
 21
112.25
 31
0.0
100
AcDbText
 73
         2
  0
TEXT
  5
218
100
AcDbEntity
  8
ASSEMBLY_REF_DES_TOP
100
AcDbText
 10
46.45455
 20
92.3525
 30
0.0
 40
0.7
  1
C82
 50
270.0
  7
GOST_TYPE_B
 72
         1
 11
46.8
 21
91.6
 31
0.0
100
AcDbText
 73
         2
  0
TEXT
  5
219
100
AcDbEntity
  8
ASSEMBLY_REF_DES_TOP
100
AcDbText
 10
63.02995
 20
122.85455
 30
0.0
 40
0.7
  1
DD4
  7
GOST_TYPE_B
 72
         1
 11
63.85
 21
123.2
 31
0.0
100
AcDbText
 73
         2
  0
TEXT
  5
21A
100
AcDbEntity
  8
ASSEMBLY_REF_DES_TOP
100
AcDbText
 10
71.54785
 20
106.50455
 30
0.0
 40
0.7
  1
R67
  7
GOST_TYPE_B
 72
         1
 11
72.3
 21
106.85
 31
0.0
100
AcDbText
 73
         2
  0
TEXT
  5
21B
100
AcDbEntity
  8
ASSEMBLY_REF_DES_TOP
100
AcDbText
 10
81.9818
 20
137.55455
 30
0.0
 40
0.7
  1
C32
  7
GOST_TYPE_B
 72
         1
 11
82.7
 21
137.9
 31
0.0
100
AcDbText
 73
         2
  0
TEXT
  5
21C
100
AcDbEntity
  8
ASSEMBLY_REF_DES_TOP
100
AcDbText
 10
49.50455
 20
102.4025
 30
0.0
 40
0.7
  1
R72
 50
270.0
  7
GOST_TYPE_B
 72
         1
 11
49.85
 21
101.65
 31
0.0
100
AcDbText
 73
         2
  0
TEXT
  5
21D
100
AcDbEntity
  8
ASSEMBLY_REF_DES_TOP
100
AcDbText
 10
82.10455
 20
108.7025
 30
0.0
 40
0.7
  1
R57
 50
270.0
  7
GOST_TYPE_B
 72
         1
 11
82.45
 21
107.95
 31
0.0
100
AcDbText
 73
         2
  0
TEXT
  5
21E
100
AcDbEntity
  8
ASSEMBLY_REF_DES_TOP
100
AcDbText
 10
27.65
 20
153.2091
 30
0.0
 40
0.7
  1
X1
  7
GOST_TYPE_B
 11
27.65
 21
153.9
 31
0.0
100
AcDbText
 73
         3
  0
TEXT
  5
21F
100
AcDbEntity
  8
ASSEMBLY_REF_DES_TOP
100
AcDbText
 10
65.15455
 20
111.3682
 30
0.0
 40
0.7
  1
C66
 50
270.0
  7
GOST_TYPE_B
 72
         1
 11
65.5
 21
110.65
 31
0.0
100
AcDbText
 73
         2
  0
TEXT
  5
220
100
AcDbEntity
  8
ASSEMBLY_REF_DES_TOP
100
AcDbText
 10
55.15455
 20
110.8182
 30
0.0
 40
0.7
  1
C62
 50
270.0
  7
GOST_TYPE_B
 72
         1
 11
55.5
 21
110.1
 31
0.0
100
AcDbText
 73
         2
  0
TEXT
  5
221
100
AcDbEntity
  8
ASSEMBLY_REF_DES_TOP
100
AcDbText
 10
50.64565
 20
95.85455
 30
0.0
 40
0.7
  1
VT4
  7
GOST_TYPE_B
 72
         1
 11
51.5
 21
96.2
 31
0.0
100
AcDbText
 73
         2
  0
TEXT
  5
222
100
AcDbEntity
  8
ASSEMBLY_REF_DES_TOP
100
AcDbText
 10
42.90455
 20
100.03135
 30
0.0
 40
0.7
  1
X4
 50
270.0
  7
GOST_TYPE_B
 72
         1
 11
43.25
 21
99.45
 31
0.0
100
AcDbText
 73
         2
  0
TEXT
  5
223
100
AcDbEntity
  8
ASSEMBLY_REF_DES_TOP
100
AcDbText
 10
72.00455
 20
148.5996
 30
0.0
 40
0.7
  1
C19
 50
270.0
  7
GOST_TYPE_B
 72
         1
 11
72.35
 21
147.95
 31
0.0
100
AcDbText
 73
         2
  0
TEXT
  5
224
100
AcDbEntity
  8
ASSEMBLY_REF_DES_TOP
100
AcDbText
 10
43.45455
 20
150.6839
 30
0.0
 40
0.7
  1
R10
 50
270.0
  7
GOST_TYPE_B
 72
         1
 11
43.8
 21
150.0
 31
0.0
100
AcDbText
 73
         2
  0
TEXT
  5
225
100
AcDbEntity
  8
ASSEMBLY_REF_DES_TOP
100
AcDbText
 10
51.70455
 20
106.6025
 30
0.0
 40
0.7
  1
R63
 50
270.0
  7
GOST_TYPE_B
 72
         1
 11
52.05
 21
105.85
 31
0.0
100
AcDbText
 73
         2
  0
TEXT
  5
226
100
AcDbEntity
  8
ASSEMBLY_REF_DES_TOP
100
AcDbText
 10
47.90455
 20
134.9025
 30
0.0
 40
0.7
  1
R23
 50
270.0
  7
GOST_TYPE_B
 72
         1
 11
48.25
 21
134.15
 31
0.0
100
AcDbText
 73
         2
  0
TEXT
  5
227
100
AcDbEntity
  8
ASSEMBLY_REF_DES_TOP
100
AcDbText
 10
83.95455
 20
155.0288
 30
0.0
 40
0.7
  1
C5
 50
270.0
  7
GOST_TYPE_B
 72
         1
 11
84.3
 21
154.55
 31
0.0
100
AcDbText
 73
         2
  0
TEXT
  5
228
100
AcDbEntity
  8
ASSEMBLY_REF_DES_TOP
100
AcDbText
 10
59.34785
 20
93.95455
 30
0.0
 40
0.7
  1
C80
  7
GOST_TYPE_B
 72
         1
 11
60.1
 21
94.3
 31
0.0
100
AcDbText
 73
         2
  0
TEXT
  5
229
100
AcDbEntity
  8
ASSEMBLY_REF_DES_TOP
100
AcDbText
 10
56.75455
 20
110.8182
 30
0.0
 40
0.7
  1
C63
 50
270.0
  7
GOST_TYPE_B
 72
         1
 11
57.1
 21
110.1
 31
0.0
100
AcDbText
 73
         2
  0
TEXT
  5
22A
100
AcDbEntity
  8
ASSEMBLY_REF_DES_TOP
100
AcDbText
 10
34.89785
 20
126.60455
 30
0.0
 40
0.7
  1
R33
  7
GOST_TYPE_B
 72
         1
 11
35.65
 21
126.95
 31
0.0
100
AcDbText
 73
         2
  0
TEXT
  5
22B
100
AcDbEntity
  8
ASSEMBLY_REF_DES_TOP
100
AcDbText
 10
47.85455
 20
92.3525
 30
0.0
 40
0.7
  1
C83
 50
270.0
  7
GOST_TYPE_B
 72
         1
 11
48.2
 21
91.6
 31
0.0
100
AcDbText
 73
         2
  0
TEXT
  5
22C
100
AcDbEntity
  8
ASSEMBLY_REF_DES_TOP
100
AcDbText
 10
40.4318
 20
116.00455
 30
0.0
 40
0.7
  1
C53
  7
GOST_TYPE_B
 72
         1
 11
41.15
 21
116.35
 31
0.0
100
AcDbText
 73
         2
  0
TEXT
  5
22D
100
AcDbEntity
  8
ASSEMBLY_REF_DES_TOP
100
AcDbText
 10
82.43725
 20
156.55455
 30
0.0
 40
0.7
  1
R6
  7
GOST_TYPE_B
 72
         1
 11
82.95
 21
156.9
 31
0.0
100
AcDbText
 73
         2
  0
TEXT
  5
22E
100
AcDbEntity
  8
ASSEMBLY_REF_DES_TOP
100
AcDbText
 10
46.80455
 20
150.4839
 30
0.0
 40
0.7
  1
C14
 50
270.0
  7
GOST_TYPE_B
 72
         1
 11
47.15
 21
149.8
 31
0.0
100
AcDbText
 73
         2
  0
TEXT
  5
22F
100
AcDbEntity
  8
ASSEMBLY_REF_DES_TOP
100
AcDbText
 10
41.65455
 20
152.8788
 30
0.0
 40
0.7
  1
C6
 50
270.0
  7
GOST_TYPE_B
 72
         1
 11
42.0
 21
152.4
 31
0.0
100
AcDbText
 73
         2
  0
TEXT
  5
230
100
AcDbEntity
  8
ASSEMBLY_REF_DES_TOP
100
AcDbText
 10
58.40455
 20
106.9025
 30
0.0
 40
0.7
  1
R65
 50
270.0
  7
GOST_TYPE_B
 72
         1
 11
58.75
 21
106.15
 31
0.0
100
AcDbText
 73
         2
  0
TEXT
  5
231
100
AcDbEntity
  8
ASSEMBLY_REF_DES_TOP
100
AcDbText
 10
38.480109
 20
151.154041
 30
0.0
 40
0.7
  1
DA2
  7
GOST_TYPE_B
 72
         1
 11
39.300509
 21
151.499491
 31
0.0
100
AcDbText
 73
         2
  0
TEXT
  5
232
100
AcDbEntity
  8
ASSEMBLY_REF_DES_TOP
100
AcDbText
 10
40.87126
 20
82.276148
 30
0.0
 40
0.7
  1
X10
  7
GOST_TYPE_B
 72
         2
 11
42.30696
 21
82.276148
 31
0.0
100
AcDbText
 73
         1
  0
TEXT
  5
233
100
AcDbEntity
  8
ASSEMBLY_REF_DES_TOP
100
AcDbText
 10
76.29785
 20
131.15455
 30
0.0
 40
0.7
  1
R30
  7
GOST_TYPE_B
 72
         1
 11
77.05
 21
131.5
 31
0.0
100
AcDbText
 73
         2
  0
TEXT
  5
234
100
AcDbEntity
  8
ASSEMBLY_REF_DES_TOP
100
AcDbText
 10
72.00455
 20
155.0631
 30
0.0
 40
0.7
  1
C4
 50
270.0
  7
GOST_TYPE_B
 72
         1
 11
72.35
 21
154.55
 31
0.0
100
AcDbText
 73
         2
  0
TEXT
  5
235
100
AcDbEntity
  8
ASSEMBLY_REF_DES_TOP
100
AcDbText
 10
49.0818
 20
144.35455
 30
0.0
 40
0.7
  1
C23
  7
GOST_TYPE_B
 72
         1
 11
49.8
 21
144.7
 31
0.0
100
AcDbText
 73
         2
  0
TEXT
  5
236
100
AcDbEntity
  8
ASSEMBLY_REF_DES_TOP
100
AcDbText
 10
84.00455
 20
120.7368
 30
0.0
 40
0.7
  1
R40
 50
270.0
  7
GOST_TYPE_B
 72
         1
 11
84.35
 21
119.95
 31
0.0
100
AcDbText
 73
         2
  0
TEXT
  5
237
100
AcDbEntity
  8
ASSEMBLY_REF_DES_TOP
100
AcDbText
 10
75.05455
 20
109.8182
 30
0.0
 40
0.7
  1
C72
 50
270.0
  7
GOST_TYPE_B
 72
         1
 11
75.4
 21
109.1
 31
0.0
100
AcDbText
 73
         2
  0
TEXT
  5
238
100
AcDbEntity
  8
ASSEMBLY_REF_DES_TOP
100
AcDbText
 10
49.50455
 20
134.9368
 30
0.0
 40
0.7
  1
R24
 50
270.0
  7
GOST_TYPE_B
 72
         1
 11
49.85
 21
134.15
 31
0.0
100
AcDbText
 73
         2
  0
TEXT
  5
239
100
AcDbEntity
  8
ASSEMBLY_REF_DES_TOP
100
AcDbText
 10
75.40455
 20
134.8025
 30
0.0
 40
0.7
  1
C34
 50
270.0
  7
GOST_TYPE_B
 72
         1
 11
75.75
 21
134.05
 31
0.0
100
AcDbText
 73
         2
  0
TEXT
  5
23A
100
AcDbEntity
  8
ASSEMBLY_REF_DES_TOP
100
AcDbText
 10
70.843707
 20
96.213793
 30
0.0
 40
0.7
  1
X5
  7
GOST_TYPE_B
 72
         1
 11
71.390757
 21
96.559243
 31
0.0
100
AcDbText
 73
         2
  0
TEXT
  5
23B
100
AcDbEntity
  8
ASSEMBLY_REF_DES_TOP
100
AcDbText
 10
62.3318
 20
106.40455
 30
0.0
 40
0.7
  1
C73
  7
GOST_TYPE_B
 72
         1
 11
63.05
 21
106.75
 31
0.0
100
AcDbText
 73
         2
  0
TEXT
  5
23C
100
AcDbEntity
  8
ASSEMBLY_REF_DES_TOP
100
AcDbText
 10
76.6139
 20
124.35455
 30
0.0
 40
0.7
  1
C44
  7
GOST_TYPE_B
 72
         1
 11
77.4
 21
124.7
 31
0.0
100
AcDbText
 73
         2
  0
TEXT
  5
23D
100
AcDbEntity
  8
ASSEMBLY_REF_DES_TOP
100
AcDbText
 10
53.0325
 20
144.95455
 30
0.0
 40
0.7
  1
R14
  7
GOST_TYPE_B
 72
         1
 11
53.75
 21
145.3
 31
0.0
100
AcDbText
 73
         2
  0
TEXT
  5
23E
100
AcDbEntity
  8
ASSEMBLY_REF_DES_TOP
100
AcDbText
 10
42.65455
 20
147.1496
 30
0.0
 40
0.7
  1
C21
 50
270.0
  7
GOST_TYPE_B
 72
         1
 11
43.0
 21
146.5
 31
0.0
100
AcDbText
 73
         2
  0
TEXT
  5
23F
100
AcDbEntity
  8
ASSEMBLY_REF_DES_TOP
100
AcDbText
 10
47.45455
 20
106.6025
 30
0.0
 40
0.7
  1
R60
 50
270.0
  7
GOST_TYPE_B
 72
         1
 11
47.8
 21
105.85
 31
0.0
100
AcDbText
 73
         2
  0
TEXT
  5
240
100
AcDbEntity
  8
ASSEMBLY_REF_DES_TOP
100
AcDbText
 10
77.8296
 20
109.40455
 30
0.0
 40
0.7
  1
VD2
  7
GOST_TYPE_B
 72
         1
 11
78.65
 21
109.75
 31
0.0
100
AcDbText
 73
         2
  0
TEXT
  5
241
100
AcDbEntity
  8
ASSEMBLY_REF_DES_TOP
100
AcDbText
 10
61.0639
 20
97.10455
 30
0.0
 40
0.7
  1
R80
  7
GOST_TYPE_B
 72
         1
 11
61.85
 21
97.45
 31
0.0
100
AcDbText
 73
         2
  0
TEXT
  5
242
100
AcDbEntity
  8
ASSEMBLY_REF_DES_TOP
100
AcDbText
 10
56.49785
 20
134.90455
 30
0.0
 40
0.7
  1
R26
  7
GOST_TYPE_B
 72
         1
 11
57.25
 21
135.25
 31
0.0
100
AcDbText
 73
         2
  0
TEXT
  5
243
100
AcDbEntity
  8
ASSEMBLY_REF_DES_TOP
100
AcDbText
 10
69.60455
 20
109.7496
 30
0.0
 40
0.7
  1
C71
 50
270.0
  7
GOST_TYPE_B
 72
         1
 11
69.95
 21
109.1
 31
0.0
100
AcDbText
 73
         2
  0
TEXT
  5
244
100
AcDbEntity
  8
ASSEMBLY_REF_DES_TOP
100
AcDbText
 10
50.69785
 20
98.60455
 30
0.0
 40
0.7
  1
R76
  7
GOST_TYPE_B
 72
         1
 11
51.45
 21
98.95
 31
0.0
100
AcDbText
 73
         2
  0
TEXT
  5
245
100
AcDbEntity
  8
ASSEMBLY_REF_DES_TOP
100
AcDbText
 10
51.95455
 20
129.8275
 30
0.0
 40
0.7
  1
R32
 50
270.0
  7
GOST_TYPE_B
 72
         1
 11
52.3
 21
129.075
 31
0.0
100
AcDbText
 73
         2
  0
TEXT
  5
246
100
AcDbEntity
  8
ASSEMBLY_REF_DES_TOP
100
AcDbText
 10
60.9639
 20
98.50455
 30
0.0
 40
0.7
  1
R78
  7
GOST_TYPE_B
 72
         1
 11
61.75
 21
98.85
 31
0.0
100
AcDbText
 73
         2
  0
TEXT
  5
247
100
AcDbEntity
  8
ASSEMBLY_REF_DES_TOP
100
AcDbText
 10
48.70455
 20
129.8182
 30
0.0
 40
0.7
  1
C37
 50
270.0
  7
GOST_TYPE_B
 72
         1
 11
49.05
 21
129.1
 31
0.0
100
AcDbText
 73
         2
  0
TEXT
  5
248
100
AcDbEntity
  8
ASSEMBLY_REF_DES_TOP
100
AcDbText
 10
28.511175
 20
117.946325
 30
0.0
 40
0.7
  1
X2
  7
GOST_TYPE_B
 72
         1
 11
29.058225
 21
118.291775
 31
0.0
100
AcDbText
 73
         2
  0
TEXT
  5
249
100
AcDbEntity
  8
ASSEMBLY_REF_DES_TOP
100
AcDbText
 10
36.10455
 20
125.3025
 30
0.0
 40
0.7
  1
R35
 50
270.0
  7
GOST_TYPE_B
 72
         1
 11
36.45
 21
124.55
 31
0.0
100
AcDbText
 73
         2
  0
TEXT
  5
24A
100
AcDbEntity
  8
ASSEMBLY_REF_DES_TOP
100
AcDbText
 10
34.3796
 20
91.05455
 30
0.0
 40
0.7
  1
VD3
  7
GOST_TYPE_B
 72
         1
 11
35.2
 21
91.4
 31
0.0
100
AcDbText
 73
         2
  0
TEXT
  5
24B
100
AcDbEntity
  8
ASSEMBLY_REF_DES_TOP
100
AcDbText
 10
60.10455
 20
111.0182
 30
0.0
 40
0.7
  1
C65
 50
270.0
  7
GOST_TYPE_B
 72
         1
 11
60.45
 21
110.3
 31
0.0
100
AcDbText
 73
         2
  0
TEXT
  5
24C
100
AcDbEntity
  8
ASSEMBLY_REF_DES_TOP
100
AcDbText
 10
54.60455
 20
150.2996
 30
0.0
 40
0.7
  1
C15
 50
270.0
  7
GOST_TYPE_B
 72
         1
 11
54.95
 21
149.65
 31
0.0
100
AcDbText
 73
         2
  0
TEXT
  5
24D
100
AcDbEntity
  8
ASSEMBLY_REF_DES_TOP
100
AcDbText
 10
36.10455
 20
122.2868
 30
0.0
 40
0.7
  1
R38
 50
270.0
  7
GOST_TYPE_B
 72
         1
 11
36.45
 21
121.5
 31
0.0
100
AcDbText
 73
         2
  0
TEXT
  5
24E
100
AcDbEntity
  8
ASSEMBLY_REF_DES_TOP
100
AcDbText
 10
61.9818
 20
108.10455
 30
0.0
 40
0.7
  1
C70
  7
GOST_TYPE_B
 72
         1
 11
62.7
 21
108.45
 31
0.0
100
AcDbText
 73
         2
  0
TEXT
  5
24F
100
AcDbEntity
  8
ASSEMBLY_REF_DES_TOP
100
AcDbText
 10
76.64785
 20
122.45455
 30
0.0
 40
0.7
  1
C45
  7
GOST_TYPE_B
 72
         1
 11
77.4
 21
122.8
 31
0.0
100
AcDbText
 73
         2
  0
TEXT
  5
250
100
AcDbEntity
  8
ASSEMBLY_REF_DES_TOP
100
AcDbText
 10
45.60455
 20
144.3339
 30
0.0
 40
0.7
  1
R15
 50
270.0
  7
GOST_TYPE_B
 72
         1
 11
45.95
 21
143.65
 31
0.0
100
AcDbText
 73
         2
  0
TEXT
  5
251
100
AcDbEntity
  8
ASSEMBLY_REF_DES_TOP
100
AcDbText
 10
39.17285
 20
125.80455
 30
0.0
 40
0.7
  1
C40
  7
GOST_TYPE_B
 72
         1
 11
39.925
 21
126.15
 31
0.0
100
AcDbText
 73
         2
  0
TEXT
  5
252
100
AcDbEntity
  8
ASSEMBLY_REF_DES_TOP
100
AcDbText
 10
84.00455
 20
108.8368
 30
0.0
 40
0.7
  1
R58
 50
270.0
  7
GOST_TYPE_B
 72
         1
 11
84.35
 21
108.05
 31
0.0
100
AcDbText
 73
         2
  0
TEXT
  5
253
100
AcDbEntity
  8
ASSEMBLY_REF_DES_TOP
100
AcDbText
 10
66.45455
 20
111.3682
 30
0.0
 40
0.7
  1
C67
 50
270.0
  7
GOST_TYPE_B
 72
         1
 11
66.8
 21
110.65
 31
0.0
100
AcDbText
 73
         2
  0
TEXT
  5
254
100
AcDbEntity
  8
ASSEMBLY_REF_DES_TOP
100
AcDbText
 10
77.39785
 20
111.80455
 30
0.0
 40
0.7
  1
R52
  7
GOST_TYPE_B
 72
         1
 11
78.15
 21
112.15
 31
0.0
100
AcDbText
 73
         2
  0
TEXT
  5
255
100
AcDbEntity
  8
ASSEMBLY_REF_DES_TOP
100
AcDbText
 10
77.2796
 20
105.55455
 30
0.0
 40
0.7
  1
VT2
  7
GOST_TYPE_B
 72
         1
 11
78.1
 21
105.9
 31
0.0
100
AcDbText
 73
         2
  0
TEXT
  5
256
100
AcDbEntity
  8
ASSEMBLY_REF_DES_TOP
100
AcDbText
 10
66.13725
 20
156.60455
 30
0.0
 40
0.7
  1
R3
  7
GOST_TYPE_B
 72
         1
 11
66.65
 21
156.95
 31
0.0
100
AcDbText
 73
         2
  0
TEXT
  5
257
100
AcDbEntity
  8
ASSEMBLY_REF_DES_TOP
100
AcDbText
 10
68.45455
 20
148.7496
 30
0.0
 40
0.7
  1
C17
 50
270.0
  7
GOST_TYPE_B
 72
         1
 11
68.8
 21
148.1
 31
0.0
100
AcDbText
 73
         2
  0
TEXT
  5
258
100
AcDbEntity
  8
ASSEMBLY_REF_DES_TOP
100
AcDbText
 10
67.40455
 20
106.9025
 30
0.0
 40
0.7
  1
R66
 50
270.0
  7
GOST_TYPE_B
 72
         1
 11
67.75
 21
106.15
 31
0.0
100
AcDbText
 73
         2
  0
TEXT
  5
259
100
AcDbEntity
  8
ASSEMBLY_REF_DES_TOP
100
AcDbText
 10
70.60455
 20
151.981
 30
0.0
 40
0.7
  1
C11
 50
270.0
  7
GOST_TYPE_B
 72
         1
 11
70.95
 21
151.4
 31
0.0
100
AcDbText
 73
         2
  0
TEXT
  5
25A
100
AcDbEntity
  8
ASSEMBLY_REF_DES_TOP
100
AcDbText
 10
44.45455
 20
147.4339
 30
0.0
 40
0.7
  1
R12
 50
270.0
  7
GOST_TYPE_B
 72
         1
 11
44.8
 21
146.75
 31
0.0
100
AcDbText
 73
         2
  0
TEXT
  5
25B
100
AcDbEntity
  8
ASSEMBLY_REF_DES_TOP
100
AcDbText
 10
58.6318
 20
141.25455
 30
0.0
 40
0.7
  1
C29
  7
GOST_TYPE_B
 72
         1
 11
59.35
 21
141.6
 31
0.0
100
AcDbText
 73
         2
  0
TEXT
  5
25C
100
AcDbEntity
  8
ASSEMBLY_REF_DES_TOP
100
AcDbText
 10
78.0559
 20
81.6
 30
0.0
 40
0.7
  1
X9
  7
GOST_TYPE_B
 72
         2
 11
79.15
 21
81.6
 31
0.0
100
AcDbText
 73
         1
  0
TEXT
  5
25D
100
AcDbEntity
  8
ASSEMBLY_REF_DES_TOP
100
AcDbText
 10
56.45455
 20
145.1525
 30
0.0
 40
0.7
  1
C24
 50
270.0
  7
GOST_TYPE_B
 72
         1
 11
56.8
 21
144.4
 31
0.0
100
AcDbText
 73
         2
  0
TEXT
  5
25E
100
AcDbEntity
  8
ASSEMBLY_REF_DES_TOP
100
AcDbText
 10
46.85455
 20
147.5182
 30
0.0
 40
0.7
  1
C22
 50
270.0
  7
GOST_TYPE_B
 72
         1
 11
47.2
 21
146.8
 31
0.0
100
AcDbText
 73
         2
  0
TEXT
  5
25F
100
AcDbEntity
  8
ASSEMBLY_REF_DES_TOP
100
AcDbText
 10
54.50455
 20
153.6288
 30
0.0
 40
0.7
  1
C7
 50
270.0
  7
GOST_TYPE_B
 72
         1
 11
54.85
 21
153.15
 31
0.0
100
AcDbText
 73
         2
  0
TEXT
  5
260
100
AcDbEntity
  8
ASSEMBLY_REF_DES_TOP
100
AcDbText
 10
75.9004
 20
117.85455
 30
0.0
 40
0.7
  1
C51
  7
GOST_TYPE_B
 72
         1
 11
76.55
 21
118.2
 31
0.0
100
AcDbText
 73
         2
  0
TEXT
  5
261
100
AcDbEntity
  8
ASSEMBLY_REF_DES_TOP
100
AcDbText
 10
56.45455
 20
148.6496
 30
0.0
 40
0.7
  1
C16
 50
270.0
  7
GOST_TYPE_B
 72
         1
 11
56.8
 21
148.0
 31
0.0
100
AcDbText
 73
         2
  0
TEXT
  5
262
100
AcDbEntity
  8
ASSEMBLY_REF_DES_TOP
100
AcDbText
 10
50.20455
 20
106.7025
 30
0.0
 40
0.7
  1
R62
 50
270.0
  7
GOST_TYPE_B
 72
         1
 11
50.55
 21
105.95
 31
0.0
100
AcDbText
 73
         2
  0
TEXT
  5
263
100
AcDbEntity
  8
ASSEMBLY_REF_DES_TOP
100
AcDbText
 10
58.50455
 20
110.6025
 30
0.0
 40
0.7
  1
C64
 50
270.0
  7
GOST_TYPE_B
 72
         1
 11
58.85
 21
109.85
 31
0.0
100
AcDbText
 73
         2
  0
TEXT
  5
264
100
AcDbEntity
  8
ASSEMBLY_REF_DES_TOP
100
AcDbText
 10
81.95455
 20
130.0682
 30
0.0
 40
0.7
  1
C39
 50
270.0
  7
GOST_TYPE_B
 72
         1
 11
82.3
 21
129.35
 31
0.0
100
AcDbText
 73
         2
  0
TEXT
  5
265
100
AcDbEntity
  8
ASSEMBLY_REF_DES_TOP
100
AcDbText
 10
61.8639
 20
111.40455
 30
0.0
 40
0.7
  1
R54
  7
GOST_TYPE_B
 72
         1
 11
62.65
 21
111.75
 31
0.0
100
AcDbText
 73
         2
  0
TEXT
  5
266
100
AcDbEntity
  8
ASSEMBLY_REF_DES_TOP
100
AcDbText
 10
70.25455
 20
155.1288
 30
0.0
 40
0.7
  1
C3
 50
270.0
  7
GOST_TYPE_B
 72
         1
 11
70.6
 21
154.65
 31
0.0
100
AcDbText
 73
         2
  0
TEXT
  5
267
100
AcDbEntity
  8
ASSEMBLY_REF_DES_TOP
100
AcDbText
 10
76.5639
 20
121.00455
 30
0.0
 40
0.7
  1
C48
  7
GOST_TYPE_B
 72
         1
 11
77.35
 21
121.35
 31
0.0
100
AcDbText
 73
         2
  0
TEXT
  5
268
100
AcDbEntity
  8
ASSEMBLY_REF_DES_TOP
100
AcDbText
 10
79.40455
 20
133.0025
 30
0.0
 40
0.7
  1
R29
 50
270.0
  7
GOST_TYPE_B
 72
         1
 11
79.75
 21
132.25
 31
0.0
100
AcDbText
 73
         2
  0
TEXT
  5
269
100
AcDbEntity
  8
ASSEMBLY_REF_DES_TOP
100
AcDbText
 10
56.35455
 20
92.82075
 30
0.0
 40
0.7
  1
VT5
 50
270.0
  7
GOST_TYPE_B
 72
         1
 11
56.7
 21
92.0
 31
0.0
100
AcDbText
 73
         2
  0
TEXT
  5
26A
100
AcDbEntity
  8
ASSEMBLY_REF_DES_TOP
100
AcDbText
 10
79.48725
 20
156.55455
 30
0.0
 40
0.7
  1
R5
  7
GOST_TYPE_B
 72
         1
 11
80.0
 21
156.9
 31
0.0
100
AcDbText
 73
         2
  0
TEXT
  5
26B
100
AcDbEntity
  8
ASSEMBLY_REF_DES_TOP
100
AcDbText
 10
51.55455
 20
132.9368
 30
0.0
 40
0.7
  1
R28
 50
270.0
  7
GOST_TYPE_B
 72
         1
 11
51.9
 21
132.15
 31
0.0
100
AcDbText
 73
         2
  0
TEXT
  5
26C
100
AcDbEntity
  8
ASSEMBLY_REF_DES_TOP
100
AcDbText
 10
53.10455
 20
106.6368
 30
0.0
 40
0.7
  1
R64
 50
270.0
  7
GOST_TYPE_B
 72
         1
 11
53.45
 21
105.85
 31
0.0
100
AcDbText
 73
         2
  0
TEXT
  5
26D
100
AcDbEntity
  8
ASSEMBLY_REF_DES_TOP
100
AcDbText
 10
50.90455
 20
102.5025
 30
0.0
 40
0.7
  1
R73
 50
270.0
  7
GOST_TYPE_B
 72
         1
 11
51.25
 21
101.75
 31
0.0
100
AcDbText
 73
         2
  0
TEXT
  5
26E
100
AcDbEntity
  8
ASSEMBLY_REF_DES_TOP
100
AcDbText
 10
61.0818
 20
100.05455
 30
0.0
 40
0.7
  1
C79
  7
GOST_TYPE_B
 72
         1
 11
61.8
 21
100.4
 31
0.0
100
AcDbText
 73
         2
  0
TEXT
  5
26F
100
AcDbEntity
  8
ASSEMBLY_REF_DES_TOP
100
AcDbText
 10
82.35455
 20
141.0182
 30
0.0
 40
0.7
  1
R18
 50
270.0
  7
GOST_TYPE_B
 72
         1
 11
82.7
 21
140.3
 31
0.0
100
AcDbText
 73
         2
  0
TEXT
  5
270
100
AcDbEntity
  8
ASSEMBLY_REF_DES_TOP
100
AcDbText
 10
78.60455
 20
115.0182
 30
0.0
 40
0.7
  1
C57
 50
270.0
  7
GOST_TYPE_B
 72
         1
 11
78.95
 21
114.3
 31
0.0
100
AcDbText
 73
         2
  0
TEXT
  5
271
100
AcDbEntity
  8
ASSEMBLY_REF_DES_TOP
100
AcDbText
 10
47.73725
 20
153.00455
 30
0.0
 40
0.7
  1
R9
  7
GOST_TYPE_B
 72
         1
 11
48.25
 21
153.35
 31
0.0
100
AcDbText
 73
         2
  0
TEXT
  5
272
100
AcDbEntity
  8
ASSEMBLY_REF_DES_TOP
100
AcDbText
 10
47.00455
 20
144.3339
 30
0.0
 40
0.7
  1
R16
 50
270.0
  7
GOST_TYPE_B
 72
         1
 11
47.35
 21
143.65
 31
0.0
100
AcDbText
 73
         2
  0
TEXT
  5
273
100
AcDbEntity
  8
ASSEMBLY_REF_DES_TOP
100
AcDbText
 10
50.69785
 20
119.55455
 30
0.0
 40
0.7
  1
C47
  7
GOST_TYPE_B
 72
         1
 11
51.45
 21
119.9
 31
0.0
100
AcDbText
 73
         2
  0
TEXT
  5
274
100
AcDbEntity
  8
ASSEMBLY_REF_DES_TOP
100
AcDbText
 10
63.18725
 20
156.60455
 30
0.0
 40
0.7
  1
R2
  7
GOST_TYPE_B
 72
         1
 11
63.7
 21
156.95
 31
0.0
100
AcDbText
 73
         2
  0
TEXT
  5
275
100
AcDbEntity
  8
ASSEMBLY_REF_DES_TOP
100
AcDbText
 10
56.45455
 20
151.8288
 30
0.0
 40
0.7
  1
C9
 50
270.0
  7
GOST_TYPE_B
 72
         1
 11
56.8
 21
151.35
 31
0.0
100
AcDbText
 73
         2
  0
TEXT
  5
276
100
AcDbEntity
  8
ASSEMBLY_REF_DES_TOP
100
AcDbText
 10
45.7462
 20
124.30455
 30
0.0
 40
0.7
  1
L3
  7
GOST_TYPE_B
 72
         1
 11
46.225
 21
124.65
 31
0.0
100
AcDbText
 73
         2
  0
TEXT
  5
277
100
AcDbEntity
  8
ASSEMBLY_REF_DES_TOP
100
AcDbText
 10
68.45455
 20
155.0288
 30
0.0
 40
0.7
  1
C2
 50
270.0
  7
GOST_TYPE_B
 72
         1
 11
68.8
 21
154.55
 31
0.0
100
AcDbText
 73
         2
  0
TEXT
  5
278
100
AcDbEntity
  8
ASSEMBLY_REF_DES_TOP
100
AcDbText
 10
49.25455
 20
92.3868
 30
0.0
 40
0.7
  1
C84
 50
270.0
  7
GOST_TYPE_B
 72
         1
 11
49.6
 21
91.6
 31
0.0
100
AcDbText
 73
         2
  0
TEXT
  5
279
100
AcDbEntity
  8
ASSEMBLY_REF_DES_TOP
100
AcDbText
 10
75.8818
 20
114.70455
 30
0.0
 40
0.7
  1
C56
  7
GOST_TYPE_B
 72
         1
 11
76.6
 21
115.05
 31
0.0
100
AcDbText
 73
         2
  0
TEXT
  5
27A
100
AcDbEntity
  8
ASSEMBLY_REF_DES_TOP
100
AcDbText
 10
84.20455
 20
112.5182
 30
0.0
 40
0.7
  1
C69
 50
270.0
  7
GOST_TYPE_B
 72
         1
 11
84.55
 21
111.8
 31
0.0
100
AcDbText
 73
         2
  0
TEXT
  5
27B
100
AcDbEntity
  8
ASSEMBLY_REF_DES_TOP
100
AcDbText
 10
70.25455
 20
148.8839
 30
0.0
 40
0.7
  1
C18
 50
270.0
  7
GOST_TYPE_B
 72
         1
 11
70.6
 21
148.2
 31
0.0
100
AcDbText
 73
         2
  0
TEXT
  5
27C
100
AcDbEntity
  8
ASSEMBLY_REF_DES_TOP
100
AcDbText
 10
68.85455
 20
107.0025
 30
0.0
 40
0.7
  1
C74
 50
270.0
  7
GOST_TYPE_B
 72
         1
 11
69.2
 21
106.25
 31
0.0
100
AcDbText
 73
         2
  0
TEXT
  5
27D
100
AcDbEntity
  8
ASSEMBLY_REF_DES_TOP
100
AcDbText
 10
48.84785
 20
136.80455
 30
0.0
 40
0.7
  1
R20
  7
GOST_TYPE_B
 72
         1
 11
49.6
 21
137.15
 31
0.0
100
AcDbText
 73
         2
  0
TEXT
  5
27E
100
AcDbEntity
  8
ASSEMBLY_REF_DES_TOP
100
AcDbText
 10
79.75455
 20
87.5839
 30
0.0
 40
0.7
  1
HL1
 50
270.0
  7
GOST_TYPE_B
 72
         1
 11
80.1
 21
86.9
 31
0.0
100
AcDbText
 73
         2
  0
TEXT
  5
27F
100
AcDbEntity
  8
ASSEMBLY_REF_DES_TOP
100
AcDbText
 10
84.00455
 20
148.7182
 30
0.0
 40
0.7
  1
C20
 50
270.0
  7
GOST_TYPE_B
 72
         1
 11
84.35
 21
148.0
 31
0.0
100
AcDbText
 73
         2
  0
TEXT
  5
280
100
AcDbEntity
  8
ASSEMBLY_REF_DES_TOP
100
AcDbText
 10
40.1046
 20
123.05455
 30
0.0
 40
0.7
  1
DA3
  7
GOST_TYPE_B
 72
         1
 11
40.925
 21
123.4
 31
0.0
100
AcDbText
 73
         2
  0
TEXT
  5
281
100
AcDbEntity
  8
ASSEMBLY_REF_DES_TOP
100
AcDbText
 10
40.30455
 20
120.2868
 30
0.0
 40
0.7
  1
R42
 50
270.0
  7
GOST_TYPE_B
 72
         1
 11
40.65
 21
119.5
 31
0.0
100
AcDbText
 73
         2
  0
TEXT
  5
282
100
AcDbEntity
  8
ASSEMBLY_REF_DES_TOP
100
AcDbText
 10
76.5033
 20
156.55455
 30
0.0
 40
0.7
  1
R4
  7
GOST_TYPE_B
 72
         1
 11
77.05
 21
156.9
 31
0.0
100
AcDbText
 73
         2
  0
TEXT
  5
283
100
AcDbEntity
  8
ASSEMBLY_REF_DES_TOP
100
AcDbText
 10
75.8318
 20
119.30455
 30
0.0
 40
0.7
  1
C50
  7
GOST_TYPE_B
 72
         1
 11
76.55
 21
119.65
 31
0.0
100
AcDbText
 73
         2
  0
TEXT
  5
284
100
AcDbEntity
  8
ASSEMBLY_REF_DES_TOP
100
AcDbText
 10
75.91645
 20
113.15455
 30
0.0
 40
0.7
  1
R51
  7
GOST_TYPE_B
 72
         1
 11
76.6
 21
113.5
 31
0.0
100
AcDbText
 73
         2
  0
TEXT
  5
285
100
AcDbEntity
  8
ASSEMBLY_REF_DES_TOP
100
AcDbText
 10
36.25455
 20
118.9525
 30
0.0
 40
0.7
  1
C49
 50
270.0
  7
GOST_TYPE_B
 72
         1
 11
36.6
 21
118.2
 31
0.0
100
AcDbText
 73
         2
  0
TEXT
  5
286
100
AcDbEntity
  8
ASSEMBLY_REF_DES_TOP
100
AcDbText
 10
50.998709
 20
152.754041
 30
0.0
 40
0.7
  1
DA1
  7
GOST_TYPE_B
 72
         1
 11
51.750509
 21
153.099491
 31
0.0
100
AcDbText
 73
         2
  0
TEXT
  5
287
100
AcDbEntity
  8
ASSEMBLY_REF_DES_TOP
100
AcDbText
 10
83.95455
 20
152.2996
 30
0.0
 40
0.7
  1
C13
 50
270.0
  7
GOST_TYPE_B
 72
         1
 11
84.3
 21
151.65
 31
0.0
100
AcDbText
 73
         2
  0
TEXT
  5
288
100
AcDbEntity
  8
ASSEMBLY_REF_DES_TOP
100
AcDbText
 10
48.90455
 20
106.5339
 30
0.0
 40
0.7
  1
R61
 50
270.0
  7
GOST_TYPE_B
 72
         1
 11
49.25
 21
105.85
 31
0.0
100
AcDbText
 73
         2
  0
TEXT
  5
289
100
AcDbEntity
  8
ASSEMBLY_REF_DES_TOP
100
AcDbText
 10
80.24785
 20
121.00455
 30
0.0
 40
0.7
  1
R39
  7
GOST_TYPE_B
 72
         1
 11
81.0
 21
121.35
 31
0.0
100
AcDbText
 73
         2
  0
TEXT
  5
28A
100
AcDbEntity
  8
ASSEMBLY_REF_DES_TOP
100
AcDbText
 10
61.899776
 20
148.971824
 30
0.0
 40
0.7
  1
DD1
  7
GOST_TYPE_B
 72
         1
 11
62.617276
 21
149.317274
 31
0.0
100
AcDbText
 73
         2
  0
TEXT
  5
28B
100
AcDbEntity
  8
ASSEMBLY_REF_DES_TOP
100
AcDbText
 10
49.92995
 20
115.75455
 30
0.0
 40
0.7
  1
R48
  7
GOST_TYPE_B
 72
         1
 11
50.75
 21
116.1
 31
0.0
100
AcDbText
 73
         2
  0
TEXT
  5
28C
100
AcDbEntity
  8
ASSEMBLY_REF_DES_TOP
100
AcDbText
 10
62.60455
 20
95.7339
 30
0.0
 40
0.7
  1
C81
 50
270.0
  7
GOST_TYPE_B
 72
         1
 11
62.95
 21
95.05
 31
0.0
100
AcDbText
 73
         2
  0
TEXT
  5
28D
100
AcDbEntity
  8
ASSEMBLY_REF_DES_TOP
100
AcDbText
 10
44.1033
 20
152.05455
 30
0.0
 40
0.7
  1
R8
  7
GOST_TYPE_B
 72
         1
 11
44.65
 21
152.4
 31
0.0
100
AcDbText
 73
         2
  0
TEXT
  5
28E
100
AcDbEntity
  8
ASSEMBLY_REF_DES_TOP
100
AcDbText
 10
80.70455
 20
108.7025
 30
0.0
 40
0.7
  1
R56
 50
270.0
  7
GOST_TYPE_B
 72
         1
 11
81.05
 21
107.95
 31
0.0
100
AcDbText
 73
         2
  0
TEXT
  5
28F
100
AcDbEntity
  8
ASSEMBLY_REF_DES_TOP
100
AcDbText
 10
72.05455
 20
145.1182
 30
0.0
 40
0.7
  1
C27
 50
270.0
  7
GOST_TYPE_B
 72
         1
 11
72.4
 21
144.4
 31
0.0
100
AcDbText
 73
         2
  0
TEXT
  5
290
100
AcDbEntity
  8
ASSEMBLY_REF_DES_TOP
100
AcDbText
 10
61.09785
 20
101.80455
 30
0.0
 40
0.7
  1
R69
  7
GOST_TYPE_B
 72
         1
 11
61.85
 21
102.15
 31
0.0
100
AcDbText
 73
         2
  0
TEXT
  5
291
100
AcDbEntity
  8
ASSEMBLY_REF_DES_TOP
100
AcDbText
 10
68.00455
 20
111.2525
 30
0.0
 40
0.7
  1
C68
 50
270.0
  7
GOST_TYPE_B
 72
         1
 11
68.35
 21
110.5
 31
0.0
100
AcDbText
 73
         2
  0
TEXT
  5
292
100
AcDbEntity
  8
ASSEMBLY_REF_DES_TOP
100
AcDbText
 10
54.70455
 20
142.8339
 30
0.0
 40
0.7
  1
R17
 50
270.0
  7
GOST_TYPE_B
 72
         1
 11
55.05
 21
142.15
 31
0.0
100
AcDbText
 73
         2
  0
TEXT
  5
293
100
AcDbEntity
  8
ASSEMBLY_REF_DES_TOP
100
AcDbText
 10
46.7796
 20
95.85455
 30
0.0
 40
0.7
  1
VT3
  7
GOST_TYPE_B
 72
         1
 11
47.6
 21
96.2
 31
0.0
100
AcDbText
 73
         2
  0
TEXT
  5
294
100
AcDbEntity
  8
ASSEMBLY_REF_DES_TOP
100
AcDbText
 10
61.99785
 20
110.00455
 30
0.0
 40
0.7
  1
R55
  7
GOST_TYPE_B
 72
         1
 11
62.75
 21
110.35
 31
0.0
100
AcDbText
 73
         2
  0
TEXT
  5
295
100
AcDbEntity
  8
ASSEMBLY_REF_DES_TOP
100
AcDbText
 10
54.6004
 20
138.80455
 30
0.0
 40
0.7
  1
C31
  7
GOST_TYPE_B
 72
         1
 11
55.25
 21
139.15
 31
0.0
100
AcDbText
 73
         2
  0
TEXT
  5
296
100
AcDbEntity
  8
ASSEMBLY_REF_DES_TOP
100
AcDbText
 10
70.30455
 20
145.0182
 30
0.0
 40
0.7
  1
C26
 50
270.0
  7
GOST_TYPE_B
 72
         1
 11
70.65
 21
144.3
 31
0.0
100
AcDbText
 73
         2
  0
TEXT
  5
297
100
AcDbEntity
  8
ASSEMBLY_REF_DES_TOP
100
AcDbText
 10
45.90455
 20
106.7025
 30
0.0
 40
0.7
  1
R59
 50
270.0
  7
GOST_TYPE_B
 72
         1
 11
46.25
 21
105.95
 31
0.0
100
AcDbText
 73
         2
  0
TEXT
  5
298
100
AcDbEntity
  8
ASSEMBLY_REF_DES_TOP
100
AcDbText
 10
59.4325
 20
95.50455
 30
0.0
 40
0.7
  1
R81
  7
GOST_TYPE_B
 72
         1
 11
60.15
 21
95.85
 31
0.0
100
AcDbText
 73
         2
  0
TEXT
  5
299
100
AcDbEntity
  8
ASSEMBLY_REF_DES_TOP
100
AcDbText
 10
59.40455
 20
92.7368
 30
0.0
 40
0.7
  1
R82
 50
270.0
  7
GOST_TYPE_B
 72
         1
 11
59.75
 21
91.95
 31
0.0
100
AcDbText
 73
         2
  0
TEXT
  5
29A
100
AcDbEntity
  8
ASSEMBLY_REF_DES_TOP
100
AcDbText
 10
63.0318
 20
104.80455
 30
0.0
 40
0.7
  1
C75
  7
GOST_TYPE_B
 72
         1
 11
63.75
 21
105.15
 31
0.0
100
AcDbText
 73
         2
  0
TEXT
  5
29B
100
AcDbEntity
  8
ASSEMBLY_REF_DES_TOP
100
AcDbText
 10
51.3898
 20
148.155568
 30
0.0
 40
0.7
  1
L1
  7
GOST_TYPE_B
 72
         1
 11
51.8
 21
148.501018
 31
0.0
100
AcDbText
 73
         2
  0
TEXT
  5
29C
100
AcDbEntity
  8
ASSEMBLY_REF_DES_TOP
100
AcDbText
 10
52.50455
 20
102.4368
 30
0.0
 40
0.7
  1
R74
 50
270.0
  7
GOST_TYPE_B
 72
         1
 11
52.85
 21
101.65
 31
0.0
100
AcDbText
 73
         2
  0
TEXT
  5
29D
100
AcDbEntity
  8
ASSEMBLY_REF_DES_TOP
100
AcDbText
 10
71.1139
 20
105.05455
 30
0.0
 40
0.7
  1
R68
  7
GOST_TYPE_B
 72
         1
 11
71.9
 21
105.4
 31
0.0
100
AcDbText
 73
         2
  0
TEXT
  5
29E
100
AcDbEntity
  8
ASSEMBLY_REF_DES_TOP
100
AcDbText
 10
45.05455
 20
150.4131
 30
0.0
 40
0.7
  1
C8
 50
270.0
  7
GOST_TYPE_B
 72
         1
 11
45.4
 21
149.9
 31
0.0
100
AcDbText
 73
         2
  0
TEXT
  5
29F
100
AcDbEntity
  8
ASSEMBLY_REF_DES_TOP
100
AcDbText
 10
51.75295
 20
87.20455
 30
0.0
 40
0.7
  1
X6
  7
GOST_TYPE_B
 72
         1
 11
52.3
 21
87.55
 31
0.0
100
AcDbText
 73
         2
  0
TEXT
  5
2A0
100
AcDbEntity
  8
ASSEMBLY_REF_DES_TOP
100
AcDbText
 10
38.7482
 20
107.35455
 30
0.0
 40
0.7
  1
VT1
  7
GOST_TYPE_B
 72
         1
 11
39.5
 21
107.7
 31
0.0
100
AcDbText
 73
         2
  0
TEXT
  5
2A1
100
AcDbEntity
  8
ASSEMBLY_REF_DES_TOP
100
AcDbText
 10
65.85455
 20
106.5547
 30
0.0
 40
0.7
  1
ZQ2
 50
270.0
  7
GOST_TYPE_B
 72
         1
 11
66.2
 21
105.7
 31
0.0
100
AcDbText
 73
         2
  0
TEXT
  5
2A2
100
AcDbEntity
  8
ASSEMBLY_REF_DES_TOP
100
AcDbText
 10
41.75455
 20
120.2868
 30
0.0
 40
0.7
  1
R43
 50
270.0
  7
GOST_TYPE_B
 72
         1
 11
42.1
 21
119.5
 31
0.0
100
AcDbText
 73
         2
  0
TEXT
  5
2A3
100
AcDbEntity
  8
ASSEMBLY_REF_DES_TOP
100
AcDbText
 10
38.95455
 20
120.1182
 30
0.0
 40
0.7
  1
R41
 50
270.0
  7
GOST_TYPE_B
 72
         1
 11
39.3
 21
119.4
 31
0.0
100
AcDbText
 73
         2
  0
TEXT
  5
2A4
100
AcDbEntity
  8
ASSEMBLY_REF_DES_TOP
100
AcDbText
 10
39.4712
 20
146.155568
 30
0.0
 40
0.7
  1
L2
  7
GOST_TYPE_B
 72
         1
 11
39.95
 21
146.501018
 31
0.0
100
AcDbText
 73
         2
  0
TEXT
  5
2A5
100
AcDbEntity
  8
ASSEMBLY_REF_DES_TOP
100
AcDbText
 10
54.29785
 20
96.90455
 30
0.0
 40
0.7
  1
R79
  7
GOST_TYPE_B
 72
         1
 11
55.05
 21
97.25
 31
0.0
100
AcDbText
 73
         2
  0
TEXT
  5
2A6
100
AcDbEntity
  8
ASSEMBLY_REF_DES_TOP
100
AcDbText
 10
48.50455
 20
148.4839
 30
0.0
 40
0.7
  1
R13
 50
270.0
  7
GOST_TYPE_B
 72
         1
 11
48.85
 21
147.8
 31
0.0
100
AcDbText
 73
         2
  0
TEXT
  5
2A7
100
AcDbEntity
  8
ASSEMBLY_REF_DES_TOP
100
AcDbText
 10
75.79785
 20
116.25455
 30
0.0
 40
0.7
  1
C54
  7
GOST_TYPE_B
 72
         1
 11
76.55
 21
116.6
 31
0.0
100
AcDbText
 73
         2
  0
TEXT
  5
2A8
100
AcDbEntity
  8
ASSEMBLY_REF_DES_TOP
100
AcDbText
 10
50.59785
 20
121.20455
 30
0.0
 40
0.7
  1
C46
  7
GOST_TYPE_B
 72
         1
 11
51.35
 21
121.55
 31
0.0
100
AcDbText
 73
         2
  0
TEXT
  5
2A9
100
AcDbEntity
  8
ASSEMBLY_REF_DES_TOP
100
AcDbText
 10
84.15455
 20
105.6182
 30
0.0
 40
0.7
  1
C76
 50
270.0
  7
GOST_TYPE_B
 72
         1
 11
84.5
 21
104.9
 31
0.0
100
AcDbText
 73
         2
  0
TEXT
  5
2AA
100
AcDbEntity
  8
ASSEMBLY_REF_DES_TOP
100
AcDbText
 10
38.4982
 20
153.00455
 30
0.0
 40
0.7
  1
VD1
  7
GOST_TYPE_B
 72
         1
 11
39.25
 21
153.35
 31
0.0
100
AcDbText
 73
         2
  0
TEXT
  5
2AB
100
AcDbEntity
  8
ASSEMBLY_REF_DES_TOP
100
AcDbText
 10
46.7639
 20
115.90455
 30
0.0
 40
0.7
  1
R47
  7
GOST_TYPE_B
 72
         1
 11
47.55
 21
116.25
 31
0.0
100
AcDbText
 73
         2
  0
TEXT
  5
2AC
100
AcDbEntity
  8
ASSEMBLY_REF_DES_TOP
100
AcDbText
 10
80.5318
 20
119.40455
 30
0.0
 40
0.7
  1
C52
  7
GOST_TYPE_B
 72
         1
 11
81.25
 21
119.75
 31
0.0
100
AcDbText
 73
         2
  0
TEXT
  5
2AD
100
AcDbEntity
  8
ASSEMBLY_REF_DES_TOP
100
AcDbText
 10
33.95455
 20
100.64705
 30
0.0
 40
0.7
  1
X3
 50
270.0
  7
GOST_TYPE_B
 72
         1
 11
34.3
 21
100.1
 31
0.0
100
AcDbText
 73
         2
  0
TEXT
  5
2AE
100
AcDbEntity
  8
ASSEMBLY_REF_DES_TOP
100
AcDbText
 10
51.00455
 20
112.9682
 30
0.0
 40
0.7
  1
C60
 50
270.0
  7
GOST_TYPE_B
 72
         1
 11
51.35
 21
112.25
 31
0.0
100
AcDbText
 73
         2
  0
TEXT
  5
2AF
100
AcDbEntity
  8
ASSEMBLY_REF_DES_TOP
100
AcDbText
 10
50.54785
 20
123.60455
 30
0.0
 40
0.7
  1
C43
  7
GOST_TYPE_B
 72
         1
 11
51.3
 21
123.95
 31
0.0
100
AcDbText
 73
         2
  0
TEXT
  5
2B0
100
AcDbEntity
  8
ASSEMBLY_REF_DES_TOP
100
AcDbText
 10
63.319
 20
81.95455
 30
0.0
 40
0.7
  1
X8
  7
GOST_TYPE_B
 72
         1
 11
63.9
 21
82.3
 31
0.0
100
AcDbText
 73
         2
  0
TEXT
  5
2B1
100
AcDbEntity
  8
ASSEMBLY_REF_DES_TOP
100
AcDbText
 10
50.45455
 20
129.7339
 30
0.0
 40
0.7
  1
R31
 50
270.0
  7
GOST_TYPE_B
 72
         1
 11
50.8
 21
129.05
 31
0.0
100
AcDbText
 73
         2
  0
TEXT
  5
2B2
100
AcDbEntity
  8
ASSEMBLY_REF_DES_TOP
100
AcDbText
 10
40.0504
 20
110.40455
 30
0.0
 40
0.7
  1
C61
  7
GOST_TYPE_B
 72
         1
 11
40.7
 21
110.75
 31
0.0
100
AcDbText
 73
         2
  0
TEXT
  5
2B3
100
AcDbEntity
  8
ASSEMBLY_REF_DES_TOP
100
AcDbText
 10
62.99785
 20
103.30455
 30
0.0
 40
0.7
  1
C78
  7
GOST_TYPE_B
 72
         1
 11
63.75
 21
103.65
 31
0.0
100
AcDbText
 73
         2
  0
TEXT
  5
2B4
100
AcDbEntity
  8
ASSEMBLY_REF_DES_TOP
100
AcDbText
 10
43.7639
 20
115.90455
 30
0.0
 40
0.7
  1
R46
  7
GOST_TYPE_B
 72
         1
 11
44.55
 21
116.25
 31
0.0
100
AcDbText
 73
         2
  0
TEXT
  5
2B5
100
AcDbEntity
  8
ASSEMBLY_REF_DES_TOP
100
AcDbText
 10
46.79785
 20
98.70455
 30
0.0
 40
0.7
  1
R75
  7
GOST_TYPE_B
 72
         1
 11
47.55
 21
99.05
 31
0.0
100
AcDbText
 73
         2
  0
TEXT
  5
2B6
100
AcDbEntity
  8
ASSEMBLY_REF_DES_TOP
100
AcDbText
 10
80.25455
 20
127.2368
 30
0.0
 40
0.7
  1
R34
 50
270.0
  7
GOST_TYPE_B
 72
         1
 11
80.6
 21
126.45
 31
0.0
100
AcDbText
 73
         2
  0
TEXT
  5
2B7
100
AcDbEntity
  8
ASSEMBLY_REF_DES_TOP
100
AcDbText
 10
56.45455
 20
155.4102
 30
0.0
 40
0.7
  1
C1
 50
270.0
  7
GOST_TYPE_B
 72
         1
 11
56.8
 21
155.0
 31
0.0
100
AcDbText
 73
         2
  0
TEXT
  5
2B8
100
AcDbEntity
  8
ASSEMBLY_REF_DES_TOP
100
AcDbText
 10
76.54785
 20
125.95455
 30
0.0
 40
0.7
  1
C42
  7
GOST_TYPE_B
 72
         1
 11
77.3
 21
126.3
 31
0.0
100
AcDbText
 73
         2
  0
TEXT
  5
2B9
100
AcDbEntity
  8
ASSEMBLY_REF_DES_TOP
100
AcDbText
 10
60.30585
 20
156.60455
 30
0.0
 40
0.7
  1
R1
  7
GOST_TYPE_B
 72
         1
 11
60.75
 21
156.95
 31
0.0
100
AcDbText
 73
         2
  0
TEXT
  5
2BA
100
AcDbEntity
  8
ASSEMBLY_REF_DES_TOP
100
AcDbText
 10
35.75455
 20
111.8525
 30
0.0
 40
0.7
  1
R53
 50
270.0
  7
GOST_TYPE_B
 72
         1
 11
36.1
 21
111.1
 31
0.0
100
AcDbText
 73
         2
  0
TEXT
  5
2BB
100
AcDbEntity
  8
ASSEMBLY_REF_DES_TOP
100
AcDbText
 10
82.59785
 20
114.35455
 30
0.0
 40
0.7
  1
C58
  7
GOST_TYPE_B
 72
         1
 11
83.35
 21
114.7
 31
0.0
100
AcDbText
 73
         2
  0
TEXT
  5
2BC
100
AcDbEntity
  8
ASSEMBLY_REF_DES_TOP
100
AcDbText
 10
45.03725
 20
112.30455
 30
0.0
 40
0.7
  1
L4
  7
GOST_TYPE_B
 72
         1
 11
45.55
 21
112.65
 31
0.0
100
AcDbText
 73
         2
  0
TEXT
  5
2BD
100
AcDbEntity
  8
ASSEMBLY_REF_DES_TOP
100
AcDbText
 10
54.29785
 20
98.40455
 30
0.0
 40
0.7
  1
R77
  7
GOST_TYPE_B
 72
         1
 11
55.05
 21
98.75
 31
0.0
100
AcDbText
 73
         2
  0
TEXT
  5
2BE
100
AcDbEntity
  8
ASSEMBLY_REF_DES_TOP
100
AcDbText
 10
76.61645
 20
127.35455
 30
0.0
 40
0.7
  1
C41
  7
GOST_TYPE_B
 72
         1
 11
77.3
 21
127.7
 31
0.0
100
AcDbText
 73
         2
  0
TEXT
  5
2BF
100
AcDbEntity
  8
ASSEMBLY_REF_DES_TOP
100
AcDbText
 10
82.5139
 20
115.75455
 30
0.0
 40
0.7
  1
R49
  7
GOST_TYPE_B
 72
         1
 11
83.3
 21
116.1
 31
0.0
100
AcDbText
 73
         2
  0
TEXT
  5
2C0
100
AcDbEntity
  8
ASSEMBLY_REF_DES_TOP
100
AcDbText
 10
44.65455
 20
120.2868
 30
0.0
 40
0.7
  1
R45
 50
270.0
  7
GOST_TYPE_B
 72
         1
 11
45.0
 21
119.5
 31
0.0
100
AcDbText
 73
         2
  0
TEXT
  5
2C1
100
AcDbEntity
  8
ASSEMBLY_REF_DES_TOP
100
AcDbText
 10
50.65455
 20
92.3525
 30
0.0
 40
0.7
  1
C85
 50
270.0
  7
GOST_TYPE_B
 72
         1
 11
51.0
 21
91.6
 31
0.0
100
AcDbText
 73
         2
  0
TEXT
  5
2C2
100
AcDbEntity
  8
ASSEMBLY_REF_DES_TOP
100
AcDbText
 10
45.6318
 20
128.00455
 30
0.0
 40
0.7
  1
C36
  7
GOST_TYPE_B
 72
         1
 11
46.35
 21
128.35
 31
0.0
100
AcDbText
 73
         2
  0
TEXT
  5
2C3
100
AcDbEntity
  8
ASSEMBLY_REF_DES_TOP
100
AcDbText
 10
80.34785
 20
122.45455
 30
0.0
 40
0.7
  1
R36
  7
GOST_TYPE_B
 72
         1
 11
81.1
 21
122.8
 31
0.0
100
AcDbText
 73
         2
  0
TEXT
  5
2C4
100
AcDbEntity
  8
ASSEMBLY_REF_DES_TOP
100
AcDbText
 10
39.0639
 20
90.50455
 30
0.0
 40
0.7
  1
R83
  7
GOST_TYPE_B
 72
         1
 11
39.85
 21
90.85
 31
0.0
100
AcDbText
 73
         2
  0
TEXT
  5
2C5
100
AcDbEntity
  8
ASSEMBLY_REF_DES_TOP
100
AcDbText
 10
80.25455
 20
117.7182
 30
0.0
 40
0.7
  1
C55
 50
270.0
  7
GOST_TYPE_B
 72
         1
 11
80.6
 21
117.0
 31
0.0
100
AcDbText
 73
         2
  0
TEXT
  5
2C6
100
AcDbEntity
  8
ASSEMBLY_REF_DES_TOP
100
AcDbText
 10
72.380188
 20
110.196288
 30
0.0
 40
0.7
  1
ZQ1
 50
270.0
  7
GOST_TYPE_B
 72
         1
 11
72.725638
 21
109.410188
 31
0.0
100
AcDbText
 73
         2
  0
TEXT
  5
2C7
100
AcDbEntity
  8
ASSEMBLY_REF_DES_TOP
100
AcDbText
 10
70.00455
 20
137.8682
 30
0.0
 40
0.7
  1
C33
 50
270.0
  7
GOST_TYPE_B
 72
         1
 11
70.35
 21
137.15
 31
0.0
100
AcDbText
 73
         2
  0
TEXT
  5
2C8
100
AcDbEntity
  8
ASSEMBLY_REF_DES_TOP
100
AcDbText
 10
35.314075
 20
135.896325
 30
0.0
 40
0.7
  1
T1
  7
GOST_TYPE_B
 72
         1
 11
35.758225
 21
136.241775
 31
0.0
100
AcDbText
 73
         2
  0
TEXT
  5
2C9
100
AcDbEntity
  8
ASSEMBLY_REF_DES_TOP
100
AcDbText
 10
81.45455
 20
105.62075
 30
0.0
 40
0.7
  1
DA6
 50
270.0
  7
GOST_TYPE_B
 72
         1
 11
81.8
 21
104.8
 31
0.0
100
AcDbText
 73
         2
  0
LWPOLYLINE
  5
2CA
100
AcDbEntity
  8
BOARD_OUTLINE
100
AcDbPolyline
 90
        4
 70
         1
 43
0.1
 10
24.2
 20
79.8
 10
24.2
 20
158.8
 10
85.7
 20
158.8
 10
85.7
 20
79.8
  0
CIRCLE
  5
2CB
100
AcDbEntity
  8
MOUNTING_HOLES_LAYER_TOP
100
AcDbCircle
 10
29.0
 20
108.2
 30
0.0
 40
1.25
  0
HATCH
  5
2CC
100
AcDbEntity
  8
MOUNTING_HOLES_LAYER_TOP
100
AcDbHatch
 10
0.0
 20
0.0
 30
0.0
210
0.0
220
0.0
230
1.0
  2
SOLID
 70
         1
 71
         1
 91
        1
 92
        1
 93
        1
 72
         2
 10
29.0
 20
108.2
 40
1.25
 50
0.0
 51
360.0
 73
         1
 97
        1
330
2CB
 75
         0
 76
         1
 98
        1
 10
0.0
 20
0.0
  0
CIRCLE
  5
2CD
100
AcDbEntity
  8
MOUNTING_HOLES_LAYER_TOP
100
AcDbCircle
 10
44.7
 20
156.3
 30
0.0
 40
1.5
  0
HATCH
  5
2CE
100
AcDbEntity
  8
MOUNTING_HOLES_LAYER_TOP
100
AcDbHatch
 10
0.0
 20
0.0
 30
0.0
210
0.0
220
0.0
230
1.0
  2
SOLID
 70
         1
 71
         1
 91
        1
 92
        1
 93
        1
 72
         2
 10
44.700000000000003
 20
156.30000000000001
 40
1.5
 50
0.0
 51
360.0
 73
         1
 97
        1
330
2CD
 75
         0
 76
         1
 98
        1
 10
0.0
 20
0.0
  0
CIRCLE
  5
2CF
100
AcDbEntity
  8
MOUNTING_HOLES_LAYER_TOP
100
AcDbCircle
 10
83.2
 20
82.4
 30
0.0
 40
1.5
  0
HATCH
  5
2D0
100
AcDbEntity
  8
MOUNTING_HOLES_LAYER_TOP
100
AcDbHatch
 10
0.0
 20
0.0
 30
0.0
210
0.0
220
0.0
230
1.0
  2
SOLID
 70
         1
 71
         1
 91
        1
 92
        1
 93
        1
 72
         2
 10
83.200000000000003
 20
82.400000000000006
 40
1.5
 50
0.0
 51
360.0
 73
         1
 97
        1
330
2CF
 75
         0
 76
         1
 98
        1
 10
0.0
 20
0.0
  0
CIRCLE
  5
2D1
100
AcDbEntity
  8
MOUNTING_HOLES_LAYER_TOP
100
AcDbCircle
 10
83.2
 20
134.3
 30
0.0
 40
1.5
  0
HATCH
  5
2D2
100
AcDbEntity
  8
MOUNTING_HOLES_LAYER_TOP
100
AcDbHatch
 10
0.0
 20
0.0
 30
0.0
210
0.0
220
0.0
230
1.0
  2
SOLID
 70
         1
 71
         1
 91
        1
 92
        1
 93
        1
 72
         2
 10
83.200000000000003
 20
134.30000000000001
 40
1.5
 50
0.0
 51
360.0
 73
         1
 97
        1
330
2D1
 75
         0
 76
         1
 98
        1
 10
0.0
 20
0.0
  0
CIRCLE
  5
2D3
100
AcDbEntity
  8
MOUNTING_HOLES_LAYER_TOP
100
AcDbCircle
 10
47.78
 20
82.3
 30
0.0
 40
0.75
  0
HATCH
  5
2D4
100
AcDbEntity
  8
MOUNTING_HOLES_LAYER_TOP
100
AcDbHatch
 10
0.0
 20
0.0
 30
0.0
210
0.0
220
0.0
230
1.0
  2
SOLID
 70
         1
 71
         1
 91
        1
 92
        1
 93
        1
 72
         2
 10
47.780000000000001
 20
82.299999999999997
 40
0.75
 50
0.0
 51
360.0
 73
         1
 97
        1
330
2D3
 75
         0
 76
         1
 98
        1
 10
0.0
 20
0.0
  0
CIRCLE
  5
2D5
100
AcDbEntity
  8
MOUNTING_HOLES_LAYER_TOP
100
AcDbCircle
 10
34.82
 20
82.3
 30
0.0
 40
0.75
  0
HATCH
  5
2D6
100
AcDbEntity
  8
MOUNTING_HOLES_LAYER_TOP
100
AcDbHatch
 10
0.0
 20
0.0
 30
0.0
210
0.0
220
0.0
230
1.0
  2
SOLID
 70
         1
 71
         1
 91
        1
 92
        1
 93
        1
 72
         2
 10
34.82
 20
82.299999999999997
 40
0.75
 50
0.0
 51
360.0
 73
         1
 97
        1
330
2D5
 75
         0
 76
         1
 98
        1
 10
0.0
 20
0.0
  0
CIRCLE
  5
2D7
100
AcDbEntity
  8
MOUNTING_HOLES_LAYER_TOP
100
AcDbCircle
 10
69.1
 20
101.6
 30
0.0
 40
0.75
  0
HATCH
  5
2D8
100
AcDbEntity
  8
MOUNTING_HOLES_LAYER_TOP
100
AcDbHatch
 10
0.0
 20
0.0
 30
0.0
210
0.0
220
0.0
230
1.0
  2
SOLID
 70
         1
 71
         1
 91
        1
 92
        1
 93
        1
 72
         2
 10
69.099999999999994
 20
101.59999999999999
 40
0.75
 50
0.0
 51
360.0
 73
         1
 97
        1
330
2D7
 75
         0
 76
         1
 98
        1
 10
0.0
 20
0.0
  0
CIRCLE
  5
2D9
100
AcDbEntity
  8
MOUNTING_HOLES_LAYER_TOP
100
AcDbCircle
 10
69.1
 20
91.6
 30
0.0
 40
0.75
  0
HATCH
  5
2DA
100
AcDbEntity
  8
MOUNTING_HOLES_LAYER_TOP
100
AcDbHatch
 10
0.0
 20
0.0
 30
0.0
210
0.0
220
0.0
230
1.0
  2
SOLID
 70
         1
 71
         1
 91
        1
 92
        1
 93
        1
 72
         2
 10
69.099999999999994
 20
91.599999999999994
 40
0.75
 50
0.0
 51
360.0
 73
         1
 97
        1
330
2D9
 75
         0
 76
         1
 98
        1
 10
0.0
 20
0.0
  0
CIRCLE
  5
2DB
100
AcDbEntity
  8
MOUNTING_HOLES_LAYER_TOP
100
AcDbCircle
 10
26.78
 20
113.6
 30
0.0
 40
0.65
  0
HATCH
  5
2DC
100
AcDbEntity
  8
MOUNTING_HOLES_LAYER_TOP
100
AcDbHatch
 10
0.0
 20
0.0
 30
0.0
210
0.0
220
0.0
230
1.0
  2
SOLID
 70
         1
 71
         1
 91
        1
 92
        1
 93
        1
 72
         2
 10
26.780000000000001
 20
113.59999999999999
 40
0.65
 50
0.0
 51
360.0
 73
         1
 97
        1
330
2DB
 75
         0
 76
         1
 98
        1
 10
0.0
 20
0.0
  0
CIRCLE
  5
2DD
100
AcDbEntity
  8
MOUNTING_HOLES_LAYER_TOP
100
AcDbCircle
 10
26.78
 20
122.6
 30
0.0
 40
0.65
  0
HATCH
  5
2DE
100
AcDbEntity
  8
MOUNTING_HOLES_LAYER_TOP
100
AcDbHatch
 10
0.0
 20
0.0
 30
0.0
210
0.0
220
0.0
230
1.0
  2
SOLID
 70
         1
 71
         1
 91
        1
 92
        1
 93
        1
 72
         2
 10
26.780000000000001
 20
122.59999999999999
 40
0.65
 50
0.0
 51
360.0
 73
         1
 97
        1
330
2DD
 75
         0
 76
         1
 98
        1
 10
0.0
 20
0.0
  0
CIRCLE
  5
2DF
100
AcDbEntity
  8
MOUNTING_HOLES_LAYER_TOP
100
AcDbCircle
 10
32.3
 20
97.6
 30
0.0
 40
0.65
  0
HATCH
  5
2E0
100
AcDbEntity
  8
MOUNTING_HOLES_LAYER_TOP
100
AcDbHatch
 10
0.0
 20
0.0
 30
0.0
210
0.0
220
0.0
230
1.0
  2
SOLID
 70
         1
 71
         1
 91
        1
 92
        1
 93
        1
 72
         2
 10
32.299999999999997
 20
97.599999999999994
 40
0.65
 50
0.0
 51
360.0
 73
         1
 97
        1
330
2DF
 75
         0
 76
         1
 98
        1
 10
0.0
 20
0.0
  0
CIRCLE
  5
2E1
100
AcDbEntity
  8
MOUNTING_HOLES_LAYER_TOP
100
AcDbCircle
 10
32.3
 20
102.6
 30
0.0
 40
0.65
  0
HATCH
  5
2E2
100
AcDbEntity
  8
MOUNTING_HOLES_LAYER_TOP
100
AcDbHatch
 10
0.0
 20
0.0
 30
0.0
210
0.0
220
0.0
230
1.0
  2
SOLID
 70
         1
 71
         1
 91
        1
 92
        1
 93
        1
 72
         2
 10
32.299999999999997
 20
102.59999999999999
 40
0.65
 50
0.0
 51
360.0
 73
         1
 97
        1
330
2E1
 75
         0
 76
         1
 98
        1
 10
0.0
 20
0.0
  0
CIRCLE
  5
2E3
100
AcDbEntity
  8
MOUNTING_HOLES_LAYER_TOP
100
AcDbCircle
 10
33.29
 20
130.44
 30
0.0
 40
1.65
  0
HATCH
  5
2E4
100
AcDbEntity
  8
MOUNTING_HOLES_LAYER_TOP
100
AcDbHatch
 10
0.0
 20
0.0
 30
0.0
210
0.0
220
0.0
230
1.0
  2
SOLID
 70
         1
 71
         1
 91
        1
 92
        1
 93
        1
 72
         2
 10
33.289999999999999
 20
130.44
 40
1.6499999999999999
 50
0.0
 51
360.0
 73
         1
 97
        1
330
2E3
 75
         0
 76
         1
 98
        1
 10
0.0
 20
0.0
  0
CIRCLE
  5
2E5
100
AcDbEntity
  8
MOUNTING_HOLES_LAYER_TOP
100
AcDbCircle
 10
33.29
 20
141.87
 30
0.0
 40
1.65
  0
HATCH
  5
2E6
100
AcDbEntity
  8
MOUNTING_HOLES_LAYER_TOP
100
AcDbHatch
 10
0.0
 20
0.0
 30
0.0
210
0.0
220
0.0
230
1.0
  2
SOLID
 70
         1
 71
         1
 91
        1
 92
        1
 93
        1
 72
         2
 10
33.289999999999999
 20
141.87
 40
1.6499999999999999
 50
0.0
 51
360.0
 73
         1
 97
        1
330
2E5
 75
         0
 76
         1
 98
        1
 10
0.0
 20
0.0
  0
CIRCLE
  5
2E7
100
AcDbEntity
  8
PART_HOLES_LAYER_TOP
100
AcDbCircle
 10
29.0
 20
83.6
 30
0.0
 40
0.45
  0
HATCH
  5
2E8
100
AcDbEntity
  8
PART_HOLES_LAYER_TOP
100
AcDbHatch
 10
0.0
 20
0.0
 30
0.0
210
0.0
220
0.0
230
1.0
  2
SOLID
 70
         1
 71
         1
 91
        1
 92
        1
 93
        1
 72
         2
 10
29.0
 20
83.599999999999994
 40
0.45
 50
0.0
 51
360.0
 73
         1
 97
        1
330
2E7
 75
         0
 76
         1
 98
        1
 10
0.0
 20
0.0
  0
CIRCLE
  5
2E9
100
AcDbEntity
  8
PART_HOLES_LAYER_TOP
100
AcDbCircle
 10
29.0
 20
88.0
 30
0.0
 40
0.45
  0
HATCH
  5
2EA
100
AcDbEntity
  8
PART_HOLES_LAYER_TOP
100
AcDbHatch
 10
0.0
 20
0.0
 30
0.0
210
0.0
220
0.0
230
1.0
  2
SOLID
 70
         1
 71
         1
 91
        1
 92
        1
 93
        1
 72
         2
 10
29.0
 20
88.0
 40
0.45
 50
0.0
 51
360.0
 73
         1
 97
        1
330
2E9
 75
         0
 76
         1
 98
        1
 10
0.0
 20
0.0
  0
CIRCLE
  5
2EB
100
AcDbEntity
  8
PART_HOLES_LAYER_TOP
100
AcDbCircle
 10
27.4
 20
151.4
 30
0.0
 40
0.8
  0
HATCH
  5
2EC
100
AcDbEntity
  8
PART_HOLES_LAYER_TOP
100
AcDbHatch
 10
0.0
 20
0.0
 30
0.0
210
0.0
220
0.0
230
1.0
  2
SOLID
 70
         1
 71
         1
 91
        1
 92
        1
 93
        1
 72
         2
 10
27.399999999999999
 20
151.40000000000001
 40
0.8
 50
0.0
 51
360.0
 73
         1
 97
        1
330
2EB
 75
         0
 76
         1
 98
        1
 10
0.0
 20
0.0
  0
CIRCLE
  5
2ED
100
AcDbEntity
  8
PART_HOLES_LAYER_TOP
100
AcDbCircle
 10
31.9
 20
151.4
 30
0.0
 40
0.9
  0
HATCH
  5
2EE
100
AcDbEntity
  8
PART_HOLES_LAYER_TOP
100
AcDbHatch
 10
0.0
 20
0.0
 30
0.0
210
0.0
220
0.0
230
1.0
  2
SOLID
 70
         1
 71
         1
 91
        1
 92
        1
 93
        1
 72
         2
 10
31.899999999999999
 20
151.40000000000001
 40
0.9
 50
0.0
 51
360.0
 73
         1
 97
        1
330
2ED
 75
         0
 76
         1
 98
        1
 10
0.0
 20
0.0
  0
CIRCLE
  5
2EF
100
AcDbEntity
  8
PART_HOLES_LAYER_TOP
100
AcDbCircle
 10
44.303472
 20
93.399222
 30
0.0
 40
0.4
  0
HATCH
  5
2F0
100
AcDbEntity
  8
PART_HOLES_LAYER_TOP
100
AcDbHatch
 10
0.0
 20
0.0
 30
0.0
210
0.0
220
0.0
230
1.0
  2
SOLID
 70
         1
 71
         1
 91
        1
 92
        1
 93
        1
 72
         2
 10
44.303471999999999
 20
93.399221999999995
 40
0.4
 50
0.0
 51
360.0
 73
         1
 97
        1
330
2EF
 75
         0
 76
         1
 98
        1
 10
0.0
 20
0.0
  0
CIRCLE
  5
2F1
100
AcDbEntity
  8
PART_HOLES_LAYER_TOP
100
AcDbCircle
 10
42.303472
 20
105.399222
 30
0.0
 40
0.4
  0
HATCH
  5
2F2
100
AcDbEntity
  8
PART_HOLES_LAYER_TOP
100
AcDbHatch
 10
0.0
 20
0.0
 30
0.0
210
0.0
220
0.0
230
1.0
  2
SOLID
 70
         1
 71
         1
 91
        1
 92
        1
 93
        1
 72
         2
 10
42.303471999999999
 20
105.39922199999999
 40
0.4
 50
0.0
 51
360.0
 73
         1
 97
        1
330
2F1
 75
         0
 76
         1
 98
        1
 10
0.0
 20
0.0
  0
CIRCLE
  5
2F3
100
AcDbEntity
  8
PART_HOLES_LAYER_TOP
100
AcDbCircle
 10
44.303472
 20
97.399222
 30
0.0
 40
0.4
  0
HATCH
  5
2F4
100
AcDbEntity
  8
PART_HOLES_LAYER_TOP
100
AcDbHatch
 10
0.0
 20
0.0
 30
0.0
210
0.0
220
0.0
230
1.0
  2
SOLID
 70
         1
 71
         1
 91
        1
 92
        1
 93
        1
 72
         2
 10
44.303471999999999
 20
97.399221999999995
 40
0.4
 50
0.0
 51
360.0
 73
         1
 97
        1
330
2F3
 75
         0
 76
         1
 98
        1
 10
0.0
 20
0.0
  0
CIRCLE
  5
2F5
100
AcDbEntity
  8
PART_HOLES_LAYER_TOP
100
AcDbCircle
 10
44.303472
 20
95.399222
 30
0.0
 40
0.4
  0
HATCH
  5
2F6
100
AcDbEntity
  8
PART_HOLES_LAYER_TOP
100
AcDbHatch
 10
0.0
 20
0.0
 30
0.0
210
0.0
220
0.0
230
1.0
  2
SOLID
 70
         1
 71
         1
 91
        1
 92
        1
 93
        1
 72
         2
 10
44.303471999999999
 20
95.399221999999995
 40
0.4
 50
0.0
 51
360.0
 73
         1
 97
        1
330
2F5
 75
         0
 76
         1
 98
        1
 10
0.0
 20
0.0
  0
CIRCLE
  5
2F7
100
AcDbEntity
  8
PART_HOLES_LAYER_TOP
100
AcDbCircle
 10
42.303472
 20
95.399222
 30
0.0
 40
0.4
  0
HATCH
  5
2F8
100
AcDbEntity
  8
PART_HOLES_LAYER_TOP
100
AcDbHatch
 10
0.0
 20
0.0
 30
0.0
210
0.0
220
0.0
230
1.0
  2
SOLID
 70
         1
 71
         1
 91
        1
 92
        1
 93
        1
 72
         2
 10
42.303471999999999
 20
95.399221999999995
 40
0.4
 50
0.0
 51
360.0
 73
         1
 97
        1
330
2F7
 75
         0
 76
         1
 98
        1
 10
0.0
 20
0.0
  0
CIRCLE
  5
2F9
100
AcDbEntity
  8
PART_HOLES_LAYER_TOP
100
AcDbCircle
 10
42.303472
 20
97.399222
 30
0.0
 40
0.4
  0
HATCH
  5
2FA
100
AcDbEntity
  8
PART_HOLES_LAYER_TOP
100
AcDbHatch
 10
0.0
 20
0.0
 30
0.0
210
0.0
220
0.0
230
1.0
  2
SOLID
 70
         1
 71
         1
 91
        1
 92
        1
 93
        1
 72
         2
 10
42.303471999999999
 20
97.399221999999995
 40
0.4
 50
0.0
 51
360.0
 73
         1
 97
        1
330
2F9
 75
         0
 76
         1
 98
        1
 10
0.0
 20
0.0
  0
CIRCLE
  5
2FB
100
AcDbEntity
  8
PART_HOLES_LAYER_TOP
100
AcDbCircle
 10
42.303472
 20
99.399222
 30
0.0
 40
0.4
  0
HATCH
  5
2FC
100
AcDbEntity
  8
PART_HOLES_LAYER_TOP
100
AcDbHatch
 10
0.0
 20
0.0
 30
0.0
210
0.0
220
0.0
230
1.0
  2
SOLID
 70
         1
 71
         1
 91
        1
 92
        1
 93
        1
 72
         2
 10
42.303471999999999
 20
99.399221999999995
 40
0.4
 50
0.0
 51
360.0
 73
         1
 97
        1
330
2FB
 75
         0
 76
         1
 98
        1
 10
0.0
 20
0.0
  0
CIRCLE
  5
2FD
100
AcDbEntity
  8
PART_HOLES_LAYER_TOP
100
AcDbCircle
 10
44.303472
 20
99.399222
 30
0.0
 40
0.4
  0
HATCH
  5
2FE
100
AcDbEntity
  8
PART_HOLES_LAYER_TOP
100
AcDbHatch
 10
0.0
 20
0.0
 30
0.0
210
0.0
220
0.0
230
1.0
  2
SOLID
 70
         1
 71
         1
 91
        1
 92
        1
 93
        1
 72
         2
 10
44.303471999999999
 20
99.399221999999995
 40
0.4
 50
0.0
 51
360.0
 73
         1
 97
        1
330
2FD
 75
         0
 76
         1
 98
        1
 10
0.0
 20
0.0
  0
CIRCLE
  5
2FF
100
AcDbEntity
  8
PART_HOLES_LAYER_TOP
100
AcDbCircle
 10
44.303472
 20
103.399222
 30
0.0
 40
0.4
  0
HATCH
  5
300
100
AcDbEntity
  8
PART_HOLES_LAYER_TOP
100
AcDbHatch
 10
0.0
 20
0.0
 30
0.0
210
0.0
220
0.0
230
1.0
  2
SOLID
 70
         1
 71
         1
 91
        1
 92
        1
 93
        1
 72
         2
 10
44.303471999999999
 20
103.39922199999999
 40
0.4
 50
0.0
 51
360.0
 73
         1
 97
        1
330
2FF
 75
         0
 76
         1
 98
        1
 10
0.0
 20
0.0
  0
CIRCLE
  5
301
100
AcDbEntity
  8
PART_HOLES_LAYER_TOP
100
AcDbCircle
 10
42.303472
 20
93.399222
 30
0.0
 40
0.4
  0
HATCH
  5
302
100
AcDbEntity
  8
PART_HOLES_LAYER_TOP
100
AcDbHatch
 10
0.0
 20
0.0
 30
0.0
210
0.0
220
0.0
230
1.0
  2
SOLID
 70
         1
 71
         1
 91
        1
 92
        1
 93
        1
 72
         2
 10
42.303471999999999
 20
93.399221999999995
 40
0.4
 50
0.0
 51
360.0
 73
         1
 97
        1
330
301
 75
         0
 76
         1
 98
        1
 10
0.0
 20
0.0
  0
CIRCLE
  5
303
100
AcDbEntity
  8
PART_HOLES_LAYER_TOP
100
AcDbCircle
 10
42.303472
 20
101.399222
 30
0.0
 40
0.4
  0
HATCH
  5
304
100
AcDbEntity
  8
PART_HOLES_LAYER_TOP
100
AcDbHatch
 10
0.0
 20
0.0
 30
0.0
210
0.0
220
0.0
230
1.0
  2
SOLID
 70
         1
 71
         1
 91
        1
 92
        1
 93
        1
 72
         2
 10
42.303471999999999
 20
101.39922199999999
 40
0.4
 50
0.0
 51
360.0
 73
         1
 97
        1
330
303
 75
         0
 76
         1
 98
        1
 10
0.0
 20
0.0
  0
CIRCLE
  5
305
100
AcDbEntity
  8
PART_HOLES_LAYER_TOP
100
AcDbCircle
 10
44.303472
 20
105.399222
 30
0.0
 40
0.4
  0
HATCH
  5
306
100
AcDbEntity
  8
PART_HOLES_LAYER_TOP
100
AcDbHatch
 10
0.0
 20
0.0
 30
0.0
210
0.0
220
0.0
230
1.0
  2
SOLID
 70
         1
 71
         1
 91
        1
 92
        1
 93
        1
 72
         2
 10
44.303471999999999
 20
105.39922199999999
 40
0.4
 50
0.0
 51
360.0
 73
         1
 97
        1
330
305
 75
         0
 76
         1
 98
        1
 10
0.0
 20
0.0
  0
CIRCLE
  5
307
100
AcDbEntity
  8
PART_HOLES_LAYER_TOP
100
AcDbCircle
 10
42.303472
 20
103.399222
 30
0.0
 40
0.4
  0
HATCH
  5
308
100
AcDbEntity
  8
PART_HOLES_LAYER_TOP
100
AcDbHatch
 10
0.0
 20
0.0
 30
0.0
210
0.0
220
0.0
230
1.0
  2
SOLID
 70
         1
 71
         1
 91
        1
 92
        1
 93
        1
 72
         2
 10
42.303471999999999
 20
103.39922199999999
 40
0.4
 50
0.0
 51
360.0
 73
         1
 97
        1
330
307
 75
         0
 76
         1
 98
        1
 10
0.0
 20
0.0
  0
CIRCLE
  5
309
100
AcDbEntity
  8
PART_HOLES_LAYER_TOP
100
AcDbCircle
 10
44.303472
 20
101.399222
 30
0.0
 40
0.4
  0
HATCH
  5
30A
100
AcDbEntity
  8
PART_HOLES_LAYER_TOP
100
AcDbHatch
 10
0.0
 20
0.0
 30
0.0
210
0.0
220
0.0
230
1.0
  2
SOLID
 70
         1
 71
         1
 91
        1
 92
        1
 93
        1
 72
         2
 10
44.303471999999999
 20
101.39922199999999
 40
0.4
 50
0.0
 51
360.0
 73
         1
 97
        1
330
309
 75
         0
 76
         1
 98
        1
 10
0.0
 20
0.0
  0
CIRCLE
  5
30B
100
AcDbEntity
  8
PART_HOLES_LAYER_TOP
100
AcDbCircle
 10
41.3
 20
82.8
 30
0.0
 40
0.35
  0
HATCH
  5
30C
100
AcDbEntity
  8
PART_HOLES_LAYER_TOP
100
AcDbHatch
 10
0.0
 20
0.0
 30
0.0
210
0.0
220
0.0
230
1.0
  2
SOLID
 70
         1
 71
         1
 91
        1
 92
        1
 93
        1
 72
         2
 10
41.299999999999997
 20
82.799999999999997
 40
0.35
 50
0.0
 51
360.0
 73
         1
 97
        1
330
30B
 75
         0
 76
         1
 98
        1
 10
0.0
 20
0.0
  0
CIRCLE
  5
30D
100
AcDbEntity
  8
PART_HOLES_LAYER_TOP
100
AcDbCircle
 10
37.49
 20
82.8
 30
0.0
 40
0.35
  0
HATCH
  5
30E
100
AcDbEntity
  8
PART_HOLES_LAYER_TOP
100
AcDbHatch
 10
0.0
 20
0.0
 30
0.0
210
0.0
220
0.0
230
1.0
  2
SOLID
 70
         1
 71
         1
 91
        1
 92
        1
 93
        1
 72
         2
 10
37.490000000000002
 20
82.799999999999997
 40
0.35
 50
0.0
 51
360.0
 73
         1
 97
        1
330
30D
 75
         0
 76
         1
 98
        1
 10
0.0
 20
0.0
  0
CIRCLE
  5
30F
100
AcDbEntity
  8
PART_HOLES_LAYER_TOP
100
AcDbCircle
 10
45.11
 20
82.8
 30
0.0
 40
0.35
  0
HATCH
  5
310
100
AcDbEntity
  8
PART_HOLES_LAYER_TOP
100
AcDbHatch
 10
0.0
 20
0.0
 30
0.0
210
0.0
220
0.0
230
1.0
  2
SOLID
 70
         1
 71
         1
 91
        1
 92
        1
 93
        1
 72
         2
 10
45.109999999999999
 20
82.799999999999997
 40
0.35
 50
0.0
 51
360.0
 73
         1
 97
        1
330
30F
 75
         0
 76
         1
 98
        1
 10
0.0
 20
0.0
  0
CIRCLE
  5
311
100
AcDbEntity
  8
PART_HOLES_LAYER_TOP
100
AcDbCircle
 10
40.031028
 20
81.797983
 30
0.0
 40
0.35
  0
HATCH
  5
312
100
AcDbEntity
  8
PART_HOLES_LAYER_TOP
100
AcDbHatch
 10
0.0
 20
0.0
 30
0.0
210
0.0
220
0.0
230
1.0
  2
SOLID
 70
         1
 71
         1
 91
        1
 92
        1
 93
        1
 72
         2
 10
40.031027999999999
 20
81.797983000000002
 40
0.35
 50
0.0
 51
360.0
 73
         1
 97
        1
330
311
 75
         0
 76
         1
 98
        1
 10
0.0
 20
0.0
  0
CIRCLE
  5
313
100
AcDbEntity
  8
PART_HOLES_LAYER_TOP
100
AcDbCircle
 10
38.761028
 20
81.797983
 30
0.0
 40
0.35
  0
HATCH
  5
314
100
AcDbEntity
  8
PART_HOLES_LAYER_TOP
100
AcDbHatch
 10
0.0
 20
0.0
 30
0.0
210
0.0
220
0.0
230
1.0
  2
SOLID
 70
         1
 71
         1
 91
        1
 92
        1
 93
        1
 72
         2
 10
38.761028000000003
 20
81.797983000000002
 40
0.35
 50
0.0
 51
360.0
 73
         1
 97
        1
330
313
 75
         0
 76
         1
 98
        1
 10
0.0
 20
0.0
  0
CIRCLE
  5
315
100
AcDbEntity
  8
PART_HOLES_LAYER_TOP
100
AcDbCircle
 10
42.571028
 20
81.797983
 30
0.0
 40
0.35
  0
HATCH
  5
316
100
AcDbEntity
  8
PART_HOLES_LAYER_TOP
100
AcDbHatch
 10
0.0
 20
0.0
 30
0.0
210
0.0
220
0.0
230
1.0
  2
SOLID
 70
         1
 71
         1
 91
        1
 92
        1
 93
        1
 72
         2
 10
42.571027999999998
 20
81.797983000000002
 40
0.35
 50
0.0
 51
360.0
 73
         1
 97
        1
330
315
 75
         0
 76
         1
 98
        1
 10
0.0
 20
0.0
  0
CIRCLE
  5
317
100
AcDbEntity
  8
PART_HOLES_LAYER_TOP
100
AcDbCircle
 10
43.841028
 20
81.797983
 30
0.0
 40
0.35
  0
HATCH
  5
318
100
AcDbEntity
  8
PART_HOLES_LAYER_TOP
100
AcDbHatch
 10
0.0
 20
0.0
 30
0.0
210
0.0
220
0.0
230
1.0
  2
SOLID
 70
         1
 71
         1
 91
        1
 92
        1
 93
        1
 72
         2
 10
43.841028000000001
 20
81.797983000000002
 40
0.35
 50
0.0
 51
360.0
 73
         1
 97
        1
330
317
 75
         0
 76
         1
 98
        1
 10
0.0
 20
0.0
  0
CIRCLE
  5
319
100
AcDbEntity
  8
PART_HOLES_LAYER_TOP
100
AcDbCircle
 10
79.6
 20
83.0
 30
0.0
 40
0.4
  0
HATCH
  5
31A
100
AcDbEntity
  8
PART_HOLES_LAYER_TOP
100
AcDbHatch
 10
0.0
 20
0.0
 30
0.0
210
0.0
220
0.0
230
1.0
  2
SOLID
 70
         1
 71
         1
 91
        1
 92
        1
 93
        1
 72
         2
 10
79.599999999999994
 20
83.0
 40
0.4
 50
0.0
 51
360.0
 73
         1
 97
        1
330
319
 75
         0
 76
         1
 98
        1
 10
0.0
 20
0.0
  0
CIRCLE
  5
31B
100
AcDbEntity
  8
PART_HOLES_LAYER_TOP
100
AcDbCircle
 10
77.6
 20
81.0
 30
0.0
 40
0.4
  0
HATCH
  5
31C
100
AcDbEntity
  8
PART_HOLES_LAYER_TOP
100
AcDbHatch
 10
0.0
 20
0.0
 30
0.0
210
0.0
220
0.0
230
1.0
  2
SOLID
 70
         1
 71
         1
 91
        1
 92
        1
 93
        1
 72
         2
 10
77.599999999999994
 20
81.0
 40
0.4
 50
0.0
 51
360.0
 73
         1
 97
        1
330
31B
 75
         0
 76
         1
 98
        1
 10
0.0
 20
0.0
  0
CIRCLE
  5
31D
100
AcDbEntity
  8
PART_HOLES_LAYER_TOP
100
AcDbCircle
 10
77.6
 20
83.0
 30
0.0
 40
0.4
  0
HATCH
  5
31E
100
AcDbEntity
  8
PART_HOLES_LAYER_TOP
100
AcDbHatch
 10
0.0
 20
0.0
 30
0.0
210
0.0
220
0.0
230
1.0
  2
SOLID
 70
         1
 71
         1
 91
        1
 92
        1
 93
        1
 72
         2
 10
77.599999999999994
 20
83.0
 40
0.4
 50
0.0
 51
360.0
 73
         1
 97
        1
330
31D
 75
         0
 76
         1
 98
        1
 10
0.0
 20
0.0
  0
CIRCLE
  5
31F
100
AcDbEntity
  8
PART_HOLES_LAYER_TOP
100
AcDbCircle
 10
79.6
 20
81.0
 30
0.0
 40
0.4
  0
HATCH
  5
320
100
AcDbEntity
  8
PART_HOLES_LAYER_TOP
100
AcDbHatch
 10
0.0
 20
0.0
 30
0.0
210
0.0
220
0.0
230
1.0
  2
SOLID
 70
         1
 71
         1
 91
        1
 92
        1
 93
        1
 72
         2
 10
79.599999999999994
 20
81.0
 40
0.4
 50
0.0
 51
360.0
 73
         1
 97
        1
330
31F
 75
         0
 76
         1
 98
        1
 10
0.0
 20
0.0
  0
CIRCLE
  5
321
100
AcDbEntity
  8
PART_HOLES_LAYER_TOP
100
AcDbCircle
 10
34.0
 20
86.5
 30
0.0
 40
0.4
  0
HATCH
  5
322
100
AcDbEntity
  8
PART_HOLES_LAYER_TOP
100
AcDbHatch
 10
0.0
 20
0.0
 30
0.0
210
0.0
220
0.0
230
1.0
  2
SOLID
 70
         1
 71
         1
 91
        1
 92
        1
 93
        1
 72
         2
 10
34.0
 20
86.5
 40
0.4
 50
0.0
 51
360.0
 73
         1
 97
        1
330
321
 75
         0
 76
         1
 98
        1
 10
0.0
 20
0.0
  0
CIRCLE
  5
323
100
AcDbEntity
  8
PART_HOLES_LAYER_TOP
100
AcDbCircle
 10
36.0
 20
86.5
 30
0.0
 40
0.4
  0
HATCH
  5
324
100
AcDbEntity
  8
PART_HOLES_LAYER_TOP
100
AcDbHatch
 10
0.0
 20
0.0
 30
0.0
210
0.0
220
0.0
230
1.0
  2
SOLID
 70
         1
 71
         1
 91
        1
 92
        1
 93
        1
 72
         2
 10
36.0
 20
86.5
 40
0.4
 50
0.0
 51
360.0
 73
         1
 97
        1
330
323
 75
         0
 76
         1
 98
        1
 10
0.0
 20
0.0
  0
CIRCLE
  5
325
100
AcDbEntity
  8
PART_HOLES_LAYER_TOP
100
AcDbCircle
 10
36.0
 20
88.5
 30
0.0
 40
0.4
  0
HATCH
  5
326
100
AcDbEntity
  8
PART_HOLES_LAYER_TOP
100
AcDbHatch
 10
0.0
 20
0.0
 30
0.0
210
0.0
220
0.0
230
1.0
  2
SOLID
 70
         1
 71
         1
 91
        1
 92
        1
 93
        1
 72
         2
 10
36.0
 20
88.5
 40
0.4
 50
0.0
 51
360.0
 73
         1
 97
        1
330
325
 75
         0
 76
         1
 98
        1
 10
0.0
 20
0.0
  0
CIRCLE
  5
327
100
AcDbEntity
  8
PART_HOLES_LAYER_TOP
100
AcDbCircle
 10
54.0
 20
88.5
 30
0.0
 40
0.4
  0
HATCH
  5
328
100
AcDbEntity
  8
PART_HOLES_LAYER_TOP
100
AcDbHatch
 10
0.0
 20
0.0
 30
0.0
210
0.0
220
0.0
230
1.0
  2
SOLID
 70
         1
 71
         1
 91
        1
 92
        1
 93
        1
 72
         2
 10
54.0
 20
88.5
 40
0.4
 50
0.0
 51
360.0
 73
         1
 97
        1
330
327
 75
         0
 76
         1
 98
        1
 10
0.0
 20
0.0
  0
CIRCLE
  5
329
100
AcDbEntity
  8
PART_HOLES_LAYER_TOP
100
AcDbCircle
 10
64.0
 20
86.5
 30
0.0
 40
0.4
  0
HATCH
  5
32A
100
AcDbEntity
  8
PART_HOLES_LAYER_TOP
100
AcDbHatch
 10
0.0
 20
0.0
 30
0.0
210
0.0
220
0.0
230
1.0
  2
SOLID
 70
         1
 71
         1
 91
        1
 92
        1
 93
        1
 72
         2
 10
64.0
 20
86.5
 40
0.4
 50
0.0
 51
360.0
 73
         1
 97
        1
330
329
 75
         0
 76
         1
 98
        1
 10
0.0
 20
0.0
  0
CIRCLE
  5
32B
100
AcDbEntity
  8
PART_HOLES_LAYER_TOP
100
AcDbCircle
 10
68.0
 20
88.5
 30
0.0
 40
0.4
  0
HATCH
  5
32C
100
AcDbEntity
  8
PART_HOLES_LAYER_TOP
100
AcDbHatch
 10
0.0
 20
0.0
 30
0.0
210
0.0
220
0.0
230
1.0
  2
SOLID
 70
         1
 71
         1
 91
        1
 92
        1
 93
        1
 72
         2
 10
68.0
 20
88.5
 40
0.4
 50
0.0
 51
360.0
 73
         1
 97
        1
330
32B
 75
         0
 76
         1
 98
        1
 10
0.0
 20
0.0
  0
CIRCLE
  5
32D
100
AcDbEntity
  8
PART_HOLES_LAYER_TOP
100
AcDbCircle
 10
70.0
 20
86.5
 30
0.0
 40
0.4
  0
HATCH
  5
32E
100
AcDbEntity
  8
PART_HOLES_LAYER_TOP
100
AcDbHatch
 10
0.0
 20
0.0
 30
0.0
210
0.0
220
0.0
230
1.0
  2
SOLID
 70
         1
 71
         1
 91
        1
 92
        1
 93
        1
 72
         2
 10
70.0
 20
86.5
 40
0.4
 50
0.0
 51
360.0
 73
         1
 97
        1
330
32D
 75
         0
 76
         1
 98
        1
 10
0.0
 20
0.0
  0
CIRCLE
  5
32F
100
AcDbEntity
  8
PART_HOLES_LAYER_TOP
100
AcDbCircle
 10
34.0
 20
88.5
 30
0.0
 40
0.4
  0
HATCH
  5
330
100
AcDbEntity
  8
PART_HOLES_LAYER_TOP
100
AcDbHatch
 10
0.0
 20
0.0
 30
0.0
210
0.0
220
0.0
230
1.0
  2
SOLID
 70
         1
 71
         1
 91
        1
 92
        1
 93
        1
 72
         2
 10
34.0
 20
88.5
 40
0.4
 50
0.0
 51
360.0
 73
         1
 97
        1
330
32F
 75
         0
 76
         1
 98
        1
 10
0.0
 20
0.0
  0
CIRCLE
  5
331
100
AcDbEntity
  8
PART_HOLES_LAYER_TOP
100
AcDbCircle
 10
68.0
 20
86.5
 30
0.0
 40
0.4
  0
HATCH
  5
332
100
AcDbEntity
  8
PART_HOLES_LAYER_TOP
100
AcDbHatch
 10
0.0
 20
0.0
 30
0.0
210
0.0
220
0.0
230
1.0
  2
SOLID
 70
         1
 71
         1
 91
        1
 92
        1
 93
        1
 72
         2
 10
68.0
 20
86.5
 40
0.4
 50
0.0
 51
360.0
 73
         1
 97
        1
330
331
 75
         0
 76
         1
 98
        1
 10
0.0
 20
0.0
  0
CIRCLE
  5
333
100
AcDbEntity
  8
PART_HOLES_LAYER_TOP
100
AcDbCircle
 10
70.0
 20
88.5
 30
0.0
 40
0.4
  0
HATCH
  5
334
100
AcDbEntity
  8
PART_HOLES_LAYER_TOP
100
AcDbHatch
 10
0.0
 20
0.0
 30
0.0
210
0.0
220
0.0
230
1.0
  2
SOLID
 70
         1
 71
         1
 91
        1
 92
        1
 93
        1
 72
         2
 10
70.0
 20
88.5
 40
0.4
 50
0.0
 51
360.0
 73
         1
 97
        1
330
333
 75
         0
 76
         1
 98
        1
 10
0.0
 20
0.0
  0
CIRCLE
  5
335
100
AcDbEntity
  8
PART_HOLES_LAYER_TOP
100
AcDbCircle
 10
72.0
 20
86.5
 30
0.0
 40
0.4
  0
HATCH
  5
336
100
AcDbEntity
  8
PART_HOLES_LAYER_TOP
100
AcDbHatch
 10
0.0
 20
0.0
 30
0.0
210
0.0
220
0.0
230
1.0
  2
SOLID
 70
         1
 71
         1
 91
        1
 92
        1
 93
        1
 72
         2
 10
72.0
 20
86.5
 40
0.4
 50
0.0
 51
360.0
 73
         1
 97
        1
330
335
 75
         0
 76
         1
 98
        1
 10
0.0
 20
0.0
  0
CIRCLE
  5
337
100
AcDbEntity
  8
PART_HOLES_LAYER_TOP
100
AcDbCircle
 10
40.0
 20
88.5
 30
0.0
 40
0.4
  0
HATCH
  5
338
100
AcDbEntity
  8
PART_HOLES_LAYER_TOP
100
AcDbHatch
 10
0.0
 20
0.0
 30
0.0
210
0.0
220
0.0
230
1.0
  2
SOLID
 70
         1
 71
         1
 91
        1
 92
        1
 93
        1
 72
         2
 10
40.0
 20
88.5
 40
0.4
 50
0.0
 51
360.0
 73
         1
 97
        1
330
337
 75
         0
 76
         1
 98
        1
 10
0.0
 20
0.0
  0
CIRCLE
  5
339
100
AcDbEntity
  8
PART_HOLES_LAYER_TOP
100
AcDbCircle
 10
42.0
 20
88.5
 30
0.0
 40
0.4
  0
HATCH
  5
33A
100
AcDbEntity
  8
PART_HOLES_LAYER_TOP
100
AcDbHatch
 10
0.0
 20
0.0
 30
0.0
210
0.0
220
0.0
230
1.0
  2
SOLID
 70
         1
 71
         1
 91
        1
 92
        1
 93
        1
 72
         2
 10
42.0
 20
88.5
 40
0.4
 50
0.0
 51
360.0
 73
         1
 97
        1
330
339
 75
         0
 76
         1
 98
        1
 10
0.0
 20
0.0
  0
CIRCLE
  5
33B
100
AcDbEntity
  8
PART_HOLES_LAYER_TOP
100
AcDbCircle
 10
40.0
 20
86.5
 30
0.0
 40
0.4
  0
HATCH
  5
33C
100
AcDbEntity
  8
PART_HOLES_LAYER_TOP
100
AcDbHatch
 10
0.0
 20
0.0
 30
0.0
210
0.0
220
0.0
230
1.0
  2
SOLID
 70
         1
 71
         1
 91
        1
 92
        1
 93
        1
 72
         2
 10
40.0
 20
86.5
 40
0.4
 50
0.0
 51
360.0
 73
         1
 97
        1
330
33B
 75
         0
 76
         1
 98
        1
 10
0.0
 20
0.0
  0
CIRCLE
  5
33D
100
AcDbEntity
  8
PART_HOLES_LAYER_TOP
100
AcDbCircle
 10
60.0
 20
86.5
 30
0.0
 40
0.4
  0
HATCH
  5
33E
100
AcDbEntity
  8
PART_HOLES_LAYER_TOP
100
AcDbHatch
 10
0.0
 20
0.0
 30
0.0
210
0.0
220
0.0
230
1.0
  2
SOLID
 70
         1
 71
         1
 91
        1
 92
        1
 93
        1
 72
         2
 10
60.0
 20
86.5
 40
0.4
 50
0.0
 51
360.0
 73
         1
 97
        1
330
33D
 75
         0
 76
         1
 98
        1
 10
0.0
 20
0.0
  0
CIRCLE
  5
33F
100
AcDbEntity
  8
PART_HOLES_LAYER_TOP
100
AcDbCircle
 10
62.0
 20
88.5
 30
0.0
 40
0.4
  0
HATCH
  5
340
100
AcDbEntity
  8
PART_HOLES_LAYER_TOP
100
AcDbHatch
 10
0.0
 20
0.0
 30
0.0
210
0.0
220
0.0
230
1.0
  2
SOLID
 70
         1
 71
         1
 91
        1
 92
        1
 93
        1
 72
         2
 10
62.0
 20
88.5
 40
0.4
 50
0.0
 51
360.0
 73
         1
 97
        1
330
33F
 75
         0
 76
         1
 98
        1
 10
0.0
 20
0.0
  0
CIRCLE
  5
341
100
AcDbEntity
  8
PART_HOLES_LAYER_TOP
100
AcDbCircle
 10
54.0
 20
86.5
 30
0.0
 40
0.4
  0
HATCH
  5
342
100
AcDbEntity
  8
PART_HOLES_LAYER_TOP
100
AcDbHatch
 10
0.0
 20
0.0
 30
0.0
210
0.0
220
0.0
230
1.0
  2
SOLID
 70
         1
 71
         1
 91
        1
 92
        1
 93
        1
 72
         2
 10
54.0
 20
86.5
 40
0.4
 50
0.0
 51
360.0
 73
         1
 97
        1
330
341
 75
         0
 76
         1
 98
        1
 10
0.0
 20
0.0
  0
CIRCLE
  5
343
100
AcDbEntity
  8
PART_HOLES_LAYER_TOP
100
AcDbCircle
 10
56.0
 20
88.5
 30
0.0
 40
0.4
  0
HATCH
  5
344
100
AcDbEntity
  8
PART_HOLES_LAYER_TOP
100
AcDbHatch
 10
0.0
 20
0.0
 30
0.0
210
0.0
220
0.0
230
1.0
  2
SOLID
 70
         1
 71
         1
 91
        1
 92
        1
 93
        1
 72
         2
 10
56.0
 20
88.5
 40
0.4
 50
0.0
 51
360.0
 73
         1
 97
        1
330
343
 75
         0
 76
         1
 98
        1
 10
0.0
 20
0.0
  0
CIRCLE
  5
345
100
AcDbEntity
  8
PART_HOLES_LAYER_TOP
100
AcDbCircle
 10
56.0
 20
86.5
 30
0.0
 40
0.4
  0
HATCH
  5
346
100
AcDbEntity
  8
PART_HOLES_LAYER_TOP
100
AcDbHatch
 10
0.0
 20
0.0
 30
0.0
210
0.0
220
0.0
230
1.0
  2
SOLID
 70
         1
 71
         1
 91
        1
 92
        1
 93
        1
 72
         2
 10
56.0
 20
86.5
 40
0.4
 50
0.0
 51
360.0
 73
         1
 97
        1
330
345
 75
         0
 76
         1
 98
        1
 10
0.0
 20
0.0
  0
CIRCLE
  5
347
100
AcDbEntity
  8
PART_HOLES_LAYER_TOP
100
AcDbCircle
 10
58.0
 20
88.5
 30
0.0
 40
0.4
  0
HATCH
  5
348
100
AcDbEntity
  8
PART_HOLES_LAYER_TOP
100
AcDbHatch
 10
0.0
 20
0.0
 30
0.0
210
0.0
220
0.0
230
1.0
  2
SOLID
 70
         1
 71
         1
 91
        1
 92
        1
 93
        1
 72
         2
 10
58.0
 20
88.5
 40
0.4
 50
0.0
 51
360.0
 73
         1
 97
        1
330
347
 75
         0
 76
         1
 98
        1
 10
0.0
 20
0.0
  0
CIRCLE
  5
349
100
AcDbEntity
  8
PART_HOLES_LAYER_TOP
100
AcDbCircle
 10
58.0
 20
86.5
 30
0.0
 40
0.4
  0
HATCH
  5
34A
100
AcDbEntity
  8
PART_HOLES_LAYER_TOP
100
AcDbHatch
 10
0.0
 20
0.0
 30
0.0
210
0.0
220
0.0
230
1.0
  2
SOLID
 70
         1
 71
         1
 91
        1
 92
        1
 93
        1
 72
         2
 10
58.0
 20
86.5
 40
0.4
 50
0.0
 51
360.0
 73
         1
 97
        1
330
349
 75
         0
 76
         1
 98
        1
 10
0.0
 20
0.0
  0
CIRCLE
  5
34B
100
AcDbEntity
  8
PART_HOLES_LAYER_TOP
100
AcDbCircle
 10
60.0
 20
88.5
 30
0.0
 40
0.4
  0
HATCH
  5
34C
100
AcDbEntity
  8
PART_HOLES_LAYER_TOP
100
AcDbHatch
 10
0.0
 20
0.0
 30
0.0
210
0.0
220
0.0
230
1.0
  2
SOLID
 70
         1
 71
         1
 91
        1
 92
        1
 93
        1
 72
         2
 10
60.0
 20
88.5
 40
0.4
 50
0.0
 51
360.0
 73
         1
 97
        1
330
34B
 75
         0
 76
         1
 98
        1
 10
0.0
 20
0.0
  0
CIRCLE
  5
34D
100
AcDbEntity
  8
PART_HOLES_LAYER_TOP
100
AcDbCircle
 10
62.0
 20
86.5
 30
0.0
 40
0.4
  0
HATCH
  5
34E
100
AcDbEntity
  8
PART_HOLES_LAYER_TOP
100
AcDbHatch
 10
0.0
 20
0.0
 30
0.0
210
0.0
220
0.0
230
1.0
  2
SOLID
 70
         1
 71
         1
 91
        1
 92
        1
 93
        1
 72
         2
 10
62.0
 20
86.5
 40
0.4
 50
0.0
 51
360.0
 73
         1
 97
        1
330
34D
 75
         0
 76
         1
 98
        1
 10
0.0
 20
0.0
  0
CIRCLE
  5
34F
100
AcDbEntity
  8
PART_HOLES_LAYER_TOP
100
AcDbCircle
 10
64.0
 20
88.5
 30
0.0
 40
0.4
  0
HATCH
  5
350
100
AcDbEntity
  8
PART_HOLES_LAYER_TOP
100
AcDbHatch
 10
0.0
 20
0.0
 30
0.0
210
0.0
220
0.0
230
1.0
  2
SOLID
 70
         1
 71
         1
 91
        1
 92
        1
 93
        1
 72
         2
 10
64.0
 20
88.5
 40
0.4
 50
0.0
 51
360.0
 73
         1
 97
        1
330
34F
 75
         0
 76
         1
 98
        1
 10
0.0
 20
0.0
  0
CIRCLE
  5
351
100
AcDbEntity
  8
PART_HOLES_LAYER_TOP
100
AcDbCircle
 10
44.0
 20
88.5
 30
0.0
 40
0.4
  0
HATCH
  5
352
100
AcDbEntity
  8
PART_HOLES_LAYER_TOP
100
AcDbHatch
 10
0.0
 20
0.0
 30
0.0
210
0.0
220
0.0
230
1.0
  2
SOLID
 70
         1
 71
         1
 91
        1
 92
        1
 93
        1
 72
         2
 10
44.0
 20
88.5
 40
0.4
 50
0.0
 51
360.0
 73
         1
 97
        1
330
351
 75
         0
 76
         1
 98
        1
 10
0.0
 20
0.0
  0
CIRCLE
  5
353
100
AcDbEntity
  8
PART_HOLES_LAYER_TOP
100
AcDbCircle
 10
48.0
 20
86.5
 30
0.0
 40
0.4
  0
HATCH
  5
354
100
AcDbEntity
  8
PART_HOLES_LAYER_TOP
100
AcDbHatch
 10
0.0
 20
0.0
 30
0.0
210
0.0
220
0.0
230
1.0
  2
SOLID
 70
         1
 71
         1
 91
        1
 92
        1
 93
        1
 72
         2
 10
48.0
 20
86.5
 40
0.4
 50
0.0
 51
360.0
 73
         1
 97
        1
330
353
 75
         0
 76
         1
 98
        1
 10
0.0
 20
0.0
  0
CIRCLE
  5
355
100
AcDbEntity
  8
PART_HOLES_LAYER_TOP
100
AcDbCircle
 10
44.0
 20
86.5
 30
0.0
 40
0.4
  0
HATCH
  5
356
100
AcDbEntity
  8
PART_HOLES_LAYER_TOP
100
AcDbHatch
 10
0.0
 20
0.0
 30
0.0
210
0.0
220
0.0
230
1.0
  2
SOLID
 70
         1
 71
         1
 91
        1
 92
        1
 93
        1
 72
         2
 10
44.0
 20
86.5
 40
0.4
 50
0.0
 51
360.0
 73
         1
 97
        1
330
355
 75
         0
 76
         1
 98
        1
 10
0.0
 20
0.0
  0
CIRCLE
  5
357
100
AcDbEntity
  8
PART_HOLES_LAYER_TOP
100
AcDbCircle
 10
52.0
 20
88.5
 30
0.0
 40
0.4
  0
HATCH
  5
358
100
AcDbEntity
  8
PART_HOLES_LAYER_TOP
100
AcDbHatch
 10
0.0
 20
0.0
 30
0.0
210
0.0
220
0.0
230
1.0
  2
SOLID
 70
         1
 71
         1
 91
        1
 92
        1
 93
        1
 72
         2
 10
52.0
 20
88.5
 40
0.4
 50
0.0
 51
360.0
 73
         1
 97
        1
330
357
 75
         0
 76
         1
 98
        1
 10
0.0
 20
0.0
  0
CIRCLE
  5
359
100
AcDbEntity
  8
PART_HOLES_LAYER_TOP
100
AcDbCircle
 10
50.0
 20
86.5
 30
0.0
 40
0.4
  0
HATCH
  5
35A
100
AcDbEntity
  8
PART_HOLES_LAYER_TOP
100
AcDbHatch
 10
0.0
 20
0.0
 30
0.0
210
0.0
220
0.0
230
1.0
  2
SOLID
 70
         1
 71
         1
 91
        1
 92
        1
 93
        1
 72
         2
 10
50.0
 20
86.5
 40
0.4
 50
0.0
 51
360.0
 73
         1
 97
        1
330
359
 75
         0
 76
         1
 98
        1
 10
0.0
 20
0.0
  0
CIRCLE
  5
35B
100
AcDbEntity
  8
PART_HOLES_LAYER_TOP
100
AcDbCircle
 10
50.0
 20
88.5
 30
0.0
 40
0.4
  0
HATCH
  5
35C
100
AcDbEntity
  8
PART_HOLES_LAYER_TOP
100
AcDbHatch
 10
0.0
 20
0.0
 30
0.0
210
0.0
220
0.0
230
1.0
  2
SOLID
 70
         1
 71
         1
 91
        1
 92
        1
 93
        1
 72
         2
 10
50.0
 20
88.5
 40
0.4
 50
0.0
 51
360.0
 73
         1
 97
        1
330
35B
 75
         0
 76
         1
 98
        1
 10
0.0
 20
0.0
  0
CIRCLE
  5
35D
100
AcDbEntity
  8
PART_HOLES_LAYER_TOP
100
AcDbCircle
 10
46.0
 20
88.5
 30
0.0
 40
0.4
  0
HATCH
  5
35E
100
AcDbEntity
  8
PART_HOLES_LAYER_TOP
100
AcDbHatch
 10
0.0
 20
0.0
 30
0.0
210
0.0
220
0.0
230
1.0
  2
SOLID
 70
         1
 71
         1
 91
        1
 92
        1
 93
        1
 72
         2
 10
46.0
 20
88.5
 40
0.4
 50
0.0
 51
360.0
 73
         1
 97
        1
330
35D
 75
         0
 76
         1
 98
        1
 10
0.0
 20
0.0
  0
CIRCLE
  5
35F
100
AcDbEntity
  8
PART_HOLES_LAYER_TOP
100
AcDbCircle
 10
46.0
 20
86.5
 30
0.0
 40
0.4
  0
HATCH
  5
360
100
AcDbEntity
  8
PART_HOLES_LAYER_TOP
100
AcDbHatch
 10
0.0
 20
0.0
 30
0.0
210
0.0
220
0.0
230
1.0
  2
SOLID
 70
         1
 71
         1
 91
        1
 92
        1
 93
        1
 72
         2
 10
46.0
 20
86.5
 40
0.4
 50
0.0
 51
360.0
 73
         1
 97
        1
330
35F
 75
         0
 76
         1
 98
        1
 10
0.0
 20
0.0
  0
CIRCLE
  5
361
100
AcDbEntity
  8
PART_HOLES_LAYER_TOP
100
AcDbCircle
 10
66.0
 20
86.5
 30
0.0
 40
0.4
  0
HATCH
  5
362
100
AcDbEntity
  8
PART_HOLES_LAYER_TOP
100
AcDbHatch
 10
0.0
 20
0.0
 30
0.0
210
0.0
220
0.0
230
1.0
  2
SOLID
 70
         1
 71
         1
 91
        1
 92
        1
 93
        1
 72
         2
 10
66.0
 20
86.5
 40
0.4
 50
0.0
 51
360.0
 73
         1
 97
        1
330
361
 75
         0
 76
         1
 98
        1
 10
0.0
 20
0.0
  0
CIRCLE
  5
363
100
AcDbEntity
  8
PART_HOLES_LAYER_TOP
100
AcDbCircle
 10
66.0
 20
88.5
 30
0.0
 40
0.4
  0
HATCH
  5
364
100
AcDbEntity
  8
PART_HOLES_LAYER_TOP
100
AcDbHatch
 10
0.0
 20
0.0
 30
0.0
210
0.0
220
0.0
230
1.0
  2
SOLID
 70
         1
 71
         1
 91
        1
 92
        1
 93
        1
 72
         2
 10
66.0
 20
88.5
 40
0.4
 50
0.0
 51
360.0
 73
         1
 97
        1
330
363
 75
         0
 76
         1
 98
        1
 10
0.0
 20
0.0
  0
CIRCLE
  5
365
100
AcDbEntity
  8
PART_HOLES_LAYER_TOP
100
AcDbCircle
 10
52.0
 20
86.5
 30
0.0
 40
0.4
  0
HATCH
  5
366
100
AcDbEntity
  8
PART_HOLES_LAYER_TOP
100
AcDbHatch
 10
0.0
 20
0.0
 30
0.0
210
0.0
220
0.0
230
1.0
  2
SOLID
 70
         1
 71
         1
 91
        1
 92
        1
 93
        1
 72
         2
 10
52.0
 20
86.5
 40
0.4
 50
0.0
 51
360.0
 73
         1
 97
        1
330
365
 75
         0
 76
         1
 98
        1
 10
0.0
 20
0.0
  0
CIRCLE
  5
367
100
AcDbEntity
  8
PART_HOLES_LAYER_TOP
100
AcDbCircle
 10
48.0
 20
88.5
 30
0.0
 40
0.4
  0
HATCH
  5
368
100
AcDbEntity
  8
PART_HOLES_LAYER_TOP
100
AcDbHatch
 10
0.0
 20
0.0
 30
0.0
210
0.0
220
0.0
230
1.0
  2
SOLID
 70
         1
 71
         1
 91
        1
 92
        1
 93
        1
 72
         2
 10
48.0
 20
88.5
 40
0.4
 50
0.0
 51
360.0
 73
         1
 97
        1
330
367
 75
         0
 76
         1
 98
        1
 10
0.0
 20
0.0
  0
CIRCLE
  5
369
100
AcDbEntity
  8
PART_HOLES_LAYER_TOP
100
AcDbCircle
 10
72.0
 20
88.5
 30
0.0
 40
0.4
  0
HATCH
  5
36A
100
AcDbEntity
  8
PART_HOLES_LAYER_TOP
100
AcDbHatch
 10
0.0
 20
0.0
 30
0.0
210
0.0
220
0.0
230
1.0
  2
SOLID
 70
         1
 71
         1
 91
        1
 92
        1
 93
        1
 72
         2
 10
72.0
 20
88.5
 40
0.4
 50
0.0
 51
360.0
 73
         1
 97
        1
330
369
 75
         0
 76
         1
 98
        1
 10
0.0
 20
0.0
  0
CIRCLE
  5
36B
100
AcDbEntity
  8
PART_HOLES_LAYER_TOP
100
AcDbCircle
 10
38.0
 20
86.5
 30
0.0
 40
0.4
  0
HATCH
  5
36C
100
AcDbEntity
  8
PART_HOLES_LAYER_TOP
100
AcDbHatch
 10
0.0
 20
0.0
 30
0.0
210
0.0
220
0.0
230
1.0
  2
SOLID
 70
         1
 71
         1
 91
        1
 92
        1
 93
        1
 72
         2
 10
38.0
 20
86.5
 40
0.4
 50
0.0
 51
360.0
 73
         1
 97
        1
330
36B
 75
         0
 76
         1
 98
        1
 10
0.0
 20
0.0
  0
CIRCLE
  5
36D
100
AcDbEntity
  8
PART_HOLES_LAYER_TOP
100
AcDbCircle
 10
42.0
 20
86.5
 30
0.0
 40
0.4
  0
HATCH
  5
36E
100
AcDbEntity
  8
PART_HOLES_LAYER_TOP
100
AcDbHatch
 10
0.0
 20
0.0
 30
0.0
210
0.0
220
0.0
230
1.0
  2
SOLID
 70
         1
 71
         1
 91
        1
 92
        1
 93
        1
 72
         2
 10
42.0
 20
86.5
 40
0.4
 50
0.0
 51
360.0
 73
         1
 97
        1
330
36D
 75
         0
 76
         1
 98
        1
 10
0.0
 20
0.0
  0
CIRCLE
  5
36F
100
AcDbEntity
  8
PART_HOLES_LAYER_TOP
100
AcDbCircle
 10
38.0
 20
88.5
 30
0.0
 40
0.4
  0
HATCH
  5
370
100
AcDbEntity
  8
PART_HOLES_LAYER_TOP
100
AcDbHatch
 10
0.0
 20
0.0
 30
0.0
210
0.0
220
0.0
230
1.0
  2
SOLID
 70
         1
 71
         1
 91
        1
 92
        1
 93
        1
 72
         2
 10
38.0
 20
88.5
 40
0.4
 50
0.0
 51
360.0
 73
         1
 97
        1
330
36F
 75
         0
 76
         1
 98
        1
 10
0.0
 20
0.0
  0
CIRCLE
  5
371
100
AcDbEntity
  8
PART_HOLES_LAYER_TOP
100
AcDbCircle
 10
51.6
 20
81.0
 30
0.0
 40
0.4
  0
HATCH
  5
372
100
AcDbEntity
  8
PART_HOLES_LAYER_TOP
100
AcDbHatch
 10
0.0
 20
0.0
 30
0.0
210
0.0
220
0.0
230
1.0
  2
SOLID
 70
         1
 71
         1
 91
        1
 92
        1
 93
        1
 72
         2
 10
51.600000000000001
 20
81.0
 40
0.4
 50
0.0
 51
360.0
 73
         1
 97
        1
330
371
 75
         0
 76
         1
 98
        1
 10
0.0
 20
0.0
  0
CIRCLE
  5
373
100
AcDbEntity
  8
PART_HOLES_LAYER_TOP
100
AcDbCircle
 10
55.6
 20
83.0
 30
0.0
 40
0.4
  0
HATCH
  5
374
100
AcDbEntity
  8
PART_HOLES_LAYER_TOP
100
AcDbHatch
 10
0.0
 20
0.0
 30
0.0
210
0.0
220
0.0
230
1.0
  2
SOLID
 70
         1
 71
         1
 91
        1
 92
        1
 93
        1
 72
         2
 10
55.600000000000001
 20
83.0
 40
0.4
 50
0.0
 51
360.0
 73
         1
 97
        1
330
373
 75
         0
 76
         1
 98
        1
 10
0.0
 20
0.0
  0
CIRCLE
  5
375
100
AcDbEntity
  8
PART_HOLES_LAYER_TOP
100
AcDbCircle
 10
59.6
 20
81.0
 30
0.0
 40
0.4
  0
HATCH
  5
376
100
AcDbEntity
  8
PART_HOLES_LAYER_TOP
100
AcDbHatch
 10
0.0
 20
0.0
 30
0.0
210
0.0
220
0.0
230
1.0
  2
SOLID
 70
         1
 71
         1
 91
        1
 92
        1
 93
        1
 72
         2
 10
59.600000000000001
 20
81.0
 40
0.4
 50
0.0
 51
360.0
 73
         1
 97
        1
330
375
 75
         0
 76
         1
 98
        1
 10
0.0
 20
0.0
  0
CIRCLE
  5
377
100
AcDbEntity
  8
PART_HOLES_LAYER_TOP
100
AcDbCircle
 10
63.6
 20
83.0
 30
0.0
 40
0.4
  0
HATCH
  5
378
100
AcDbEntity
  8
PART_HOLES_LAYER_TOP
100
AcDbHatch
 10
0.0
 20
0.0
 30
0.0
210
0.0
220
0.0
230
1.0
  2
SOLID
 70
         1
 71
         1
 91
        1
 92
        1
 93
        1
 72
         2
 10
63.600000000000001
 20
83.0
 40
0.4
 50
0.0
 51
360.0
 73
         1
 97
        1
330
377
 75
         0
 76
         1
 98
        1
 10
0.0
 20
0.0
  0
CIRCLE
  5
379
100
AcDbEntity
  8
PART_HOLES_LAYER_TOP
100
AcDbCircle
 10
67.6
 20
81.0
 30
0.0
 40
0.4
  0
HATCH
  5
37A
100
AcDbEntity
  8
PART_HOLES_LAYER_TOP
100
AcDbHatch
 10
0.0
 20
0.0
 30
0.0
210
0.0
220
0.0
230
1.0
  2
SOLID
 70
         1
 71
         1
 91
        1
 92
        1
 93
        1
 72
         2
 10
67.599999999999994
 20
81.0
 40
0.4
 50
0.0
 51
360.0
 73
         1
 97
        1
330
379
 75
         0
 76
         1
 98
        1
 10
0.0
 20
0.0
  0
CIRCLE
  5
37B
100
AcDbEntity
  8
PART_HOLES_LAYER_TOP
100
AcDbCircle
 10
69.6
 20
83.0
 30
0.0
 40
0.4
  0
HATCH
  5
37C
100
AcDbEntity
  8
PART_HOLES_LAYER_TOP
100
AcDbHatch
 10
0.0
 20
0.0
 30
0.0
210
0.0
220
0.0
230
1.0
  2
SOLID
 70
         1
 71
         1
 91
        1
 92
        1
 93
        1
 72
         2
 10
69.599999999999994
 20
83.0
 40
0.4
 50
0.0
 51
360.0
 73
         1
 97
        1
330
37B
 75
         0
 76
         1
 98
        1
 10
0.0
 20
0.0
  0
CIRCLE
  5
37D
100
AcDbEntity
  8
PART_HOLES_LAYER_TOP
100
AcDbCircle
 10
75.6
 20
81.0
 30
0.0
 40
0.4
  0
HATCH
  5
37E
100
AcDbEntity
  8
PART_HOLES_LAYER_TOP
100
AcDbHatch
 10
0.0
 20
0.0
 30
0.0
210
0.0
220
0.0
230
1.0
  2
SOLID
 70
         1
 71
         1
 91
        1
 92
        1
 93
        1
 72
         2
 10
75.599999999999994
 20
81.0
 40
0.4
 50
0.0
 51
360.0
 73
         1
 97
        1
330
37D
 75
         0
 76
         1
 98
        1
 10
0.0
 20
0.0
  0
CIRCLE
  5
37F
100
AcDbEntity
  8
PART_HOLES_LAYER_TOP
100
AcDbCircle
 10
51.6
 20
83.0
 30
0.0
 40
0.4
  0
HATCH
  5
380
100
AcDbEntity
  8
PART_HOLES_LAYER_TOP
100
AcDbHatch
 10
0.0
 20
0.0
 30
0.0
210
0.0
220
0.0
230
1.0
  2
SOLID
 70
         1
 71
         1
 91
        1
 92
        1
 93
        1
 72
         2
 10
51.600000000000001
 20
83.0
 40
0.4
 50
0.0
 51
360.0
 73
         1
 97
        1
330
37F
 75
         0
 76
         1
 98
        1
 10
0.0
 20
0.0
  0
CIRCLE
  5
381
100
AcDbEntity
  8
PART_HOLES_LAYER_TOP
100
AcDbCircle
 10
53.6
 20
83.0
 30
0.0
 40
0.4
  0
HATCH
  5
382
100
AcDbEntity
  8
PART_HOLES_LAYER_TOP
100
AcDbHatch
 10
0.0
 20
0.0
 30
0.0
210
0.0
220
0.0
230
1.0
  2
SOLID
 70
         1
 71
         1
 91
        1
 92
        1
 93
        1
 72
         2
 10
53.600000000000001
 20
83.0
 40
0.4
 50
0.0
 51
360.0
 73
         1
 97
        1
330
381
 75
         0
 76
         1
 98
        1
 10
0.0
 20
0.0
  0
CIRCLE
  5
383
100
AcDbEntity
  8
PART_HOLES_LAYER_TOP
100
AcDbCircle
 10
75.6
 20
83.0
 30
0.0
 40
0.4
  0
HATCH
  5
384
100
AcDbEntity
  8
PART_HOLES_LAYER_TOP
100
AcDbHatch
 10
0.0
 20
0.0
 30
0.0
210
0.0
220
0.0
230
1.0
  2
SOLID
 70
         1
 71
         1
 91
        1
 92
        1
 93
        1
 72
         2
 10
75.599999999999994
 20
83.0
 40
0.4
 50
0.0
 51
360.0
 73
         1
 97
        1
330
383
 75
         0
 76
         1
 98
        1
 10
0.0
 20
0.0
  0
CIRCLE
  5
385
100
AcDbEntity
  8
PART_HOLES_LAYER_TOP
100
AcDbCircle
 10
61.6
 20
83.0
 30
0.0
 40
0.4
  0
HATCH
  5
386
100
AcDbEntity
  8
PART_HOLES_LAYER_TOP
100
AcDbHatch
 10
0.0
 20
0.0
 30
0.0
210
0.0
220
0.0
230
1.0
  2
SOLID
 70
         1
 71
         1
 91
        1
 92
        1
 93
        1
 72
         2
 10
61.600000000000001
 20
83.0
 40
0.4
 50
0.0
 51
360.0
 73
         1
 97
        1
330
385
 75
         0
 76
         1
 98
        1
 10
0.0
 20
0.0
  0
CIRCLE
  5
387
100
AcDbEntity
  8
PART_HOLES_LAYER_TOP
100
AcDbCircle
 10
65.6
 20
81.0
 30
0.0
 40
0.4
  0
HATCH
  5
388
100
AcDbEntity
  8
PART_HOLES_LAYER_TOP
100
AcDbHatch
 10
0.0
 20
0.0
 30
0.0
210
0.0
220
0.0
230
1.0
  2
SOLID
 70
         1
 71
         1
 91
        1
 92
        1
 93
        1
 72
         2
 10
65.599999999999994
 20
81.0
 40
0.4
 50
0.0
 51
360.0
 73
         1
 97
        1
330
387
 75
         0
 76
         1
 98
        1
 10
0.0
 20
0.0
  0
CIRCLE
  5
389
100
AcDbEntity
  8
PART_HOLES_LAYER_TOP
100
AcDbCircle
 10
65.6
 20
83.0
 30
0.0
 40
0.4
  0
HATCH
  5
38A
100
AcDbEntity
  8
PART_HOLES_LAYER_TOP
100
AcDbHatch
 10
0.0
 20
0.0
 30
0.0
210
0.0
220
0.0
230
1.0
  2
SOLID
 70
         1
 71
         1
 91
        1
 92
        1
 93
        1
 72
         2
 10
65.599999999999994
 20
83.0
 40
0.4
 50
0.0
 51
360.0
 73
         1
 97
        1
330
389
 75
         0
 76
         1
 98
        1
 10
0.0
 20
0.0
  0
CIRCLE
  5
38B
100
AcDbEntity
  8
PART_HOLES_LAYER_TOP
100
AcDbCircle
 10
61.6
 20
81.0
 30
0.0
 40
0.4
  0
HATCH
  5
38C
100
AcDbEntity
  8
PART_HOLES_LAYER_TOP
100
AcDbHatch
 10
0.0
 20
0.0
 30
0.0
210
0.0
220
0.0
230
1.0
  2
SOLID
 70
         1
 71
         1
 91
        1
 92
        1
 93
        1
 72
         2
 10
61.600000000000001
 20
81.0
 40
0.4
 50
0.0
 51
360.0
 73
         1
 97
        1
330
38B
 75
         0
 76
         1
 98
        1
 10
0.0
 20
0.0
  0
CIRCLE
  5
38D
100
AcDbEntity
  8
PART_HOLES_LAYER_TOP
100
AcDbCircle
 10
67.6
 20
83.0
 30
0.0
 40
0.4
  0
HATCH
  5
38E
100
AcDbEntity
  8
PART_HOLES_LAYER_TOP
100
AcDbHatch
 10
0.0
 20
0.0
 30
0.0
210
0.0
220
0.0
230
1.0
  2
SOLID
 70
         1
 71
         1
 91
        1
 92
        1
 93
        1
 72
         2
 10
67.599999999999994
 20
83.0
 40
0.4
 50
0.0
 51
360.0
 73
         1
 97
        1
330
38D
 75
         0
 76
         1
 98
        1
 10
0.0
 20
0.0
  0
CIRCLE
  5
38F
100
AcDbEntity
  8
PART_HOLES_LAYER_TOP
100
AcDbCircle
 10
57.6
 20
81.0
 30
0.0
 40
0.4
  0
HATCH
  5
390
100
AcDbEntity
  8
PART_HOLES_LAYER_TOP
100
AcDbHatch
 10
0.0
 20
0.0
 30
0.0
210
0.0
220
0.0
230
1.0
  2
SOLID
 70
         1
 71
         1
 91
        1
 92
        1
 93
        1
 72
         2
 10
57.600000000000001
 20
81.0
 40
0.4
 50
0.0
 51
360.0
 73
         1
 97
        1
330
38F
 75
         0
 76
         1
 98
        1
 10
0.0
 20
0.0
  0
CIRCLE
  5
391
100
AcDbEntity
  8
PART_HOLES_LAYER_TOP
100
AcDbCircle
 10
73.6
 20
81.0
 30
0.0
 40
0.4
  0
HATCH
  5
392
100
AcDbEntity
  8
PART_HOLES_LAYER_TOP
100
AcDbHatch
 10
0.0
 20
0.0
 30
0.0
210
0.0
220
0.0
230
1.0
  2
SOLID
 70
         1
 71
         1
 91
        1
 92
        1
 93
        1
 72
         2
 10
73.599999999999994
 20
81.0
 40
0.4
 50
0.0
 51
360.0
 73
         1
 97
        1
330
391
 75
         0
 76
         1
 98
        1
 10
0.0
 20
0.0
  0
CIRCLE
  5
393
100
AcDbEntity
  8
PART_HOLES_LAYER_TOP
100
AcDbCircle
 10
71.6
 20
81.0
 30
0.0
 40
0.4
  0
HATCH
  5
394
100
AcDbEntity
  8
PART_HOLES_LAYER_TOP
100
AcDbHatch
 10
0.0
 20
0.0
 30
0.0
210
0.0
220
0.0
230
1.0
  2
SOLID
 70
         1
 71
         1
 91
        1
 92
        1
 93
        1
 72
         2
 10
71.599999999999994
 20
81.0
 40
0.4
 50
0.0
 51
360.0
 73
         1
 97
        1
330
393
 75
         0
 76
         1
 98
        1
 10
0.0
 20
0.0
  0
CIRCLE
  5
395
100
AcDbEntity
  8
PART_HOLES_LAYER_TOP
100
AcDbCircle
 10
69.6
 20
81.0
 30
0.0
 40
0.4
  0
HATCH
  5
396
100
AcDbEntity
  8
PART_HOLES_LAYER_TOP
100
AcDbHatch
 10
0.0
 20
0.0
 30
0.0
210
0.0
220
0.0
230
1.0
  2
SOLID
 70
         1
 71
         1
 91
        1
 92
        1
 93
        1
 72
         2
 10
69.599999999999994
 20
81.0
 40
0.4
 50
0.0
 51
360.0
 73
         1
 97
        1
330
395
 75
         0
 76
         1
 98
        1
 10
0.0
 20
0.0
  0
CIRCLE
  5
397
100
AcDbEntity
  8
PART_HOLES_LAYER_TOP
100
AcDbCircle
 10
59.6
 20
83.0
 30
0.0
 40
0.4
  0
HATCH
  5
398
100
AcDbEntity
  8
PART_HOLES_LAYER_TOP
100
AcDbHatch
 10
0.0
 20
0.0
 30
0.0
210
0.0
220
0.0
230
1.0
  2
SOLID
 70
         1
 71
         1
 91
        1
 92
        1
 93
        1
 72
         2
 10
59.600000000000001
 20
83.0
 40
0.4
 50
0.0
 51
360.0
 73
         1
 97
        1
330
397
 75
         0
 76
         1
 98
        1
 10
0.0
 20
0.0
  0
CIRCLE
  5
399
100
AcDbEntity
  8
PART_HOLES_LAYER_TOP
100
AcDbCircle
 10
57.6
 20
83.0
 30
0.0
 40
0.4
  0
HATCH
  5
39A
100
AcDbEntity
  8
PART_HOLES_LAYER_TOP
100
AcDbHatch
 10
0.0
 20
0.0
 30
0.0
210
0.0
220
0.0
230
1.0
  2
SOLID
 70
         1
 71
         1
 91
        1
 92
        1
 93
        1
 72
         2
 10
57.600000000000001
 20
83.0
 40
0.4
 50
0.0
 51
360.0
 73
         1
 97
        1
330
399
 75
         0
 76
         1
 98
        1
 10
0.0
 20
0.0
  0
CIRCLE
  5
39B
100
AcDbEntity
  8
PART_HOLES_LAYER_TOP
100
AcDbCircle
 10
73.6
 20
83.0
 30
0.0
 40
0.4
  0
HATCH
  5
39C
100
AcDbEntity
  8
PART_HOLES_LAYER_TOP
100
AcDbHatch
 10
0.0
 20
0.0
 30
0.0
210
0.0
220
0.0
230
1.0
  2
SOLID
 70
         1
 71
         1
 91
        1
 92
        1
 93
        1
 72
         2
 10
73.599999999999994
 20
83.0
 40
0.4
 50
0.0
 51
360.0
 73
         1
 97
        1
330
39B
 75
         0
 76
         1
 98
        1
 10
0.0
 20
0.0
  0
CIRCLE
  5
39D
100
AcDbEntity
  8
PART_HOLES_LAYER_TOP
100
AcDbCircle
 10
63.6
 20
81.0
 30
0.0
 40
0.4
  0
HATCH
  5
39E
100
AcDbEntity
  8
PART_HOLES_LAYER_TOP
100
AcDbHatch
 10
0.0
 20
0.0
 30
0.0
210
0.0
220
0.0
230
1.0
  2
SOLID
 70
         1
 71
         1
 91
        1
 92
        1
 93
        1
 72
         2
 10
63.600000000000001
 20
81.0
 40
0.4
 50
0.0
 51
360.0
 73
         1
 97
        1
330
39D
 75
         0
 76
         1
 98
        1
 10
0.0
 20
0.0
  0
CIRCLE
  5
39F
100
AcDbEntity
  8
PART_HOLES_LAYER_TOP
100
AcDbCircle
 10
71.6
 20
83.0
 30
0.0
 40
0.4
  0
HATCH
  5
3A0
100
AcDbEntity
  8
PART_HOLES_LAYER_TOP
100
AcDbHatch
 10
0.0
 20
0.0
 30
0.0
210
0.0
220
0.0
230
1.0
  2
SOLID
 70
         1
 71
         1
 91
        1
 92
        1
 93
        1
 72
         2
 10
71.599999999999994
 20
83.0
 40
0.4
 50
0.0
 51
360.0
 73
         1
 97
        1
330
39F
 75
         0
 76
         1
 98
        1
 10
0.0
 20
0.0
  0
CIRCLE
  5
3A1
100
AcDbEntity
  8
PART_HOLES_LAYER_TOP
100
AcDbCircle
 10
55.6
 20
81.0
 30
0.0
 40
0.4
  0
HATCH
  5
3A2
100
AcDbEntity
  8
PART_HOLES_LAYER_TOP
100
AcDbHatch
 10
0.0
 20
0.0
 30
0.0
210
0.0
220
0.0
230
1.0
  2
SOLID
 70
         1
 71
         1
 91
        1
 92
        1
 93
        1
 72
         2
 10
55.600000000000001
 20
81.0
 40
0.4
 50
0.0
 51
360.0
 73
         1
 97
        1
330
3A1
 75
         0
 76
         1
 98
        1
 10
0.0
 20
0.0
  0
CIRCLE
  5
3A3
100
AcDbEntity
  8
PART_HOLES_LAYER_TOP
100
AcDbCircle
 10
53.6
 20
81.0
 30
0.0
 40
0.4
  0
HATCH
  5
3A4
100
AcDbEntity
  8
PART_HOLES_LAYER_TOP
100
AcDbHatch
 10
0.0
 20
0.0
 30
0.0
210
0.0
220
0.0
230
1.0
  2
SOLID
 70
         1
 71
         1
 91
        1
 92
        1
 93
        1
 72
         2
 10
53.600000000000001
 20
81.0
 40
0.4
 50
0.0
 51
360.0
 73
         1
 97
        1
330
3A3
 75
         0
 76
         1
 98
        1
 10
0.0
 20
0.0
  0
ENDSEC
  0
SECTION
  2
OBJECTS
  0
DICTIONARY
  5
19
100
AcDbDictionary
  3
ACAD_GROUP
350
1A
  3
ACAD_MLINESTYLE
350
1B
  0
DICTIONARY
  5
1A
102
{ACAD_REACTORS
330
19
102
}
100
AcDbDictionary
  0
DICTIONARY
  5
1B
102
{ACAD_REACTORS
330
19
102
}
100
AcDbDictionary
  3
STANDARD
350
1C
  0
MLINESTYLE
  5
1C
102
{ACAD_REACTORS
330
1B
102
}
100
AcDbMlineStyle
  2
STANDARD
 70
         0
  3

 62
         0
 51
90.0
 52
90.0
 71
         2
 49
0.5
 62
       256
  6
BYLAYER
 49
-0.5
 62
       256
  6
BYLAYER
  0
DICTIONARY
  5
22
102
{ACAD_REACTORS
330
19
102
}
100
AcDbDictionary
  0
ENDSEC
  0
EOF
