  0
SECTION
  2
HEADER
  9
$ACADVER
  1
AC1014
  9
$ACADMAINTVER
 70
         0
  9
$DWGCODEPAGE
  3
ANSI_1252
  9
$INSBASE
 10
0.0
 20
0.0
 30
0.0
  9
$EXTMIN
 10
0.0
 20
-6.721479
 30
0.0
  9
$EXTMAX
 10
144.278275
 20
81.941856
 30
0.0
  9
$LIMMIN
 10
0.0
 20
0.0
  9
$LIMMAX
 10
0.0
 20
0.0
  9
$ORTHOMODE
 70
         0
  9
$REGENMODE
 70
         1
  9
$FILLMODE
 70
         1
  9
$QTEXTMODE
 70
         0
  9
$MIRRTEXT
 70
         1
  9
$DRAGMODE
 70
         2
  9
$LTSCALE
 40
1.0
  9
$OSMODE
 70
         0
  9
$ATTMODE
 70
         1
  9
$TEXTSIZE
 40
0.2
  9
$TRACEWID
 40
0.05
  9
$TEXTSTYLE
  7
STANDARD
  9
$CLAYER
  8
0
  9
$CELTYPE
  6
CONTINUOUS
  9
$CECOLOR
 62
       256
  9
$CELTSCALE
 40
1.0
  9
$DELOBJ
 70
         1
  9
$DISPSILH
 70
         0
  9
$DIMSCALE
 40
1.0
  9
$DIMASZ
 40
0.18
  9
$DIMEXO
 40
0.0625
  9
$DIMDLI
 40
0.38
  9
$DIMRND
 40
0.0
  9
$DIMDLE
 40
0.0
  9
$DIMEXE
 40
0.18
  9
$DIMTP
 40
0.0
  9
$DIMTM
 40
0.0
  9
$DIMTXT
 40
0.18
  9
$DIMCEN
 40
0.09
  9
$DIMTSZ
 40
0.0
  9
$DIMTOL
 70
         0
  9
$DIMLIM
 70
         0
  9
$DIMTIH
 70
         1
  9
$DIMTOH
 70
         1
  9
$DIMSE1
 70
         0
  9
$DIMSE2
 70
         0
  9
$DIMTAD
 70
         0
  9
$DIMZIN
 70
         0
  9
$DIMBLK
  1

  9
$DIMASO
 70
         1
  9
$DIMSHO
 70
         1
  9
$DIMPOST
  1

  9
$DIMAPOST
  1

  9
$DIMALT
 70
         0
  9
$DIMALTD
 70
         2
  9
$DIMALTF
 40
25.4
  9
$DIMLFAC
 40
1.0
  9
$DIMTOFL
 70
         0
  9
$DIMTVP
 40
0.0
  9
$DIMTIX
 70
         0
  9
$DIMSOXD
 70
         0
  9
$DIMSAH
 70
         0
  9
$DIMBLK1
  1

  9
$DIMBLK2
  1

  9
$DIMSTYLE
  2
STANDARD
  9
$DIMCLRD
 70
         0
  9
$DIMCLRE
 70
         0
  9
$DIMCLRT
 70
         0
  9
$DIMTFAC
 40
1.0
  9
$DIMGAP
 40
0.09
  9
$DIMJUST
 70
         0
  9
$DIMSD1
 70
         0
  9
$DIMSD2
 70
         0
  9
$DIMTOLJ
 70
         1
  9
$DIMTZIN
 70
         0
  9
$DIMALTZ
 70
         0
  9
$DIMALTTZ
 70
         0
  9
$DIMFIT
 70
         3
  9
$DIMUPT
 70
         0
  9
$DIMUNIT
 70
         2
  9
$DIMDEC
 70
         4
  9
$DIMTDEC
 70
         4
  9
$DIMALTU
 70
         2
  9
$DIMALTTD
 70
         2
  9
$DIMTXSTY
  7
STANDARD
  9
$DIMAUNIT
 70
         0
  9
$LUNITS
 70
         2
  9
$LUPREC
 70
         4
  9
$SKETCHINC
 40
0.1
  9
$FILLETRAD
 40
0.0
  9
$AUNITS
 70
         0
  9
$AUPREC
 70
         0
  9
$MENU
  1
acad
  9
$ELEVATION
 40
0.0
  9
$PELEVATION
 40
0.0
  9
$THICKNESS
 40
0.0
  9
$LIMCHECK
 70
         0
  9
$BLIPMODE
 70
         1
  9
$CHAMFERA
 40
0.0
  9
$CHAMFERB
 40
0.0
  9
$CHAMFERC
 40
0.0
  9
$CHAMFERD
 40
0.0
  9
$SKPOLY
 70
         0
  9
$TDCREATE
 40
2457170.652476852
  9
$TDUPDATE
 40
0.000000000
  9
$TDINDWG
 40
0.0000000000
  9
$TDUSRTIMER
 40
0.0000000000
  9
$USRTIMER
 70
         1
  9
$ANGBASE
 50
0.0
  9
$ANGDIR
 70
         0
  9
$PDMODE
 70
         0
  9
$PDSIZE
 40
0.0
  9
$PLINEWID
 40
0.0
  9
$COORDS
 70
         0
  9
$SPLFRAME
 70
         0
  9
$SPLINETYPE
 70
         6
  9
$SPLINESEGS
 70
         8
  9
$ATTDIA
 70
         0
  9
$ATTREQ
 70
         1
  9
$HANDLING
 70
         1
  9
$HANDSEED
  5
24C
  9
$SURFTAB1
 70
         6
  9
$SURFTAB2
 70
         6
  9
$SURFTYPE
 70
         6
  9
$SURFU
 70
         6
  9
$SURFV
 70
         6
  9
$UCSNAME
  2

  9
$UCSORG
 10
0.0
 20
0.0
 30
0.0
  9
$UCSXDIR
 10
1.0
 20
0.0
 30
0.0
  9
$UCSYDIR
 10
0.0
 20
1.0
 30
0.0
  9
$PUCSNAME
  2

  9
$PUCSORG
 10
0.0
 20
0.0
 30
0.0
  9
$PUCSXDIR
 10
1.0
 20
0.0
 30
0.0
  9
$PUCSYDIR
 10
0.0
 20
1.0
 30
0.0
  9
$USERI1
 70
        -3
  9
$USERI2
 70
         0
  9
$USERI3
 70
         0
  9
$USERI4
 70
         0
  9
$USERI5
 70
         0
  9
$USERR1
 40
0.0
  9
$USERR2
 40
0.0
  9
$USERR3
 40
0.0
  9
$USERR4
 40
0.0
  9
$USERR5
 40
0.0
  9
$WORLDVIEW
 70
         1
  9
$SHADEDGE
 70
         3
  9
$SHADEDIF
 70
        70
  9
$TILEMODE
 70
         1
  9
$MAXACTVP
 70
        16
  9
$PINSBASE
 10
0.0
 20
0.0
 30
0.0
  9
$PLIMCHECK
 70
         0
  9
$PEXTMIN
 10
1.0000000000E+20
 20
1.0000000000E+20
 30
1.0000000000E+20
  9
$PEXTMAX
 10
-1.0000000000E+20
 20
-1.0000000000E+20
 30
-1.0000000000E+20
  9
$PLIMMIN
 10
0.0
 20
0.0
  9
$PLIMMAX
 10
12.0
 20
9.0
  9
$UNITMODE
 70
         0
  9
$VISRETAIN
 70
         0
  9
$PLINEGEN
 70
         1
  9
$PSLTSCALE
 70
         0
  9
$TREEDEPTH
 70
      3020
  9
$PICKSTYLE
 70
         1
  9
$CMLSTYLE
  2
STANDARD
  9
$CMLJUST
 70
         0
  9
$CMLSCALE
 40
1.0
  9
$PROXYGRAPHICS
 70
         0
  9
$MEASUREMENT
 70
         0
  0
ENDSEC
  0
SECTION
  2
CLASSES
  0
CLASS
  1
LWPOLYLINE
  2
AcDbPolyline
  3
"AutoCAD"
 90
        0
280
         0
281
         1
  0
CLASS
  1
IMAGE
  2
AcDbRasterImage
  3
ISM
 90
      127
280
         0
281
         1
  0
CLASS
  1
OLE2FRAME
  2
AcDbOle2Frame
  3
""
 90
        0
280
         0
281
         1
  0
CLASS
  1
HATCH
  2
AcDbHatch
  3
"ACAD_SEDONA"
 90
        0
280
         0
281
         1
  0
CLASS
  1
DICTIONARYVAR
  2
AcDbDictionaryVar
  3
"AutoCAD"
 90
        0
280
         0
281
         0
  0
CLASS
  1
RASTERVARIABLES
  2
AcDbRasterVariables
  3
ISM
 90
        0
280
         0
281
         0
  0
CLASS
  1
IMAGEDEF
  2
AcDbRasterImageDef
  3
ISM
 90
        0
280
         0
281
         0
  0
CLASS
  1
IMAGEDEF_REACTOR
  2
AcDbRasterImageDefReactor
  3
ISM
 90
        1
280
         0
281
         0
  0
CLASS
  1
IDBUFFER
  2
AcDbIdBuffer
  3
"Acad"
 90
        0
280
         0
281
         0
  0
CLASS
  1
SPATIAL_FILTER
  2
AcDbSpatialFilter
  3
"Acad"
 90
        0
280
         0
281
         0
  0
CLASS
  1
XRECORD
  2
AcDbXrecord
  3
"<Built In>"
 90
        0
280
         0
281
         0
  0
CLASS
  1
SORTENTSTABLE
  2
AcDbSortentsTable
  3
"AutoCAD"
 90
        0
280
         0
281
         0
  0
CLASS
  1
LAYER_INDEX
  2
AcDbLayerIndex
  3
"Acad"
 90
        0
280
         0
281
         0
  0
CLASS
  1
SPATIAL_INDEX
  2
AcDbSpatialIndex
  3
"Acad"
 90
        0
280
         0
281
         0
  0
CLASS
  1
OBJECT_PTR
  2
CAseDLPNTableRecord
  3
"ASE-LPNTableRecord"
 90
        1
280
         0
281
         0
  0
CLASS
  1
LAYOUT
  2
AcDbLayout
  3
"AutoCAD 2000"
 90
        0
280
         0
281
         0
  0
CLASS
  1
PLOTSETTINGS
  2
AcDbPlotSettings
  3
"AutoCAD 2000"
 90
        0
280
         0
281
         0
  0
CLASS
  1
ACDBDICTIONARYWDFLT
  2
AcDbDictionaryWithDefault
  3
"AutoCAD 2000"
 90
        0
280
         0
281
         0
  0
CLASS
  1
ACDBPLACEHOLDER
  2
AcDbPlaceHolder
  3
"AutoCAD 2000"
 90
        0
280
         0
281
         0
  0
CLASS
  1
VBA_PROJECT
  2
AcDbVbaProject
  3
"acadvba"
 90
        0
280
         0
281
         0
  0
CLASS
  1
WIPEOUT
  2
AcDbWipeout
  3
WipeOut|AutoCAD Express Tool|expresstools@autodesk.com
 90
      127
280
         0
281
         1
  0
CLASS
  1
WIPEOUTVARIABLES
  2
AcDbWipeoutVariables
  3
WipeOut|AutoCAD Express Tool|expresstools@autodesk.com
 90
        0
280
         0
281
         0
  0
CLASS
  1
RTEXT
  2
RText
  3
RText|AutoCAD Express Tool|expresstools@autodesk.com
 90
        0
280
         0
281
         1
  0
CLASS
  1
ARCALIGNEDTEXT
  2
AcDbArcAlignedText
  3
ATEXT|AutoCAD Express Tool|expresstools@autodesk.com
 90
        0
280
         0
281
         1
  0
ENDSEC
  0
SECTION
  2
TABLES
  0
TABLE
  2
VPORT
  5
7
100
AcDbSymbolTable
 70
         1
  0
VPORT
  5
15
100
AcDbSymbolTableRecord
100
AcDbViewportTableRecord
  2
*ACTIVE
 70
         0
 10
0.0
 20
0.0
 11
1.0
 21
1.0
 12
6.591288
 22
4.579184
 13
0.0
 23
0.0
 14
1.0
 24
1.0
 15
0.0
 25
0.0
 16
0.0
 26
0.0
 36
1.0
 17
0.0
 27
0.0
 37
0.0
 40
9.158369
 41
0.688564
 42
50.0
 43
0.0
 44
0.0
 50
0.0
 51
0.0
 71
         0
 72
       100
 73
         1
 74
         1
 75
         0
 76
         0
 77
         0
 78
         0
  0
ENDTAB
  0
TABLE
  2
LTYPE
  5
4
100
AcDbSymbolTable
 70
         3
  0
LTYPE
  5
11
100
AcDbSymbolTableRecord
100
AcDbLinetypeTableRecord
  2
BYBLOCK
 70
        64
  3

 72
        65
 73
         0
 40
0.0
  0
LTYPE
  5
12
100
AcDbSymbolTableRecord
100
AcDbLinetypeTableRecord
  2
BYLAYER
 70
        64
  3

 72
        65
 73
         0
 40
0.0
  0
LTYPE
  5
13
100
AcDbSymbolTableRecord
100
AcDbLinetypeTableRecord
  2
CONTINUOUS
 70
        64
  3
Solid line
 72
        65
 73
         0
 40
0.0
  0
ENDTAB
  0
TABLE
  2
LAYER
  5
2
100
AcDbSymbolTable
 70
         6
  0
LAYER
  5
14
100
AcDbSymbolTableRecord
100
AcDbLayerTableRecord
  2
0
 70
         0
 62
         7
  6
CONTINUOUS
  0
LAYER
  5
24
100
AcDbSymbolTableRecord
100
AcDbLayerTableRecord
  2
ASSEMBLY_OUTLINES_TOP
 70
         0
 62
       102
  6
CONTINUOUS
  0
LAYER
  5
25
100
AcDbSymbolTableRecord
100
AcDbLayerTableRecord
  2
ASSEMBLY_REF_DES_TOP
 70
         0
 62
       102
  6
CONTINUOUS
  0
LAYER
  5
26
100
AcDbSymbolTableRecord
100
AcDbLayerTableRecord
  2
BOARD_OUTLINE
 70
         0
 62
        10
  6
CONTINUOUS
  0
LAYER
  5
27
100
AcDbSymbolTableRecord
100
AcDbLayerTableRecord
  2
MOUNTING_HOLES_LAYER_TOP
 70
         0
 62
        42
  6
CONTINUOUS
  0
LAYER
  5
28
100
AcDbSymbolTableRecord
100
AcDbLayerTableRecord
  2
PART_HOLES_LAYER_TOP
 70
         0
 62
        30
  6
CONTINUOUS
  0
ENDTAB
  0
TABLE
  2
STYLE
  5
3
100
AcDbSymbolTable
 70
         3
  0
STYLE
  5
17
100
AcDbSymbolTableRecord
100
AcDbTextStyleTableRecord
  2
STANDARD
 70
         0
 40
0.0
 41
1.0
 50
0.0
 71
         0
 42
0.0
  3
txt
  4

  0
STYLE
  5
79
100
AcDbSymbolTableRecord
100
AcDbTextStyleTableRecord
  2
VERIBEST_GERBER_0
 70
         0
 40
0.0
 41
1.0
 50
0.0
 71
         0
 42
0.0
  3

  4

  0
STYLE
  5
FC
100
AcDbSymbolTableRecord
100
AcDbTextStyleTableRecord
  2
GOST_TYPE_B
 70
         0
 40
0.0
 41
1.0
 50
0.0
 71
         0
 42
0.0
  3
gost.ttf
  4

  0
ENDTAB
  0
TABLE
  2
VIEW
  5
5
100
AcDbSymbolTable
 70
         0
  0
ENDTAB
  0
TABLE
  2
UCS
  5
6
100
AcDbSymbolTable
 70
         0
  0
ENDTAB
  0
TABLE
  2
APPID
  5
8
100
AcDbSymbolTable
 70
         1
  0
APPID
  5
16
100
AcDbSymbolTableRecord
100
AcDbRegAppTableRecord
  2
ACAD
 70
         0
  0
ENDTAB
  0
TABLE
  2
DIMSTYLE
  5
9
100
AcDbSymbolTable
 70
         1
  0
DIMSTYLE
105
18
100
AcDbSymbolTableRecord
100
AcDbDimStyleTableRecord
  2
STANDARD
 70
         0
  3

  4

  5

  6

  7

 40
1.0
 41
0.18
 42
0.0625
 43
0.38
 44
0.18
 45
0.0
 46
0.0
 47
0.0
 48
0.0
 71
         0
 72
         0
 73
         1
 74
         1
 75
         0
 76
         0
 77
         0
 78
         0
140
0.18
141
0.09
142
0.0
143
25.4
144
1.0
145
0.0
146
1.0
147
0.09
170
         0
171
         2
172
         0
173
         0
174
         0
175
         0
176
         0
177
         0
178
         0
270
         2
271
         4
272
         4
273
         2
274
         2
275
         0
280
         0
281
         0
282
         0
283
         1
284
         0
285
         0
286
         0
287
         3
288
         0
340
17
  0
ENDTAB
  0
TABLE
  2
BLOCK_RECORD
  5
1
100
AcDbSymbolTable
 70
         0
  0
BLOCK_RECORD
  5
A
100
AcDbSymbolTableRecord
100
AcDbBlockTableRecord
  2
*MODEL_SPACE
  0
BLOCK_RECORD
  5
B
100
AcDbSymbolTableRecord
100
AcDbBlockTableRecord
  2
*PAPER_SPACE
  0
ENDTAB
  0
ENDSEC
  0
SECTION
  2
BLOCKS
  0
BLOCK
  5
D
100
AcDbEntity
  8
0
100
AcDbBlockBegin
  2
*MODEL_SPACE
 70
         0
 10
0.0
 20
0.0
 30
0.0
  3
*MODEL_SPACE
  1

  0
ENDBLK
  5
E
100
AcDbEntity
  8
0
100
AcDbBlockEnd
  0
BLOCK
  5
F
100
AcDbEntity
 67
         1
  8
0
100
AcDbBlockBegin
  2
*PAPER_SPACE
 70
         0
 10
0.0
 20
0.0
 30
0.0
  3
*PAPER_SPACE
  1

  0
ENDBLK
  5
10
100
AcDbEntity
 67
         1
  8
0
100
AcDbBlockEnd
  0
ENDSEC
  0
SECTION
  2
ENTITIES
  0
LWPOLYLINE
  5
29
100
AcDbEntity
  8
ASSEMBLY_OUTLINES_TOP
100
AcDbPolyline
 90
        2
 70
         0
 43
0.2
 10
90.8
 20
2.19
 10
90.8
 20
-6.621479
  0
LWPOLYLINE
  5
2A
100
AcDbEntity
  8
ASSEMBLY_OUTLINES_TOP
100
AcDbPolyline
 90
        2
 70
         0
 43
0.2
 10
137.3
 20
2.19
 10
137.3
 20
-6.621479
  0
LWPOLYLINE
  5
2B
100
AcDbEntity
  8
ASSEMBLY_OUTLINES_TOP
100
AcDbPolyline
 90
        2
 70
         0
 43
0.2
 10
91.37
 20
-6.111479
 10
110.158293
 20
-6.111479
  0
LWPOLYLINE
  5
2C
100
AcDbEntity
  8
ASSEMBLY_OUTLINES_TOP
100
AcDbPolyline
 90
        2
 70
         0
 43
0.2
 10
117.941708
 20
-6.111479
 10
136.73
 20
-6.111479
  0
LWPOLYLINE
  5
2D
100
AcDbEntity
  8
ASSEMBLY_OUTLINES_TOP
100
AcDbPolyline
 90
        3
 70
         1
 10
90.8
 20
-6.111479
 10
91.94
 20
-5.541479
 10
91.94
 20
-6.681479
  0
HATCH
  5
2E
100
AcDbEntity
  8
ASSEMBLY_OUTLINES_TOP
100
AcDbHatch
 10
0.0
 20
0.0
 30
0.0
210
0.0
220
0.0
230
1.0
  2
SOLID
 70
         1
 71
         1
 91
        1
 92
        2
 72
         0
 73
         1
 93
        3
 10
90.799999999999997
 20
-6.1114790000000001
 10
91.939999999999998
 20
-5.5414789999999998
 10
91.939999999999998
 20
-6.6814790000000004
 97
        1
330
2D
 75
         0
 76
         1
 98
        1
 10
0.0
 20
0.0
  0
LWPOLYLINE
  5
2F
100
AcDbEntity
  8
ASSEMBLY_OUTLINES_TOP
100
AcDbPolyline
 90
        3
 70
         1
 10
137.3
 20
-6.111479
 10
136.16
 20
-6.681479
 10
136.16
 20
-5.541479
  0
HATCH
  5
30
100
AcDbEntity
  8
ASSEMBLY_OUTLINES_TOP
100
AcDbHatch
 10
0.0
 20
0.0
 30
0.0
210
0.0
220
0.0
230
1.0
  2
SOLID
 70
         1
 71
         1
 91
        1
 92
        2
 72
         0
 73
         1
 93
        3
 10
137.30000000000001
 20
-6.1114790000000001
 10
136.16
 20
-6.6814790000000004
 10
136.16
 20
-5.5414789999999998
 97
        1
330
2F
 75
         0
 76
         1
 98
        1
 10
0.0
 20
0.0
  0
LWPOLYLINE
  5
31
100
AcDbEntity
  8
ASSEMBLY_OUTLINES_TOP
100
AcDbPolyline
 90
        2
 70
         0
 43
0.2
 10
90.29
 20
77.7
 10
81.89
 20
77.7
  0
LWPOLYLINE
  5
32
100
AcDbEntity
  8
ASSEMBLY_OUTLINES_TOP
100
AcDbPolyline
 90
        2
 70
         0
 43
0.2
 10
90.29
 20
2.7
 10
81.89
 20
2.7
  0
LWPOLYLINE
  5
33
100
AcDbEntity
  8
ASSEMBLY_OUTLINES_TOP
100
AcDbPolyline
 90
        2
 70
         0
 43
0.2
 10
82.4
 20
77.13
 10
82.4
 20
42.948897
  0
LWPOLYLINE
  5
34
100
AcDbEntity
  8
ASSEMBLY_OUTLINES_TOP
100
AcDbPolyline
 90
        2
 70
         0
 43
0.2
 10
82.4
 20
37.451102
 10
82.4
 20
3.27
  0
LWPOLYLINE
  5
35
100
AcDbEntity
  8
ASSEMBLY_OUTLINES_TOP
100
AcDbPolyline
 90
        3
 70
         1
 10
82.4
 20
77.7
 10
82.969999
 20
76.56
 10
81.83
 20
76.56
  0
HATCH
  5
36
100
AcDbEntity
  8
ASSEMBLY_OUTLINES_TOP
100
AcDbHatch
 10
0.0
 20
0.0
 30
0.0
210
0.0
220
0.0
230
1.0
  2
SOLID
 70
         1
 71
         1
 91
        1
 92
        2
 72
         0
 73
         1
 93
        3
 10
82.400000000000006
 20
77.700000000000003
 10
82.969999000000001
 20
76.560000000000002
 10
81.829999999999998
 20
76.560000000000002
 97
        1
330
35
 75
         0
 76
         1
 98
        1
 10
0.0
 20
0.0
  0
LWPOLYLINE
  5
37
100
AcDbEntity
  8
ASSEMBLY_OUTLINES_TOP
100
AcDbPolyline
 90
        3
 70
         1
 10
82.4
 20
2.7
 10
81.83
 20
3.84
 10
82.97
 20
3.84
  0
HATCH
  5
38
100
AcDbEntity
  8
ASSEMBLY_OUTLINES_TOP
100
AcDbHatch
 10
0.0
 20
0.0
 30
0.0
210
0.0
220
0.0
230
1.0
  2
SOLID
 70
         1
 71
         1
 91
        1
 92
        2
 72
         0
 73
         1
 93
        3
 10
82.400000000000006
 20
2.7000000000000002
 10
81.829999999999998
 20
3.8399999999999999
 10
82.969999999999999
 20
3.8399999999999999
 97
        1
330
37
 75
         0
 76
         1
 98
        1
 10
0.0
 20
0.0
  0
LWPOLYLINE
  5
39
100
AcDbEntity
  8
ASSEMBLY_OUTLINES_TOP
100
AcDbPolyline
 90
        2
 70
         0
 43
0.2
 10
90.8
 20
77.19
 10
90.8
 20
53.121443
  0
LWPOLYLINE
  5
3A
100
AcDbEntity
  8
ASSEMBLY_OUTLINES_TOP
100
AcDbPolyline
 90
        2
 70
         0
 43
0.2
 10
92.8
 20
51.51
 10
92.8
 20
54.141443
  0
LWPOLYLINE
  5
3B
100
AcDbEntity
  8
ASSEMBLY_OUTLINES_TOP
100
AcDbPolyline
 90
        2
 70
         0
 43
0.2
 10
90.23
 20
53.631443
 10
87.95
 20
53.631443
  0
LWPOLYLINE
  5
3C
100
AcDbEntity
  8
ASSEMBLY_OUTLINES_TOP
100
AcDbPolyline
 90
        2
 70
         0
 43
0.2
 10
93.37
 20
53.631443
 10
95.65
 20
53.631443
  0
LWPOLYLINE
  5
3D
100
AcDbEntity
  8
ASSEMBLY_OUTLINES_TOP
100
AcDbPolyline
 90
        3
 70
         1
 10
90.8
 20
53.631443
 10
89.66
 20
53.061443
 10
89.66
 20
54.201443
  0
HATCH
  5
3E
100
AcDbEntity
  8
ASSEMBLY_OUTLINES_TOP
100
AcDbHatch
 10
0.0
 20
0.0
 30
0.0
210
0.0
220
0.0
230
1.0
  2
SOLID
 70
         1
 71
         1
 91
        1
 92
        2
 72
         0
 73
         1
 93
        3
 10
90.799999999999997
 20
53.631442999999997
 10
89.659999999999997
 20
53.061442999999997
 10
89.659999999999997
 20
54.201442999999998
 97
        1
330
3D
 75
         0
 76
         1
 98
        1
 10
0.0
 20
0.0
  0
LWPOLYLINE
  5
3F
100
AcDbEntity
  8
ASSEMBLY_OUTLINES_TOP
100
AcDbPolyline
 90
        3
 70
         1
 10
92.8
 20
53.631443
 10
93.94
 20
54.201443
 10
93.94
 20
53.061443
  0
HATCH
  5
40
100
AcDbEntity
  8
ASSEMBLY_OUTLINES_TOP
100
AcDbHatch
 10
0.0
 20
0.0
 30
0.0
210
0.0
220
0.0
230
1.0
  2
SOLID
 70
         1
 71
         1
 91
        1
 92
        2
 72
         0
 73
         1
 93
        3
 10
92.799999999999997
 20
53.631442999999997
 10
93.939999999999998
 20
54.201442999999998
 10
93.939999999999998
 20
53.061442999999997
 97
        1
330
3F
 75
         0
 76
         1
 98
        1
 10
0.0
 20
0.0
  0
LWPOLYLINE
  5
41
100
AcDbEntity
  8
ASSEMBLY_OUTLINES_TOP
100
AcDbPolyline
 90
        2
 70
         0
 43
0.2
 10
92.29
 20
51.0
 10
86.509082
 20
51.0
  0
LWPOLYLINE
  5
42
100
AcDbEntity
  8
ASSEMBLY_OUTLINES_TOP
100
AcDbPolyline
 90
        2
 70
         0
 43
0.2
 10
90.29
 20
2.7
 10
86.509082
 20
2.7
  0
LWPOLYLINE
  5
43
100
AcDbEntity
  8
ASSEMBLY_OUTLINES_TOP
100
AcDbPolyline
 90
        2
 70
         0
 43
0.2
 10
87.019082
 20
50.43
 10
87.019082
 20
30.735706
  0
LWPOLYLINE
  5
44
100
AcDbEntity
  8
ASSEMBLY_OUTLINES_TOP
100
AcDbPolyline
 90
        2
 70
         0
 43
0.2
 10
87.019082
 20
22.964293
 10
87.019082
 20
3.27
  0
LWPOLYLINE
  5
45
100
AcDbEntity
  8
ASSEMBLY_OUTLINES_TOP
100
AcDbPolyline
 90
        3
 70
         1
 10
87.019082
 20
51.0
 10
87.589081
 20
49.86
 10
86.449082
 20
49.86
  0
HATCH
  5
46
100
AcDbEntity
  8
ASSEMBLY_OUTLINES_TOP
100
AcDbHatch
 10
0.0
 20
0.0
 30
0.0
210
0.0
220
0.0
230
1.0
  2
SOLID
 70
         1
 71
         1
 91
        1
 92
        2
 72
         0
 73
         1
 93
        3
 10
87.019081999999997
 20
51.0
 10
87.589080999999993
 20
49.859999999999999
 10
86.449082000000004
 20
49.859999999999999
 97
        1
330
45
 75
         0
 76
         1
 98
        1
 10
0.0
 20
0.0
  0
LWPOLYLINE
  5
47
100
AcDbEntity
  8
ASSEMBLY_OUTLINES_TOP
100
AcDbPolyline
 90
        3
 70
         1
 10
87.019082
 20
2.7
 10
86.449082
 20
3.84
 10
87.589082
 20
3.84
  0
HATCH
  5
48
100
AcDbEntity
  8
ASSEMBLY_OUTLINES_TOP
100
AcDbHatch
 10
0.0
 20
0.0
 30
0.0
210
0.0
220
0.0
230
1.0
  2
SOLID
 70
         1
 71
         1
 91
        1
 92
        2
 72
         0
 73
         1
 93
        3
 10
87.019081999999997
 20
2.7000000000000002
 10
86.449082000000004
 20
3.8399999999999999
 10
87.589082000000005
 20
3.8399999999999999
 97
        1
330
47
 75
         0
 76
         1
 98
        1
 10
0.0
 20
0.0
  0
LWPOLYLINE
  5
49
100
AcDbEntity
  8
ASSEMBLY_OUTLINES_TOP
100
AcDbPolyline
 90
        2
 70
         0
 43
0.2
 10
124.8
 20
62.11
 10
124.8
 20
81.841856
  0
LWPOLYLINE
  5
4A
100
AcDbEntity
  8
ASSEMBLY_OUTLINES_TOP
100
AcDbPolyline
 90
        2
 70
         0
 43
0.2
 10
137.3
 20
78.21
 10
137.3
 20
81.841856
  0
LWPOLYLINE
  5
4B
100
AcDbEntity
  8
ASSEMBLY_OUTLINES_TOP
100
AcDbPolyline
 90
        2
 70
         0
 43
0.2
 10
125.37
 20
81.331856
 10
127.181629
 20
81.331856
  0
LWPOLYLINE
  5
4C
100
AcDbEntity
  8
ASSEMBLY_OUTLINES_TOP
100
AcDbPolyline
 90
        2
 70
         0
 43
0.2
 10
134.918371
 20
81.331856
 10
136.73
 20
81.331856
  0
LWPOLYLINE
  5
4D
100
AcDbEntity
  8
ASSEMBLY_OUTLINES_TOP
100
AcDbPolyline
 90
        3
 70
         1
 10
124.8
 20
81.331856
 10
125.94
 20
81.901856
 10
125.94
 20
80.761856
  0
HATCH
  5
4E
100
AcDbEntity
  8
ASSEMBLY_OUTLINES_TOP
100
AcDbHatch
 10
0.0
 20
0.0
 30
0.0
210
0.0
220
0.0
230
1.0
  2
SOLID
 70
         1
 71
         1
 91
        1
 92
        2
 72
         0
 73
         1
 93
        3
 10
124.8
 20
81.331856000000002
 10
125.94
 20
81.901855999999995
 10
125.94
 20
80.761855999999995
 97
        1
330
4D
 75
         0
 76
         1
 98
        1
 10
0.0
 20
0.0
  0
LWPOLYLINE
  5
4F
100
AcDbEntity
  8
ASSEMBLY_OUTLINES_TOP
100
AcDbPolyline
 90
        3
 70
         1
 10
137.3
 20
81.331856
 10
136.16
 20
80.761856
 10
136.16
 20
81.901856
  0
HATCH
  5
50
100
AcDbEntity
  8
ASSEMBLY_OUTLINES_TOP
100
AcDbHatch
 10
0.0
 20
0.0
 30
0.0
210
0.0
220
0.0
230
1.0
  2
SOLID
 70
         1
 71
         1
 91
        1
 92
        2
 72
         0
 73
         1
 93
        3
 10
137.30000000000001
 20
81.331856000000002
 10
136.16
 20
80.761855999999995
 10
136.16
 20
81.901855999999995
 97
        1
330
4F
 75
         0
 76
         1
 98
        1
 10
0.0
 20
0.0
  0
LWPOLYLINE
  5
51
100
AcDbEntity
  8
ASSEMBLY_OUTLINES_TOP
100
AcDbPolyline
 90
        2
 70
         0
 43
0.2
 10
137.81
 20
77.7
 10
144.178275
 20
77.7
  0
LWPOLYLINE
  5
52
100
AcDbEntity
  8
ASSEMBLY_OUTLINES_TOP
100
AcDbPolyline
 90
        2
 70
         0
 43
0.2
 10
125.31
 20
61.6
 10
144.178275
 20
61.6
  0
LWPOLYLINE
  5
53
100
AcDbEntity
  8
ASSEMBLY_OUTLINES_TOP
100
AcDbPolyline
 90
        2
 70
         0
 43
0.2
 10
143.668275
 20
77.13
 10
143.668275
 20
73.495034
  0
LWPOLYLINE
  5
54
100
AcDbEntity
  8
ASSEMBLY_OUTLINES_TOP
100
AcDbPolyline
 90
        2
 70
         0
 43
0.2
 10
143.668275
 20
65.804965
 10
143.668275
 20
62.17
  0
LWPOLYLINE
  5
55
100
AcDbEntity
  8
ASSEMBLY_OUTLINES_TOP
100
AcDbPolyline
 90
        3
 70
         1
 10
143.668275
 20
77.7
 10
144.238274
 20
76.56
 10
143.098275
 20
76.56
  0
HATCH
  5
56
100
AcDbEntity
  8
ASSEMBLY_OUTLINES_TOP
100
AcDbHatch
 10
0.0
 20
0.0
 30
0.0
210
0.0
220
0.0
230
1.0
  2
SOLID
 70
         1
 71
         1
 91
        1
 92
        2
 72
         0
 73
         1
 93
        3
 10
143.66827499999999
 20
77.700000000000003
 10
144.23827399999999
 20
76.560000000000002
 10
143.098275
 20
76.560000000000002
 97
        1
330
55
 75
         0
 76
         1
 98
        1
 10
0.0
 20
0.0
  0
LWPOLYLINE
  5
57
100
AcDbEntity
  8
ASSEMBLY_OUTLINES_TOP
100
AcDbPolyline
 90
        3
 70
         1
 10
143.668275
 20
61.6
 10
143.098275
 20
62.74
 10
144.238275
 20
62.74
  0
HATCH
  5
58
100
AcDbEntity
  8
ASSEMBLY_OUTLINES_TOP
100
AcDbHatch
 10
0.0
 20
0.0
 30
0.0
210
0.0
220
0.0
230
1.0
  2
SOLID
 70
         1
 71
         1
 91
        1
 92
        2
 72
         0
 73
         1
 93
        3
 10
143.66827499999999
 20
61.600000000000001
 10
143.098275
 20
62.740000000000002
 10
144.23827499999999
 20
62.740000000000002
 97
        1
330
57
 75
         0
 76
         1
 98
        1
 10
0.0
 20
0.0
  0
LWPOLYLINE
  5
59
100
AcDbEntity
  8
ASSEMBLY_OUTLINES_TOP
100
AcDbPolyline
 90
        2
 70
         0
 43
0.2
 10
90.8
 20
2.19
 10
90.8
 20
-2.237555
  0
LWPOLYLINE
  5
5A
100
AcDbEntity
  8
ASSEMBLY_OUTLINES_TOP
100
AcDbPolyline
 90
        2
 70
         0
 43
0.2
 10
121.5
 20
22.49
 10
121.5
 20
-2.237555
  0
LWPOLYLINE
  5
5B
100
AcDbEntity
  8
ASSEMBLY_OUTLINES_TOP
100
AcDbPolyline
 90
        2
 70
         0
 43
0.2
 10
91.37
 20
-1.727555
 10
102.258293
 20
-1.727555
  0
LWPOLYLINE
  5
5C
100
AcDbEntity
  8
ASSEMBLY_OUTLINES_TOP
100
AcDbPolyline
 90
        2
 70
         0
 43
0.2
 10
110.041708
 20
-1.727555
 10
120.93
 20
-1.727555
  0
LWPOLYLINE
  5
5D
100
AcDbEntity
  8
ASSEMBLY_OUTLINES_TOP
100
AcDbPolyline
 90
        3
 70
         1
 10
90.8
 20
-1.727555
 10
91.94
 20
-1.157555
 10
91.94
 20
-2.297555
  0
HATCH
  5
5E
100
AcDbEntity
  8
ASSEMBLY_OUTLINES_TOP
100
AcDbHatch
 10
0.0
 20
0.0
 30
0.0
210
0.0
220
0.0
230
1.0
  2
SOLID
 70
         1
 71
         1
 91
        1
 92
        2
 72
         0
 73
         1
 93
        3
 10
90.799999999999997
 20
-1.727555
 10
91.939999999999998
 20
-1.1575549999999999
 10
91.939999999999998
 20
-2.297555
 97
        1
330
5D
 75
         0
 76
         1
 98
        1
 10
0.0
 20
0.0
  0
LWPOLYLINE
  5
5F
100
AcDbEntity
  8
ASSEMBLY_OUTLINES_TOP
100
AcDbPolyline
 90
        3
 70
         1
 10
121.5
 20
-1.727555
 10
120.36
 20
-2.297555
 10
120.36
 20
-1.157555
  0
HATCH
  5
60
100
AcDbEntity
  8
ASSEMBLY_OUTLINES_TOP
100
AcDbHatch
 10
0.0
 20
0.0
 30
0.0
210
0.0
220
0.0
230
1.0
  2
SOLID
 70
         1
 71
         1
 91
        1
 92
        2
 72
         0
 73
         1
 93
        3
 10
121.5
 20
-1.727555
 10
120.36
 20
-2.297555
 10
120.36
 20
-1.1575549999999999
 97
        1
330
5F
 75
         0
 76
         1
 98
        1
 10
0.0
 20
0.0
  0
LWPOLYLINE
  5
61
100
AcDbEntity
  8
ASSEMBLY_OUTLINES_TOP
100
AcDbPolyline
 90
        2
 70
         0
 43
0.2
 10
122.01
 20
23.0
 10
141.985464
 20
23.0
  0
LWPOLYLINE
  5
62
100
AcDbEntity
  8
ASSEMBLY_OUTLINES_TOP
100
AcDbPolyline
 90
        2
 70
         0
 43
0.2
 10
137.81
 20
2.7
 10
141.985464
 20
2.7
  0
LWPOLYLINE
  5
63
100
AcDbEntity
  8
ASSEMBLY_OUTLINES_TOP
100
AcDbPolyline
 90
        2
 70
         0
 43
0.2
 10
141.475464
 20
22.43
 10
141.475464
 20
16.741707
  0
LWPOLYLINE
  5
64
100
AcDbEntity
  8
ASSEMBLY_OUTLINES_TOP
100
AcDbPolyline
 90
        2
 70
         0
 43
0.2
 10
141.475464
 20
8.958293
 10
141.475464
 20
3.27
  0
LWPOLYLINE
  5
65
100
AcDbEntity
  8
ASSEMBLY_OUTLINES_TOP
100
AcDbPolyline
 90
        3
 70
         1
 10
141.475464
 20
23.0
 10
142.045463
 20
21.86
 10
140.905464
 20
21.86
  0
HATCH
  5
66
100
AcDbEntity
  8
ASSEMBLY_OUTLINES_TOP
100
AcDbHatch
 10
0.0
 20
0.0
 30
0.0
210
0.0
220
0.0
230
1.0
  2
SOLID
 70
         1
 71
         1
 91
        1
 92
        2
 72
         0
 73
         1
 93
        3
 10
141.47546399999999
 20
23.0
 10
142.04546300000001
 20
21.859999999999999
 10
140.90546399999999
 20
21.859999999999999
 97
        1
330
65
 75
         0
 76
         1
 98
        1
 10
0.0
 20
0.0
  0
LWPOLYLINE
  5
67
100
AcDbEntity
  8
ASSEMBLY_OUTLINES_TOP
100
AcDbPolyline
 90
        3
 70
         1
 10
141.475464
 20
2.7
 10
140.905464
 20
3.84
 10
142.045464
 20
3.84
  0
HATCH
  5
68
100
AcDbEntity
  8
ASSEMBLY_OUTLINES_TOP
100
AcDbHatch
 10
0.0
 20
0.0
 30
0.0
210
0.0
220
0.0
230
1.0
  2
SOLID
 70
         1
 71
         1
 91
        1
 92
        2
 72
         0
 73
         1
 93
        3
 10
141.47546399999999
 20
2.7000000000000002
 10
140.90546399999999
 20
3.8399999999999999
 10
142.04546400000001
 20
3.8399999999999999
 97
        1
330
67
 75
         0
 76
         1
 98
        1
 10
0.0
 20
0.0
  0
LWPOLYLINE
  5
69
100
AcDbEntity
  8
ASSEMBLY_OUTLINES_TOP
100
AcDbPolyline
 90
        2
 70
         0
 43
0.2
 10
90.8
 20
2.19
 10
90.8
 20
-0.156998
  0
LWPOLYLINE
  5
6A
100
AcDbEntity
  8
ASSEMBLY_OUTLINES_TOP
100
AcDbPolyline
 90
        2
 70
         0
 43
0.2
 10
92.8
 20
4.19
 10
92.8
 20
-0.156998
  0
LWPOLYLINE
  5
6B
100
AcDbEntity
  8
ASSEMBLY_OUTLINES_TOP
100
AcDbPolyline
 90
        2
 70
         0
 43
0.2
 10
90.23
 20
0.353002
 10
87.95
 20
0.353002
  0
LWPOLYLINE
  5
6C
100
AcDbEntity
  8
ASSEMBLY_OUTLINES_TOP
100
AcDbPolyline
 90
        2
 70
         0
 43
0.2
 10
93.37
 20
0.353002
 10
95.65
 20
0.353002
  0
LWPOLYLINE
  5
6D
100
AcDbEntity
  8
ASSEMBLY_OUTLINES_TOP
100
AcDbPolyline
 90
        3
 70
         1
 10
90.8
 20
0.353002
 10
89.66
 20
-0.216998
 10
89.66
 20
0.923002
  0
HATCH
  5
6E
100
AcDbEntity
  8
ASSEMBLY_OUTLINES_TOP
100
AcDbHatch
 10
0.0
 20
0.0
 30
0.0
210
0.0
220
0.0
230
1.0
  2
SOLID
 70
         1
 71
         1
 91
        1
 92
        2
 72
         0
 73
         1
 93
        3
 10
90.799999999999997
 20
0.353002
 10
89.659999999999997
 20
-0.216998
 10
89.659999999999997
 20
0.923002
 97
        1
330
6D
 75
         0
 76
         1
 98
        1
 10
0.0
 20
0.0
  0
LWPOLYLINE
  5
6F
100
AcDbEntity
  8
ASSEMBLY_OUTLINES_TOP
100
AcDbPolyline
 90
        3
 70
         1
 10
92.8
 20
0.353002
 10
93.94
 20
0.923002
 10
93.94
 20
-0.216998
  0
HATCH
  5
70
100
AcDbEntity
  8
ASSEMBLY_OUTLINES_TOP
100
AcDbHatch
 10
0.0
 20
0.0
 30
0.0
210
0.0
220
0.0
230
1.0
  2
SOLID
 70
         1
 71
         1
 91
        1
 92
        2
 72
         0
 73
         1
 93
        3
 10
92.799999999999997
 20
0.353002
 10
93.939999999999998
 20
0.923002
 10
93.939999999999998
 20
-0.216998
 97
        1
330
6F
 75
         0
 76
         1
 98
        1
 10
0.0
 20
0.0
  0
LWPOLYLINE
  5
71
100
AcDbEntity
  8
ASSEMBLY_OUTLINES_TOP
100
AcDbPolyline
 90
        2
 70
         0
 43
0.2
 10
92.29
 20
4.7
 10
88.319076
 20
4.7
  0
LWPOLYLINE
  5
72
100
AcDbEntity
  8
ASSEMBLY_OUTLINES_TOP
100
AcDbPolyline
 90
        2
 70
         0
 43
0.2
 10
90.29
 20
2.7
 10
88.319076
 20
2.7
  0
LWPOLYLINE
  5
73
100
AcDbEntity
  8
ASSEMBLY_OUTLINES_TOP
100
AcDbPolyline
 90
        2
 70
         0
 43
0.2
 10
88.829076
 20
5.27
 10
88.829076
 20
7.55
  0
LWPOLYLINE
  5
74
100
AcDbEntity
  8
ASSEMBLY_OUTLINES_TOP
100
AcDbPolyline
 90
        2
 70
         0
 43
0.2
 10
88.829076
 20
2.13
 10
88.829076
 20
-0.15
  0
LWPOLYLINE
  5
75
100
AcDbEntity
  8
ASSEMBLY_OUTLINES_TOP
100
AcDbPolyline
 90
        3
 70
         1
 10
88.829076
 20
4.7
 10
88.259076
 20
5.84
 10
89.399076
 20
5.84
  0
HATCH
  5
76
100
AcDbEntity
  8
ASSEMBLY_OUTLINES_TOP
100
AcDbHatch
 10
0.0
 20
0.0
 30
0.0
210
0.0
220
0.0
230
1.0
  2
SOLID
 70
         1
 71
         1
 91
        1
 92
        2
 72
         0
 73
         1
 93
        3
 10
88.829076000000001
 20
4.7000000000000002
 10
88.259075999999993
 20
5.8399999999999999
 10
89.399075999999994
 20
5.8399999999999999
 97
        1
330
75
 75
         0
 76
         1
 98
        1
 10
0.0
 20
0.0
  0
LWPOLYLINE
  5
77
100
AcDbEntity
  8
ASSEMBLY_OUTLINES_TOP
100
AcDbPolyline
 90
        3
 70
         1
 10
88.829076
 20
2.7
 10
89.399075
 20
1.56
 10
88.259076
 20
1.56
  0
HATCH
  5
78
100
AcDbEntity
  8
ASSEMBLY_OUTLINES_TOP
100
AcDbHatch
 10
0.0
 20
0.0
 30
0.0
210
0.0
220
0.0
230
1.0
  2
SOLID
 70
         1
 71
         1
 91
        1
 92
        2
 72
         0
 73
         1
 93
        3
 10
88.829076000000001
 20
2.7000000000000002
 10
89.399074999999996
 20
1.5600000000000001
 10
88.259075999999993
 20
1.5600000000000001
 97
        1
330
77
 75
         0
 76
         1
 98
        1
 10
0.0
 20
0.0
  0
TEXT
  5
7A
100
AcDbEntity
  8
ASSEMBLY_OUTLINES_TOP
100
AcDbText
 10
110.56385
 20
-6.746478
 30
0.0
 40
1.27
  1
46.5mm
  7
VERIBEST_GERBER_0
 72
         1
 11
114.05
 21
-6.111478
 31
0.0
100
AcDbText
 73
         2
  0
TEXT
  5
7B
100
AcDbEntity
  8
ASSEMBLY_OUTLINES_TOP
100
AcDbText
 10
83.035
 20
37.802241
 30
0.0
 40
1.27
  1
75mm
 50
90.0
  7
VERIBEST_GERBER_0
 72
         1
 11
82.4
 21
40.200001
 31
0.0
100
AcDbText
 73
         2
  0
TEXT
  5
7C
100
AcDbEntity
  8
ASSEMBLY_OUTLINES_TOP
100
AcDbText
 10
84.133496
 20
52.996443
 30
0.0
 40
1.27
  1
2mm
  7
VERIBEST_GERBER_0
 72
         1
 11
85.931181
 21
53.631443
 31
0.0
100
AcDbText
 73
         2
  0
TEXT
  5
7D
100
AcDbEntity
  8
ASSEMBLY_OUTLINES_TOP
100
AcDbText
 10
87.654082
 20
23.369566
 30
0.0
 40
1.27
  1
48.3mm
 50
90.0
  7
VERIBEST_GERBER_0
 72
         1
 11
87.019082
 21
26.850001
 31
0.0
100
AcDbText
 73
         2
  0
TEXT
  5
7E
100
AcDbEntity
  8
ASSEMBLY_OUTLINES_TOP
100
AcDbText
 10
127.586075
 20
80.696856
 30
0.0
 40
1.27
  1
12.5mm
  7
VERIBEST_GERBER_0
 72
         1
 11
131.05
 21
81.331856
 31
0.0
100
AcDbText
 73
         2
  0
TEXT
  5
7F
100
AcDbEntity
  8
ASSEMBLY_OUTLINES_TOP
100
AcDbText
 10
144.303274
 20
66.208301
 30
0.0
 40
1.27
  1
16.1mm
 50
90.0
  7
VERIBEST_GERBER_0
 72
         1
 11
143.668274
 21
69.650001
 31
0.0
100
AcDbText
 73
         2
  0
TEXT
  5
80
100
AcDbEntity
  8
ASSEMBLY_OUTLINES_TOP
100
AcDbText
 10
102.66385
 20
-2.362554
 30
0.0
 40
1.27
  1
30.7mm
  7
VERIBEST_GERBER_0
 72
         1
 11
106.15
 21
-1.727554
 31
0.0
100
AcDbText
 73
         2
  0
TEXT
  5
81
100
AcDbEntity
  8
ASSEMBLY_OUTLINES_TOP
100
AcDbText
 10
142.110464
 20
9.36385
 30
0.0
 40
1.27
  1
20.3mm
 50
90.0
  7
VERIBEST_GERBER_0
 72
         1
 11
141.475464
 21
12.85
 31
0.0
100
AcDbText
 73
         2
  0
TEXT
  5
82
100
AcDbEntity
  8
ASSEMBLY_OUTLINES_TOP
100
AcDbText
 10
84.133496
 20
-0.281998
 30
0.0
 40
1.27
  1
2mm
  7
VERIBEST_GERBER_0
 72
         1
 11
85.931181
 21
0.353002
 31
0.0
100
AcDbText
 73
         2
  0
TEXT
  5
83
100
AcDbEntity
  8
ASSEMBLY_OUTLINES_TOP
100
AcDbText
 10
89.464076
 20
7.771134
 30
0.0
 40
1.27
  1
2mm
 50
90.0
  7
VERIBEST_GERBER_0
 72
         1
 11
88.829076
 21
9.568819
 31
0.0
100
AcDbText
 73
         2
  0
LWPOLYLINE
  5
84
100
AcDbEntity
  8
ASSEMBLY_OUTLINES_TOP
100
AcDbPolyline
 90
        4
 70
         1
 43
0.1
 10
104.35
 20
8.15
 10
104.35
 20
11.05
 10
105.65
 20
11.05
 10
105.65
 20
8.15
  0
LWPOLYLINE
  5
85
100
AcDbEntity
  8
ASSEMBLY_OUTLINES_TOP
100
AcDbPolyline
 90
        4
 70
         1
 43
0.1
 10
107.35
 20
8.15
 10
107.35
 20
11.05
 10
108.65
 20
11.05
 10
108.65
 20
8.15
  0
LWPOLYLINE
  5
86
100
AcDbEntity
  8
ASSEMBLY_OUTLINES_TOP
100
AcDbPolyline
 90
        4
 70
         1
 43
0.1
 10
105.85
 20
8.15
 10
105.85
 20
11.05
 10
107.15
 20
11.05
 10
107.15
 20
8.15
  0
LWPOLYLINE
  5
87
100
AcDbEntity
  8
ASSEMBLY_OUTLINES_TOP
100
AcDbPolyline
 90
        4
 70
         1
 43
0.1
 10
132.45
 20
65.05
 10
132.45
 20
66.35
 10
135.35
 20
66.35
 10
135.35
 20
65.05
  0
LWPOLYLINE
  5
88
100
AcDbEntity
  8
ASSEMBLY_OUTLINES_TOP
100
AcDbPolyline
 90
        4
 70
         1
 43
0.1
 10
109.85
 20
21.05
 10
109.85
 20
23.95
 10
111.15
 20
23.95
 10
111.15
 20
21.05
  0
LWPOLYLINE
  5
89
100
AcDbEntity
  8
ASSEMBLY_OUTLINES_TOP
100
AcDbPolyline
 90
        4
 70
         1
 43
0.1
 10
111.45
 20
21.05
 10
111.45
 20
23.95
 10
112.75
 20
23.95
 10
112.75
 20
21.05
  0
LWPOLYLINE
  5
8A
100
AcDbEntity
  8
ASSEMBLY_OUTLINES_TOP
100
AcDbPolyline
 90
        4
 70
         1
 43
0.1
 10
104.75
 20
5.05
 10
104.75
 20
6.35
 10
107.65
 20
6.35
 10
107.65
 20
5.05
  0
LWPOLYLINE
  5
8B
100
AcDbEntity
  8
ASSEMBLY_OUTLINES_TOP
100
AcDbPolyline
 90
        4
 70
         1
 43
0.1
 10
111.55
 20
17.9
 10
111.55
 20
20.7
 10
112.85
 20
20.7
 10
112.85
 20
17.9
  0
LWPOLYLINE
  5
8C
100
AcDbEntity
  8
ASSEMBLY_OUTLINES_TOP
100
AcDbPolyline
 90
        4
 70
         1
 43
0.1
 10
110.2
 20
9.15
 10
110.2
 20
10.45
 10
113.0
 20
10.45
 10
113.0
 20
9.15
  0
LWPOLYLINE
  5
8D
100
AcDbEntity
  8
ASSEMBLY_OUTLINES_TOP
100
AcDbPolyline
 90
        4
 70
         1
 43
0.1
 10
95.5
 20
8.05
 10
95.5
 20
9.35
 10
98.3
 20
9.35
 10
98.3
 20
8.05
  0
LWPOLYLINE
  5
8E
100
AcDbEntity
  8
ASSEMBLY_OUTLINES_TOP
100
AcDbPolyline
 90
        4
 70
         1
 43
0.1
 10
110.25
 20
5.65
 10
110.25
 20
8.55
 10
111.55
 20
8.55
 10
111.55
 20
5.65
  0
LWPOLYLINE
  5
8F
100
AcDbEntity
  8
ASSEMBLY_OUTLINES_TOP
100
AcDbPolyline
 90
        4
 70
         1
 43
0.1
 10
111.65
 20
4.75
 10
111.65
 20
7.65
 10
112.95
 20
7.65
 10
112.95
 20
4.75
  0
LWPOLYLINE
  5
90
100
AcDbEntity
  8
ASSEMBLY_OUTLINES_TOP
100
AcDbPolyline
 90
        4
 70
         1
 43
0.1
 10
111.55
 20
14.05
 10
111.55
 20
16.95
 10
112.85
 20
16.95
 10
112.85
 20
14.05
  0
LWPOLYLINE
  5
91
100
AcDbEntity
  8
ASSEMBLY_OUTLINES_TOP
100
AcDbPolyline
 90
        4
 70
         1
 43
0.1
 10
103.85
 20
22.25
 10
103.85
 20
25.15
 10
105.15
 20
25.15
 10
105.15
 20
22.25
  0
LWPOLYLINE
  5
92
100
AcDbEntity
  8
ASSEMBLY_OUTLINES_TOP
100
AcDbPolyline
 90
        4
 70
         1
 43
0.1
 10
101.55
 20
24.75
 10
101.55
 20
27.65
 10
102.85
 20
27.65
 10
102.85
 20
24.75
  0
LWPOLYLINE
  5
93
100
AcDbEntity
  8
ASSEMBLY_OUTLINES_TOP
100
AcDbPolyline
 90
        4
 70
         1
 43
0.1
 10
118.35
 20
43.05
 10
118.35
 20
45.95
 10
119.65
 20
45.95
 10
119.65
 20
43.05
  0
LWPOLYLINE
  5
94
100
AcDbEntity
  8
ASSEMBLY_OUTLINES_TOP
100
AcDbPolyline
 90
        4
 70
         1
 43
0.05
 10
120.3
 20
47.6
 10
120.3
 20
57.6
 10
124.3
 20
57.6
 10
124.3
 20
47.6
  0
LWPOLYLINE
  5
95
100
AcDbEntity
  8
ASSEMBLY_OUTLINES_TOP
100
AcDbPolyline
 90
        4
 70
         1
 43
0.1
 10
110.75
 20
55.5
 10
110.75
 20
58.3
 10
112.05
 20
58.3
 10
112.05
 20
55.5
  0
LWPOLYLINE
  5
96
100
AcDbEntity
  8
ASSEMBLY_OUTLINES_TOP
100
AcDbPolyline
 90
        4
 70
         1
 43
0.1
 10
110.75
 20
49.2
 10
110.75
 20
52.0
 10
112.05
 20
52.0
 10
112.05
 20
49.2
  0
LWPOLYLINE
  5
97
100
AcDbEntity
  8
ASSEMBLY_OUTLINES_TOP
100
AcDbPolyline
 90
        4
 70
         1
 43
0.1
 10
122.3
 20
64.55
 10
122.3
 20
67.85
 10
124.1
 20
67.85
 10
124.1
 20
64.55
  0
LWPOLYLINE
  5
98
100
AcDbEntity
  8
ASSEMBLY_OUTLINES_TOP
100
AcDbPolyline
 90
        4
 70
         1
 43
0.1
 10
111.982
 20
61.835
 10
111.982
 20
68.565
 10
118.202
 20
68.565
 10
118.202
 20
61.835
  0
LWPOLYLINE
  5
99
100
AcDbEntity
  8
ASSEMBLY_OUTLINES_TOP
100
AcDbPolyline
 90
        4
 70
         1
 43
0.1
 10
109.55
 20
13.4
 10
109.55
 20
16.2
 10
110.85
 20
16.2
 10
110.85
 20
13.4
  0
LWPOLYLINE
  5
9A
100
AcDbEntity
  8
ASSEMBLY_OUTLINES_TOP
100
AcDbPolyline
 90
        4
 70
         1
 43
0.1
 10
117.7
 20
59.25
 10
117.7
 20
60.55
 10
120.5
 20
60.55
 10
120.5
 20
59.25
  0
LWPOLYLINE
  5
9B
100
AcDbEntity
  8
ASSEMBLY_OUTLINES_TOP
100
AcDbPolyline
 90
        4
 70
         1
 43
0.1
 10
110.75
 20
52.4
 10
110.75
 20
55.2
 10
112.05
 20
55.2
 10
112.05
 20
52.4
  0
LWPOLYLINE
  5
9C
100
AcDbEntity
  8
ASSEMBLY_OUTLINES_TOP
100
AcDbPolyline
 90
        4
 70
         1
 43
0.1
 10
109.55
 20
16.3
 10
109.55
 20
19.1
 10
110.85
 20
19.1
 10
110.85
 20
16.3
  0
LWPOLYLINE
  5
9D
100
AcDbEntity
  8
ASSEMBLY_OUTLINES_TOP
100
AcDbPolyline
 90
        4
 70
         1
 43
0.1
 10
104.75
 20
67.45
 10
104.75
 20
68.75
 10
107.65
 20
68.75
 10
107.65
 20
67.45
  0
LWPOLYLINE
  5
9E
100
AcDbEntity
  8
ASSEMBLY_OUTLINES_TOP
100
AcDbPolyline
 90
        4
 70
         1
 43
0.1
 10
96.6
 20
28.45
 10
96.6
 20
29.75
 10
99.4
 20
29.75
 10
99.4
 20
28.45
  0
LWPOLYLINE
  5
9F
100
AcDbEntity
  8
ASSEMBLY_OUTLINES_TOP
100
AcDbPolyline
 90
        4
 70
         1
 43
0.1
 10
114.6
 20
59.25
 10
114.6
 20
60.55
 10
117.4
 20
60.55
 10
117.4
 20
59.25
  0
LWPOLYLINE
  5
A0
100
AcDbEntity
  8
ASSEMBLY_OUTLINES_TOP
100
AcDbPolyline
 90
        2
 70
         0
 10
105.1
 20
20.75
 10
105.1
 20
13.25
  0
LWPOLYLINE
  5
A1
100
AcDbEntity
  8
ASSEMBLY_OUTLINES_TOP
100
AcDbPolyline
 90
        2
 70
         0
 10
109.1
 20
20.75
 10
109.1
 20
13.25
  0
LWPOLYLINE
  5
A2
100
AcDbEntity
  8
ASSEMBLY_OUTLINES_TOP
100
AcDbPolyline
 90
        2
 70
         0
 10
105.1
 20
13.25
 42
1.0
 10
109.1
 20
13.25
  0
LWPOLYLINE
  5
A3
100
AcDbEntity
  8
ASSEMBLY_OUTLINES_TOP
100
AcDbPolyline
 90
        2
 70
         0
 10
109.1
 20
20.75
 42
1.0
 10
105.1
 20
20.75
  0
LWPOLYLINE
  5
A4
100
AcDbEntity
  8
ASSEMBLY_OUTLINES_TOP
100
AcDbPolyline
 90
        4
 70
         1
 43
0.1
 10
99.35
 20
16.15
 10
99.35
 20
19.05
 10
100.65
 20
19.05
 10
100.65
 20
16.15
  0
LWPOLYLINE
  5
A5
100
AcDbEntity
  8
ASSEMBLY_OUTLINES_TOP
100
AcDbPolyline
 90
        4
 70
         1
 43
0.1
 10
95.6
 20
22.7
 10
95.6
 20
26.7
 10
100.6
 20
26.7
 10
100.6
 20
22.7
  0
LWPOLYLINE
  5
A6
100
AcDbEntity
  8
ASSEMBLY_OUTLINES_TOP
100
AcDbPolyline
 90
        2
 70
         1
 43
0.1
 10
99.1
 20
25.7
 42
-1.0
 10
100.1
 20
25.7
 42
-1.0
  0
LWPOLYLINE
  5
A7
100
AcDbEntity
  8
ASSEMBLY_OUTLINES_TOP
100
AcDbPolyline
 90
        4
 70
         1
 43
0.1
 10
106.25
 20
65.85
 10
106.25
 20
67.15
 10
109.15
 20
67.15
 10
109.15
 20
65.85
  0
LWPOLYLINE
  5
A8
100
AcDbEntity
  8
ASSEMBLY_OUTLINES_TOP
100
AcDbPolyline
 90
        4
 70
         1
 43
0.1
 10
103.35
 20
15.4
 10
103.35
 20
18.2
 10
104.65
 20
18.2
 10
104.65
 20
15.4
  0
LWPOLYLINE
  5
A9
100
AcDbEntity
  8
ASSEMBLY_OUTLINES_TOP
100
AcDbPolyline
 90
        4
 70
         1
 43
0.1
 10
106.25
 20
64.35
 10
106.25
 20
65.65
 10
109.15
 20
65.65
 10
109.15
 20
64.35
  0
LWPOLYLINE
  5
AA
100
AcDbEntity
  8
ASSEMBLY_OUTLINES_TOP
100
AcDbPolyline
 90
        4
 70
         1
 10
124.34
 20
66.4
 10
124.34
 20
75.4
 10
138.84
 20
75.4
 10
138.84
 20
66.4
  0
LWPOLYLINE
  5
AB
100
AcDbEntity
  8
ASSEMBLY_OUTLINES_TOP
100
AcDbPolyline
 90
        4
 70
         1
 43
0.1
 10
106.75
 20
54.75
 10
106.75
 20
56.05
 10
109.65
 20
56.05
 10
109.65
 20
54.75
  0
LWPOLYLINE
  5
AC
100
AcDbEntity
  8
ASSEMBLY_OUTLINES_TOP
100
AcDbPolyline
 90
        4
 70
         1
 43
0.1
 10
99.6
 20
10.5
 10
99.6
 20
14.5
 10
103.6
 20
14.5
 10
103.6
 20
10.5
  0
LWPOLYLINE
  5
AD
100
AcDbEntity
  8
ASSEMBLY_OUTLINES_TOP
100
AcDbPolyline
 90
        2
 70
         0
 43
0.1
 10
103.5
 20
10.5
 10
103.6
 20
10.6
  0
LWPOLYLINE
  5
AE
100
AcDbEntity
  8
ASSEMBLY_OUTLINES_TOP
100
AcDbPolyline
 90
        2
 70
         0
 43
0.1
 10
103.4
 20
10.5
 10
103.6
 20
10.7
  0
LWPOLYLINE
  5
AF
100
AcDbEntity
  8
ASSEMBLY_OUTLINES_TOP
100
AcDbPolyline
 90
        2
 70
         0
 43
0.1
 10
103.3
 20
10.5
 10
103.6
 20
10.8
  0
LWPOLYLINE
  5
B0
100
AcDbEntity
  8
ASSEMBLY_OUTLINES_TOP
100
AcDbPolyline
 90
        2
 70
         0
 43
0.1
 10
103.2
 20
10.5
 10
103.6
 20
10.9
  0
LWPOLYLINE
  5
B1
100
AcDbEntity
  8
ASSEMBLY_OUTLINES_TOP
100
AcDbPolyline
 90
        2
 70
         0
 43
0.1
 10
103.1
 20
10.5
 10
103.6
 20
11.0
  0
LWPOLYLINE
  5
B2
100
AcDbEntity
  8
ASSEMBLY_OUTLINES_TOP
100
AcDbPolyline
 90
        2
 70
         0
 43
0.1
 10
103.0
 20
10.5
 10
103.6
 20
11.1
  0
LWPOLYLINE
  5
B3
100
AcDbEntity
  8
ASSEMBLY_OUTLINES_TOP
100
AcDbPolyline
 90
        2
 70
         0
 43
0.1
 10
102.9
 20
10.5
 10
103.6
 20
11.2
  0
LWPOLYLINE
  5
B4
100
AcDbEntity
  8
ASSEMBLY_OUTLINES_TOP
100
AcDbPolyline
 90
        2
 70
         0
 43
0.1
 10
102.8
 20
10.5
 10
103.6
 20
11.3
  0
LWPOLYLINE
  5
B5
100
AcDbEntity
  8
ASSEMBLY_OUTLINES_TOP
100
AcDbPolyline
 90
        2
 70
         0
 43
0.1
 10
102.7
 20
10.5
 10
103.6
 20
11.4
  0
LWPOLYLINE
  5
B6
100
AcDbEntity
  8
ASSEMBLY_OUTLINES_TOP
100
AcDbPolyline
 90
        2
 70
         0
 43
0.1
 10
102.6
 20
10.5
 10
103.6
 20
11.5
  0
CIRCLE
  5
B7
100
AcDbEntity
  8
ASSEMBLY_OUTLINES_TOP
100
AcDbCircle
 10
120.8
 20
43.799998
 30
0.0
 40
2.0
  0
LWPOLYLINE
  5
B8
100
AcDbEntity
  8
ASSEMBLY_OUTLINES_TOP
100
AcDbPolyline
 90
        4
 70
         1
 43
0.1
 10
106.75
 20
57.95
 10
106.75
 20
59.25
 10
109.65
 20
59.25
 10
109.65
 20
57.95
  0
LWPOLYLINE
  5
B9
100
AcDbEntity
  8
ASSEMBLY_OUTLINES_TOP
100
AcDbPolyline
 90
        4
 70
         1
 43
0.1
 10
111.55
 20
10.95
 10
111.55
 20
13.85
 10
112.85
 20
13.85
 10
112.85
 20
10.95
  0
LWPOLYLINE
  5
BA
100
AcDbEntity
  8
ASSEMBLY_OUTLINES_TOP
100
AcDbPolyline
 90
        4
 70
         1
 43
0.1
 10
106.75
 20
56.35
 10
106.75
 20
57.65
 10
109.65
 20
57.65
 10
109.65
 20
56.35
  0
LWPOLYLINE
  5
BB
100
AcDbEntity
  8
ASSEMBLY_OUTLINES_TOP
100
AcDbPolyline
 90
        8
 70
         1
 10
137.8
 20
55.15
 10
136.8
 20
55.15
 10
136.8
 20
53.55
 10
128.8
 20
53.55
 10
128.8
 20
64.45
 10
136.8
 20
64.45
 10
136.8
 20
62.9
 10
137.8
 20
62.9
  0
LWPOLYLINE
  5
BC
100
AcDbEntity
  8
ASSEMBLY_OUTLINES_TOP
100
AcDbPolyline
 90
        4
 70
         1
 10
95.63
 20
39.33
 10
95.63
 20
44.41
 10
98.17
 20
44.41
 10
98.17
 20
39.33
  0
LWPOLYLINE
  5
BD
100
AcDbEntity
  8
ASSEMBLY_OUTLINES_TOP
100
AcDbPolyline
 90
        4
 70
         1
 10
99.5
 20
47.65
 10
99.5
 20
53.95
 10
104.5
 20
53.95
 10
104.5
 20
47.65
  0
LWPOLYLINE
  5
BE
100
AcDbEntity
  8
ASSEMBLY_OUTLINES_TOP
100
AcDbPolyline
 90
        4
 70
         1
 43
0.1
 10
102.35
 20
21.65
 10
102.35
 20
24.55
 10
103.65
 20
24.55
 10
103.65
 20
21.65
  0
LWPOLYLINE
  5
BF
100
AcDbEntity
  8
ASSEMBLY_OUTLINES_TOP
100
AcDbPolyline
 90
        4
 70
         1
 10
125.83
 20
52.53
 10
125.83
 20
57.61
 10
128.37
 20
57.61
 10
128.37
 20
52.53
  0
LWPOLYLINE
  5
C0
100
AcDbEntity
  8
ASSEMBLY_OUTLINES_TOP
100
AcDbPolyline
 90
        4
 70
         1
 10
95.53
 20
15.09
 10
95.53
 20
20.17
 10
98.07
 20
20.17
 10
98.07
 20
15.09
  0
LWPOLYLINE
  5
C1
100
AcDbEntity
  8
ASSEMBLY_OUTLINES_TOP
100
AcDbPolyline
 90
        4
 70
         1
 43
0.1
 10
129.6
 20
65.4
 10
129.6
 20
66.2
 10
130.8
 20
66.2
 10
130.8
 20
65.4
  0
LWPOLYLINE
  5
C2
100
AcDbEntity
  8
ASSEMBLY_OUTLINES_TOP
100
AcDbPolyline
 90
        2
 70
         0
 43
0.1
 10
130.8
 20
66.2
 10
130.8
 20
65.4
  0
LWPOLYLINE
  5
C3
100
AcDbEntity
  8
ASSEMBLY_OUTLINES_TOP
100
AcDbPolyline
 90
        2
 70
         0
 43
0.1
 10
130.7
 20
66.2
 10
130.7
 20
65.4
  0
LWPOLYLINE
  5
C4
100
AcDbEntity
  8
ASSEMBLY_OUTLINES_TOP
100
AcDbPolyline
 90
        2
 70
         0
 43
0.1
 10
130.6
 20
66.2
 10
130.6
 20
65.4
  0
LWPOLYLINE
  5
C5
100
AcDbEntity
  8
ASSEMBLY_OUTLINES_TOP
100
AcDbPolyline
 90
        2
 70
         0
 43
0.1
 10
130.5
 20
66.2
 10
130.5
 20
65.4
  0
LWPOLYLINE
  5
C6
100
AcDbEntity
  8
ASSEMBLY_OUTLINES_TOP
100
AcDbPolyline
 90
        2
 70
         0
 43
0.1
 10
130.4
 20
66.2
 10
130.4
 20
65.4
  0
LWPOLYLINE
  5
C7
100
AcDbEntity
  8
ASSEMBLY_OUTLINES_TOP
100
AcDbPolyline
 90
        2
 70
         0
 43
0.1
 10
130.3
 20
66.2
 10
130.3
 20
65.4
  0
LWPOLYLINE
  5
C8
100
AcDbEntity
  8
ASSEMBLY_OUTLINES_TOP
100
AcDbPolyline
 90
        4
 70
         1
 43
0.1
 10
113.25
 20
23.65
 10
113.25
 20
24.95
 10
116.15
 20
24.95
 10
116.15
 20
23.65
  0
LWPOLYLINE
  5
C9
100
AcDbEntity
  8
ASSEMBLY_OUTLINES_TOP
100
AcDbPolyline
 90
        4
 70
         1
 43
0.1
 10
99.35
 20
6.8
 10
99.35
 20
9.6
 10
100.65
 20
9.6
 10
100.65
 20
6.8
  0
LWPOLYLINE
  5
CA
100
AcDbEntity
  8
ASSEMBLY_OUTLINES_TOP
100
AcDbPolyline
 90
        4
 70
         1
 43
0.1
 10
113.25
 20
25.05
 10
113.25
 20
26.35
 10
116.15
 20
26.35
 10
116.15
 20
25.05
  0
LWPOLYLINE
  5
CB
100
AcDbEntity
  8
ASSEMBLY_OUTLINES_TOP
100
AcDbPolyline
 90
        4
 70
         1
 43
0.1
 10
121.7
 20
41.85
 10
121.7
 20
43.15
 10
124.5
 20
43.15
 10
124.5
 20
41.85
  0
LWPOLYLINE
  5
CC
100
AcDbEntity
  8
ASSEMBLY_OUTLINES_TOP
100
AcDbPolyline
 90
        4
 70
         1
 10
137.35
 20
28.5
 10
137.35
 20
44.5
 10
143.25
 20
44.5
 10
143.25
 20
28.5
  0
LWPOLYLINE
  5
CD
100
AcDbEntity
  8
ASSEMBLY_OUTLINES_TOP
100
AcDbPolyline
 90
        4
 70
         1
 10
124.95
 20
21.1
 10
124.95
 20
51.9
 10
137.35
 20
51.9
 10
137.35
 20
21.1
  0
LWPOLYLINE
  5
CE
100
AcDbEntity
  8
ASSEMBLY_OUTLINES_TOP
100
AcDbPolyline
 90
        4
 70
         1
 43
0.1
 10
121.7
 20
44.45
 10
121.7
 20
45.75
 10
124.5
 20
45.75
 10
124.5
 20
44.45
  0
LWPOLYLINE
  5
CF
100
AcDbEntity
  8
ASSEMBLY_OUTLINES_TOP
100
AcDbPolyline
 90
        4
 70
         1
 10
113.45
 20
4.4
 10
113.45
 20
20.4
 10
138.85
 20
20.4
 10
138.85
 20
4.4
  0
LWPOLYLINE
  5
D0
100
AcDbEntity
  8
ASSEMBLY_OUTLINES_TOP
100
AcDbPolyline
 90
        4
 70
         1
 43
0.1
 10
116.6
 20
28.15
 10
116.6
 20
31.45
 10
118.4
 20
31.45
 10
118.4
 20
28.15
  0
LWPOLYLINE
  5
D1
100
AcDbEntity
  8
ASSEMBLY_OUTLINES_TOP
100
AcDbPolyline
 90
        4
 70
         1
 43
0.1
 10
101.7
 20
31.5
 10
101.7
 20
45.5
 10
115.7
 20
45.5
 10
115.7
 20
31.5
  0
LWPOLYLINE
  5
D2
100
AcDbEntity
  8
ASSEMBLY_OUTLINES_TOP
100
AcDbPolyline
 90
        2
 70
         1
 43
0.1
 10
114.2
 20
32.5
 42
-1.0
 10
115.2
 20
32.5
 42
-1.0
  0
LWPOLYLINE
  5
D3
100
AcDbEntity
  8
ASSEMBLY_OUTLINES_TOP
100
AcDbPolyline
 90
        4
 70
         1
 43
0.1
 10
111.9
 20
47.55
 10
111.9
 20
48.85
 10
114.7
 20
48.85
 10
114.7
 20
47.55
  0
LWPOLYLINE
  5
D4
100
AcDbEntity
  8
ASSEMBLY_OUTLINES_TOP
100
AcDbPolyline
 90
        4
 70
         1
 43
0.1
 10
114.0
 20
49.0
 10
114.0
 20
59.0
 10
118.0
 20
59.0
 10
118.0
 20
49.0
  0
LWPOLYLINE
  5
D5
100
AcDbEntity
  8
ASSEMBLY_OUTLINES_TOP
100
AcDbPolyline
 90
        2
 70
         1
 43
0.1
 10
114.5
 20
58.0
 42
-1.0
 10
115.5
 20
58.0
 42
-1.0
  0
LWPOLYLINE
  5
D6
100
AcDbEntity
  8
ASSEMBLY_OUTLINES_TOP
100
AcDbPolyline
 90
        4
 70
         1
 43
0.1
 10
98.25
 20
34.9
 10
98.25
 20
37.7
 10
99.55
 20
37.7
 10
99.55
 20
34.9
  0
LWPOLYLINE
  5
D7
100
AcDbEntity
  8
ASSEMBLY_OUTLINES_TOP
100
AcDbPolyline
 90
        4
 70
         1
 43
0.1
 10
104.65
 20
26.5
 10
104.65
 20
29.3
 10
105.95
 20
29.3
 10
105.95
 20
26.5
  0
LWPOLYLINE
  5
D8
100
AcDbEntity
  8
ASSEMBLY_OUTLINES_TOP
100
AcDbPolyline
 90
        4
 70
         1
 43
0.1
 10
113.3
 20
27.85
 10
113.3
 20
29.15
 10
116.1
 20
29.15
 10
116.1
 20
27.85
  0
LWPOLYLINE
  5
D9
100
AcDbEntity
  8
ASSEMBLY_OUTLINES_TOP
100
AcDbPolyline
 90
        4
 70
         1
 43
0.1
 10
113.3
 20
26.45
 10
113.3
 20
27.75
 10
116.1
 20
27.75
 10
116.1
 20
26.45
  0
LWPOLYLINE
  5
DA
100
AcDbEntity
  8
ASSEMBLY_OUTLINES_TOP
100
AcDbPolyline
 90
        4
 70
         1
 43
0.1
 10
106.75
 20
26.5
 10
106.75
 20
29.3
 10
108.05
 20
29.3
 10
108.05
 20
26.5
  0
LWPOLYLINE
  5
DB
100
AcDbEntity
  8
ASSEMBLY_OUTLINES_TOP
100
AcDbPolyline
 90
        4
 70
         1
 43
0.1
 10
108.75
 20
26.5
 10
108.75
 20
29.3
 10
110.05
 20
29.3
 10
110.05
 20
26.5
  0
LWPOLYLINE
  5
DC
100
AcDbEntity
  8
ASSEMBLY_OUTLINES_TOP
100
AcDbPolyline
 90
        4
 70
         1
 43
0.1
 10
110.45
 20
26.5
 10
110.45
 20
29.3
 10
111.75
 20
29.3
 10
111.75
 20
26.5
  0
LWPOLYLINE
  5
DD
100
AcDbEntity
  8
ASSEMBLY_OUTLINES_TOP
100
AcDbPolyline
 90
        4
 70
         1
 43
0.1
 10
118.3
 20
36.95
 10
118.3
 20
38.25
 10
121.1
 20
38.25
 10
121.1
 20
36.95
  0
LWPOLYLINE
  5
DE
100
AcDbEntity
  8
ASSEMBLY_OUTLINES_TOP
100
AcDbPolyline
 90
        4
 70
         1
 43
0.1
 10
107.55
 20
47.6
 10
107.55
 20
50.4
 10
108.85
 20
50.4
 10
108.85
 20
47.6
  0
LWPOLYLINE
  5
DF
100
AcDbEntity
  8
ASSEMBLY_OUTLINES_TOP
100
AcDbPolyline
 90
        4
 70
         1
 43
0.1
 10
123.45
 20
26.95
 10
123.45
 20
29.85
 10
124.75
 20
29.85
 10
124.75
 20
26.95
  0
LWPOLYLINE
  5
E0
100
AcDbEntity
  8
ASSEMBLY_OUTLINES_TOP
100
AcDbPolyline
 90
        4
 70
         1
 43
0.1
 10
123.45
 20
33.3
 10
123.45
 20
36.1
 10
124.75
 20
36.1
 10
124.75
 20
33.3
  0
LWPOLYLINE
  5
E1
100
AcDbEntity
  8
ASSEMBLY_OUTLINES_TOP
100
AcDbPolyline
 90
        4
 70
         1
 43
0.1
 10
123.45
 20
30.2
 10
123.45
 20
33.0
 10
124.75
 20
33.0
 10
124.75
 20
30.2
  0
LWPOLYLINE
  5
E2
100
AcDbEntity
  8
ASSEMBLY_OUTLINES_TOP
100
AcDbPolyline
 90
        2
 70
         0
 10
122.9
 20
27.35
 10
122.9
 20
34.85
  0
LWPOLYLINE
  5
E3
100
AcDbEntity
  8
ASSEMBLY_OUTLINES_TOP
100
AcDbPolyline
 90
        2
 70
         0
 10
118.9
 20
27.35
 10
118.9
 20
34.85
  0
LWPOLYLINE
  5
E4
100
AcDbEntity
  8
ASSEMBLY_OUTLINES_TOP
100
AcDbPolyline
 90
        2
 70
         0
 10
122.9
 20
34.85
 42
1.0
 10
118.9
 20
34.85
  0
LWPOLYLINE
  5
E5
100
AcDbEntity
  8
ASSEMBLY_OUTLINES_TOP
100
AcDbPolyline
 90
        2
 70
         0
 10
118.9
 20
27.35
 42
1.0
 10
122.9
 20
27.35
  0
LWPOLYLINE
  5
E6
100
AcDbEntity
  8
ASSEMBLY_OUTLINES_TOP
100
AcDbPolyline
 90
        4
 70
         1
 43
0.1
 10
111.85
 20
26.5
 10
111.85
 20
29.3
 10
113.15
 20
29.3
 10
113.15
 20
26.5
  0
LWPOLYLINE
  5
E7
100
AcDbEntity
  8
ASSEMBLY_OUTLINES_TOP
100
AcDbPolyline
 90
        4
 70
         1
 43
0.1
 10
99.5
 20
28.45
 10
99.5
 20
29.75
 10
102.3
 20
29.75
 10
102.3
 20
28.45
  0
LWPOLYLINE
  5
E8
100
AcDbEntity
  8
ASSEMBLY_OUTLINES_TOP
100
AcDbPolyline
 90
        4
 70
         1
 43
0.1
 10
118.45
 20
38.5
 10
118.45
 20
41.3
 10
119.75
 20
41.3
 10
119.75
 20
38.5
  0
LWPOLYLINE
  5
E9
100
AcDbEntity
  8
ASSEMBLY_OUTLINES_TOP
100
AcDbPolyline
 90
        4
 70
         1
 43
0.1
 10
90.9
 20
7.7
 10
90.9
 20
47.7
 10
94.9
 20
47.7
 10
94.9
 20
7.7
  0
LWPOLYLINE
  5
EA
100
AcDbEntity
  8
ASSEMBLY_OUTLINES_TOP
100
AcDbPolyline
 90
        4
 70
         1
 43
0.1
 10
106.75
 20
59.45
 10
106.75
 20
60.75
 10
109.65
 20
60.75
 10
109.65
 20
59.45
  0
LWPOLYLINE
  5
EB
100
AcDbEntity
  8
ASSEMBLY_OUTLINES_TOP
100
AcDbPolyline
 90
        4
 70
         1
 43
0.1
 10
105.55
 20
61.1
 10
105.55
 20
63.9
 10
106.85
 20
63.9
 10
106.85
 20
61.1
  0
LWPOLYLINE
  5
EC
100
AcDbEntity
  8
ASSEMBLY_OUTLINES_TOP
100
AcDbPolyline
 90
        4
 70
         1
 10
90.851005
 20
54.348337
 10
90.851005
 20
67.748337
 10
102.951005
 20
67.748337
 10
102.951005
 20
54.348337
  0
LWPOLYLINE
  5
ED
100
AcDbEntity
  8
ASSEMBLY_OUTLINES_TOP
100
AcDbPolyline
 90
        4
 70
         1
 10
83.851005
 20
56.048337
 10
83.851005
 20
67.048337
 10
90.851005
 20
67.048337
 10
90.851005
 20
56.048337
  0
LWPOLYLINE
  5
EE
100
AcDbEntity
  8
ASSEMBLY_OUTLINES_TOP
100
AcDbPolyline
 90
        4
 70
         1
 43
0.1
 10
110.55
 20
59.4
 10
110.55
 20
61.2
 10
113.85
 20
61.2
 10
113.85
 20
59.4
  0
LWPOLYLINE
  5
EF
100
AcDbEntity
  8
ASSEMBLY_OUTLINES_TOP
100
AcDbPolyline
 90
        4
 70
         1
 10
90.83
 20
69.02
 10
90.83
 20
77.72
 10
123.83
 20
77.72
 10
123.83
 20
69.02
  0
LWPOLYLINE
  5
F0
100
AcDbEntity
  8
ASSEMBLY_OUTLINES_TOP
100
AcDbPolyline
 90
        4
 70
         1
 10
103.9
 20
69.02
 10
103.9
 20
69.6
 10
110.4
 20
69.6
 10
110.4
 20
69.02
  0
LWPOLYLINE
  5
F1
100
AcDbEntity
  8
ASSEMBLY_OUTLINES_TOP
100
AcDbPolyline
 90
        4
 70
         1
 43
0.1
 10
109.25
 20
50.7
 10
109.25
 20
53.5
 10
110.55
 20
53.5
 10
110.55
 20
50.7
  0
LWPOLYLINE
  5
F2
100
AcDbEntity
  8
ASSEMBLY_OUTLINES_TOP
100
AcDbPolyline
 90
        4
 70
         1
 43
0.1
 10
107.75
 20
50.65
 10
107.75
 20
53.55
 10
109.05
 20
53.55
 10
109.05
 20
50.65
  0
LWPOLYLINE
  5
F3
100
AcDbEntity
  8
ASSEMBLY_OUTLINES_TOP
100
AcDbPolyline
 90
        4
 70
         1
 43
0.1
 10
99.85
 20
5.05
 10
99.85
 20
6.35
 10
102.75
 20
6.35
 10
102.75
 20
5.05
  0
LWPOLYLINE
  5
F4
100
AcDbEntity
  8
ASSEMBLY_OUTLINES_TOP
100
AcDbPolyline
 90
        4
 70
         1
 43
0.1
 10
96.15
 20
4.95
 10
96.15
 20
6.65
 10
99.25
 20
6.65
 10
99.25
 20
4.95
  0
LWPOLYLINE
  5
F5
100
AcDbEntity
  8
ASSEMBLY_OUTLINES_TOP
100
AcDbPolyline
 90
        2
 70
         0
 43
0.1
 10
96.25
 20
4.95
 10
96.25
 20
6.65
  0
LWPOLYLINE
  5
F6
100
AcDbEntity
  8
ASSEMBLY_OUTLINES_TOP
100
AcDbPolyline
 90
        2
 70
         0
 43
0.1
 10
96.35
 20
4.95
 10
96.35
 20
6.65
  0
LWPOLYLINE
  5
F7
100
AcDbEntity
  8
ASSEMBLY_OUTLINES_TOP
100
AcDbPolyline
 90
        2
 70
         0
 43
0.1
 10
96.45
 20
4.95
 10
96.45
 20
6.65
  0
LWPOLYLINE
  5
F8
100
AcDbEntity
  8
ASSEMBLY_OUTLINES_TOP
100
AcDbPolyline
 90
        2
 70
         0
 43
0.1
 10
96.55
 20
4.95
 10
96.55
 20
6.65
  0
LWPOLYLINE
  5
F9
100
AcDbEntity
  8
ASSEMBLY_OUTLINES_TOP
100
AcDbPolyline
 90
        2
 70
         0
 43
0.1
 10
96.65
 20
4.95
 10
96.65
 20
6.65
  0
LWPOLYLINE
  5
FA
100
AcDbEntity
  8
ASSEMBLY_OUTLINES_TOP
100
AcDbPolyline
 90
        2
 70
         0
 43
0.1
 10
96.75
 20
4.95
 10
96.75
 20
6.65
  0
LWPOLYLINE
  5
FB
100
AcDbEntity
  8
ASSEMBLY_OUTLINES_TOP
100
AcDbPolyline
 90
        4
 70
         1
 43
0.1
 10
100.85
 20
21.15
 10
100.85
 20
24.05
 10
102.15
 20
24.05
 10
102.15
 20
21.15
  0
TEXT
  5
FD
100
AcDbEntity
  8
ASSEMBLY_REF_DES_TOP
100
AcDbText
 10
104.5065
 20
10.382
 30
0.0
 40
1.0
  1
R8
 50
270.0
  7
GOST_TYPE_B
 72
         1
 11
105.0
 21
9.6
 31
0.0
100
AcDbText
 73
         2
  0
TEXT
  5
FE
100
AcDbEntity
  8
ASSEMBLY_REF_DES_TOP
100
AcDbText
 10
107.4565
 20
10.529
 30
0.0
 40
1.0
  1
R11
 50
270.0
  7
GOST_TYPE_B
 72
         1
 11
107.95
 21
9.65
 31
0.0
100
AcDbText
 73
         2
  0
TEXT
  5
FF
100
AcDbEntity
  8
ASSEMBLY_REF_DES_TOP
100
AcDbText
 10
106.0065
 20
10.333
 30
0.0
 40
1.0
  1
R9
 50
270.0
  7
GOST_TYPE_B
 72
         1
 11
106.5
 21
9.6
 31
0.0
100
AcDbText
 73
         2
  0
TEXT
  5
100
100
AcDbEntity
  8
ASSEMBLY_REF_DES_TOP
100
AcDbText
 10
133.4065
 20
66.775
 30
0.0
 40
1.0
  1
R29
 50
270.0
  7
GOST_TYPE_B
 72
         1
 11
133.9
 21
65.7
 31
0.0
100
AcDbText
 73
         2
  0
TEXT
  5
101
100
AcDbEntity
  8
ASSEMBLY_REF_DES_TOP
100
AcDbText
 10
110.0065
 20
23.477
 30
0.0
 40
1.0
  1
R19
 50
270.0
  7
GOST_TYPE_B
 72
         1
 11
110.5
 21
22.5
 31
0.0
100
AcDbText
 73
         2
  0
TEXT
  5
102
100
AcDbEntity
  8
ASSEMBLY_REF_DES_TOP
100
AcDbText
 10
111.6065
 20
23.624
 30
0.0
 40
1.0
  1
R24
 50
270.0
  7
GOST_TYPE_B
 72
         1
 11
112.1
 21
22.5
 31
0.0
100
AcDbText
 73
         2
  0
TEXT
  5
103
100
AcDbEntity
  8
ASSEMBLY_REF_DES_TOP
100
AcDbText
 10
105.409275
 20
5.264725
 30
0.0
 40
1.0
  1
R7
  7
GOST_TYPE_B
 72
         1
 11
106.141775
 21
5.758225
 31
0.0
100
AcDbText
 73
         2
  0
TEXT
  5
104
100
AcDbEntity
  8
ASSEMBLY_REF_DES_TOP
100
AcDbText
 10
111.7065
 20
20.228
 30
0.0
 40
1.0
  1
C16
 50
270.0
  7
GOST_TYPE_B
 72
         1
 11
112.2
 21
19.3
 31
0.0
100
AcDbText
 73
         2
  0
TEXT
  5
105
100
AcDbEntity
  8
ASSEMBLY_REF_DES_TOP
100
AcDbText
 10
110.9504
 20
9.45455
 30
0.0
 40
0.7
  1
C15
  7
GOST_TYPE_B
 72
         1
 11
111.6
 21
9.8
 31
0.0
100
AcDbText
 73
         2
  0
TEXT
  5
106
100
AcDbEntity
  8
ASSEMBLY_REF_DES_TOP
100
AcDbText
 10
96.4898
 20
8.35455
 30
0.0
 40
0.7
  1
C1
  7
GOST_TYPE_B
 72
         1
 11
96.9
 21
8.7
 31
0.0
100
AcDbText
 73
         2
  0
TEXT
  5
107
100
AcDbEntity
  8
ASSEMBLY_REF_DES_TOP
100
AcDbText
 10
110.4065
 20
8.077
 30
0.0
 40
1.0
  1
R21
 50
270.0
  7
GOST_TYPE_B
 72
         1
 11
110.9
 21
7.1
 31
0.0
100
AcDbText
 73
         2
  0
TEXT
  5
108
100
AcDbEntity
  8
ASSEMBLY_REF_DES_TOP
100
AcDbText
 10
111.8065
 20
7.275
 30
0.0
 40
1.0
  1
R20
 50
270.0
  7
GOST_TYPE_B
 72
         1
 11
112.3
 21
6.2
 31
0.0
100
AcDbText
 73
         2
  0
TEXT
  5
109
100
AcDbEntity
  8
ASSEMBLY_REF_DES_TOP
100
AcDbText
 10
111.7065
 20
16.575
 30
0.0
 40
1.0
  1
R23
 50
270.0
  7
GOST_TYPE_B
 72
         1
 11
112.2
 21
15.5
 31
0.0
100
AcDbText
 73
         2
  0
TEXT
  5
10A
100
AcDbEntity
  8
ASSEMBLY_REF_DES_TOP
100
AcDbText
 10
104.10455
 20
24.2631
 30
0.0
 40
0.7
  1
R6
 50
270.0
  7
GOST_TYPE_B
 72
         1
 11
104.45
 21
23.75
 31
0.0
100
AcDbText
 73
         2
  0
TEXT
  5
10B
100
AcDbEntity
  8
ASSEMBLY_REF_DES_TOP
100
AcDbText
 10
101.764725
 20
27.040225
 30
0.0
 40
1.0
  1
R4
 50
270.0
  7
GOST_TYPE_B
 72
         1
 11
102.258225
 21
26.258225
 31
0.0
100
AcDbText
 73
         2
  0
TEXT
  5
10C
100
AcDbEntity
  8
ASSEMBLY_REF_DES_TOP
100
AcDbText
 10
118.60455
 20
45.3025
 30
0.0
 40
0.7
  1
R27
 50
270.0
  7
GOST_TYPE_B
 72
         1
 11
118.95
 21
44.55
 31
0.0
100
AcDbText
 73
         2
  0
TEXT
  5
10D
100
AcDbEntity
  8
ASSEMBLY_REF_DES_TOP
100
AcDbText
 10
121.8
 20
51.761
 30
0.0
 40
1.0
  1
X4
 50
270.0
  7
GOST_TYPE_B
 72
         2
 11
121.8
 21
50.1
 31
0.0
100
AcDbText
 73
         1
  0
TEXT
  5
10E
100
AcDbEntity
  8
ASSEMBLY_REF_DES_TOP
100
AcDbText
 10
110.86165
 20
57.77285
 30
0.0
 40
1.0
  1
C21
 50
270.0
  7
GOST_TYPE_B
 72
         1
 11
111.35515
 21
56.84485
 31
0.0
100
AcDbText
 73
         2
  0
TEXT
  5
10F
100
AcDbEntity
  8
ASSEMBLY_REF_DES_TOP
100
AcDbText
 10
110.86165
 20
51.47285
 30
0.0
 40
1.0
  1
C19
 50
270.0
  7
GOST_TYPE_B
 72
         1
 11
111.35515
 21
50.54485
 31
0.0
100
AcDbText
 73
         2
  0
TEXT
  5
110
100
AcDbEntity
  8
ASSEMBLY_REF_DES_TOP
100
AcDbText
 10
122.7065
 20
67.226
 30
0.0
 40
1.0
  1
C35
 50
270.0
  7
GOST_TYPE_B
 72
         1
 11
123.2
 21
66.2
 31
0.0
100
AcDbText
 73
         2
  0
TEXT
  5
111
100
AcDbEntity
  8
ASSEMBLY_REF_DES_TOP
100
AcDbText
 10
114.928
 20
64.7065
 30
0.0
 40
1.0
  1
DA3
  7
GOST_TYPE_B
 72
         1
 11
116.1
 21
65.2
 31
0.0
100
AcDbText
 73
         2
  0
TEXT
  5
112
100
AcDbEntity
  8
ASSEMBLY_REF_DES_TOP
100
AcDbText
 10
109.85455
 20
15.381
 30
0.0
 40
0.7
  1
C11
 50
270.0
  7
GOST_TYPE_B
 72
         1
 11
110.2
 21
14.8
 31
0.0
100
AcDbText
 73
         2
  0
TEXT
  5
113
100
AcDbEntity
  8
ASSEMBLY_REF_DES_TOP
100
AcDbText
 10
118.6065
 20
60.926
 30
0.0
 40
1.0
  1
C30
 50
270.0
  7
GOST_TYPE_B
 72
         1
 11
119.1
 21
59.9
 31
0.0
100
AcDbText
 73
         2
  0
TEXT
  5
114
100
AcDbEntity
  8
ASSEMBLY_REF_DES_TOP
100
AcDbText
 10
110.9065
 20
54.826
 30
0.0
 40
1.0
  1
C20
 50
270.0
  7
GOST_TYPE_B
 72
         1
 11
111.4
 21
53.8
 31
0.0
100
AcDbText
 73
         2
  0
TEXT
  5
115
100
AcDbEntity
  8
ASSEMBLY_REF_DES_TOP
100
AcDbText
 10
109.85455
 20
18.3496
 30
0.0
 40
0.7
  1
C12
 50
270.0
  7
GOST_TYPE_B
 72
         1
 11
110.2
 21
17.7
 31
0.0
100
AcDbText
 73
         2
  0
TEXT
  5
116
100
AcDbEntity
  8
ASSEMBLY_REF_DES_TOP
100
AcDbText
 10
105.2235
 20
67.6065
 30
0.0
 40
1.0
  1
R10
  7
GOST_TYPE_B
 72
         1
 11
106.2
 21
68.1
 31
0.0
100
AcDbText
 73
         2
  0
TEXT
  5
117
100
AcDbEntity
  8
ASSEMBLY_REF_DES_TOP
100
AcDbText
 10
97.274225
 20
28.648275
 30
0.0
 40
1.0
  1
C2
  7
GOST_TYPE_B
 72
         1
 11
97.958225
 21
29.141775
 31
0.0
100
AcDbText
 73
         2
  0
TEXT
  5
118
100
AcDbEntity
  8
ASSEMBLY_REF_DES_TOP
100
AcDbText
 10
115.66165
 20
61.08115
 30
0.0
 40
1.0
  1
C26
 50
270.0
  7
GOST_TYPE_B
 72
         1
 11
116.15515
 21
60.05515
 31
0.0
100
AcDbText
 73
         2
  0
TEXT
  5
119
100
AcDbEntity
  8
ASSEMBLY_REF_DES_TOP
100
AcDbText
 10
106.85
 20
18.4
 30
0.0
 40
1.0
  1
ZQ1
 50
270.0
  7
VERIBEST_GERBER_0
 72
         1
 11
107.35
 21
17.0
 31
0.0
100
AcDbText
 73
         2
  0
TEXT
  5
11A
100
AcDbEntity
  8
ASSEMBLY_REF_DES_TOP
100
AcDbText
 10
99.5065
 20
18.235
 30
0.0
 40
1.0
  1
R1
 50
270.0
  7
GOST_TYPE_B
 72
         1
 11
100.0
 21
17.6
 31
0.0
100
AcDbText
 73
         2
  0
TEXT
  5
11B
100
AcDbEntity
  8
ASSEMBLY_REF_DES_TOP
100
AcDbText
 10
97.6065
 20
25.6745
 30
0.0
 40
1.0
  1
DA1
 50
270.0
  7
GOST_TYPE_B
 72
         1
 11
98.1
 21
24.6
 31
0.0
100
AcDbText
 73
         2
  0
TEXT
  5
11C
100
AcDbEntity
  8
ASSEMBLY_REF_DES_TOP
100
AcDbText
 10
106.733225
 20
65.948275
 30
0.0
 40
1.0
  1
R18
  7
GOST_TYPE_B
 72
         1
 11
107.758225
 21
66.441775
 31
0.0
100
AcDbText
 73
         2
  0
TEXT
  5
11D
100
AcDbEntity
  8
ASSEMBLY_REF_DES_TOP
100
AcDbText
 10
103.65455
 20
17.2788
 30
0.0
 40
0.7
  1
C6
 50
270.0
  7
GOST_TYPE_B
 72
         1
 11
104.0
 21
16.8
 31
0.0
100
AcDbText
 73
         2
  0
TEXT
  5
11E
100
AcDbEntity
  8
ASSEMBLY_REF_DES_TOP
100
AcDbText
 10
106.7235
 20
64.5065
 30
0.0
 40
1.0
  1
R17
  7
GOST_TYPE_B
 72
         1
 11
107.7
 21
65.0
 31
0.0
100
AcDbText
 73
         2
  0
TEXT
  5
11F
100
AcDbEntity
  8
ASSEMBLY_REF_DES_TOP
100
AcDbText
 10
131.54
 20
72.713
 30
0.0
 40
1.0
  1
X6
 50
270.0
  7
GOST_TYPE_B
 72
         2
 11
131.54
 21
71.15
 31
0.0
100
AcDbText
 73
         1
  0
TEXT
  5
120
100
AcDbEntity
  8
ASSEMBLY_REF_DES_TOP
100
AcDbText
 10
107.7065
 20
56.377
 30
0.0
 40
1.0
  1
R13
 50
270.0
  7
GOST_TYPE_B
 72
         1
 11
108.2
 21
55.4
 31
0.0
100
AcDbText
 73
         2
  0
TEXT
  5
121
100
AcDbEntity
  8
ASSEMBLY_REF_DES_TOP
100
AcDbText
 10
101.1065
 20
13.526
 30
0.0
 40
1.0
  1
DD1
 50
270.0
  7
GOST_TYPE_B
 72
         1
 11
101.6
 21
12.5
 31
0.0
100
AcDbText
 73
         2
  0
TEXT
  5
122
100
AcDbEntity
  8
ASSEMBLY_REF_DES_TOP
100
AcDbText
 10
121.279825
 20
42.626373
 30
0.0
 40
1.0
  1
ZQ2
 50
90.0
  7
GOST_TYPE_B
 72
         2
 11
121.279825
 21
45.068373
 31
0.0
100
AcDbText
 73
         1
  0
TEXT
  5
123
100
AcDbEntity
  8
ASSEMBLY_REF_DES_TOP
100
AcDbText
 10
107.7065
 20
59.577
 30
0.0
 40
1.0
  1
R15
 50
270.0
  7
GOST_TYPE_B
 72
         1
 11
108.2
 21
58.6
 31
0.0
100
AcDbText
 73
         2
  0
TEXT
  5
124
100
AcDbEntity
  8
ASSEMBLY_REF_DES_TOP
100
AcDbText
 10
111.7065
 20
13.475
 30
0.0
 40
1.0
  1
R22
 50
270.0
  7
GOST_TYPE_B
 72
         1
 11
112.2
 21
12.4
 31
0.0
100
AcDbText
 73
         2
  0
TEXT
  5
125
100
AcDbEntity
  8
ASSEMBLY_REF_DES_TOP
100
AcDbText
 10
107.7065
 20
58.026
 30
0.0
 40
1.0
  1
R14
 50
270.0
  7
GOST_TYPE_B
 72
         1
 11
108.2
 21
57.0
 31
0.0
100
AcDbText
 73
         2
  0
TEXT
  5
126
100
AcDbEntity
  8
ASSEMBLY_REF_DES_TOP
100
AcDbText
 10
133.14985
 20
58.09985
 30
0.0
 40
1.0
  1
X7
 50
90.0
  7
VERIBEST_GERBER_0
 72
         2
 11
133.14985
 21
59.98985
 31
0.0
100
AcDbText
 73
         1
  0
TEXT
  5
127
100
AcDbEntity
  8
ASSEMBLY_REF_DES_TOP
100
AcDbText
 10
96.4565
 20
42.485
 30
0.0
 40
1.0
  1
J2
 50
270.0
  7
GOST_TYPE_B
 72
         1
 11
96.95
 21
41.85
 31
0.0
100
AcDbText
 73
         2
  0
TEXT
  5
128
100
AcDbEntity
  8
ASSEMBLY_REF_DES_TOP
100
AcDbText
 10
102.7561
 20
49.9051
 30
0.0
 40
1.0
  1
SW1
 50
90.0
  7
GOST_TYPE_B
 72
         2
 11
102.7561
 21
52.2501
 31
0.0
100
AcDbText
 73
         1
  0
TEXT
  5
129
100
AcDbEntity
  8
ASSEMBLY_REF_DES_TOP
100
AcDbText
 10
102.60455
 20
23.6631
 30
0.0
 40
0.7
  1
R5
 50
270.0
  7
GOST_TYPE_B
 72
         1
 11
102.95
 21
23.15
 31
0.0
100
AcDbText
 73
         2
  0
TEXT
  5
12A
100
AcDbEntity
  8
ASSEMBLY_REF_DES_TOP
100
AcDbText
 10
127.579825
 20
56.916375
 30
0.0
 40
1.0
  1
J3
 50
270.0
  7
GOST_TYPE_B
 72
         2
 11
127.579825
 21
55.646375
 31
0.0
100
AcDbText
 73
         1
  0
TEXT
  5
12B
100
AcDbEntity
  8
ASSEMBLY_REF_DES_TOP
100
AcDbText
 10
96.126
 20
17.26
 30
0.0
 40
1.0
  1
J1
  7
GOST_TYPE_B
 72
         2
 11
97.2
 21
17.26
 31
0.0
100
AcDbText
 73
         1
  0
TEXT
  5
12C
100
AcDbEntity
  8
ASSEMBLY_REF_DES_TOP
100
AcDbText
 10
129.663
 20
65.55325
 30
0.0
 40
0.5
  1
VD1
  7
GOST_TYPE_B
 72
         1
 11
130.2
 21
65.8
 31
0.0
100
AcDbText
 73
         2
  0
TEXT
  5
12D
100
AcDbEntity
  8
ASSEMBLY_REF_DES_TOP
100
AcDbText
 10
113.89785
 20
23.90455
 30
0.0
 40
0.7
  1
R25
  7
GOST_TYPE_B
 72
         1
 11
114.65
 21
24.25
 31
0.0
100
AcDbText
 73
         2
  0
TEXT
  5
12E
100
AcDbEntity
  8
ASSEMBLY_REF_DES_TOP
100
AcDbText
 10
99.503425
 20
8.770625
 30
0.0
 40
1.0
  1
C3
 50
270.0
  7
GOST_TYPE_B
 72
         1
 11
99.996925
 21
8.086625
 31
0.0
100
AcDbText
 73
         2
  0
TEXT
  5
12F
100
AcDbEntity
  8
ASSEMBLY_REF_DES_TOP
100
AcDbText
 10
113.6255
 20
25.2065
 30
0.0
 40
1.0
  1
R26
  7
GOST_TYPE_B
 72
         1
 11
114.7
 21
25.7
 31
0.0
100
AcDbText
 73
         2
  0
TEXT
  5
130
100
AcDbEntity
  8
ASSEMBLY_REF_DES_TOP
100
AcDbText
 10
122.015775
 20
42.064725
 30
0.0
 40
1.0
  1
C33
  7
GOST_TYPE_B
 72
         1
 11
123.041775
 21
42.558225
 31
0.0
100
AcDbText
 73
         2
  0
TEXT
  5
131
100
AcDbEntity
  8
ASSEMBLY_REF_DES_TOP
100
AcDbText
 10
128.612275
 20
35.767425
 30
0.0
 40
1.0
  1
X5
 50
90.0
  7
VERIBEST_GERBER_0
 72
         2
 11
128.612275
 21
37.657425
 31
0.0
100
AcDbText
 73
         1
  0
TEXT
  5
132
100
AcDbEntity
  8
ASSEMBLY_REF_DES_TOP
100
AcDbText
 10
121.967275
 20
44.664725
 30
0.0
 40
1.0
  1
C34
  7
GOST_TYPE_B
 72
         1
 11
123.041775
 21
45.158225
 31
0.0
100
AcDbText
 73
         2
  0
TEXT
  5
133
100
AcDbEntity
  8
ASSEMBLY_REF_DES_TOP
100
AcDbText
 10
124.6935
 20
11.515
 30
0.0
 40
1.0
  1
T1
 50
90.0
  7
GOST_TYPE_B
 72
         1
 11
124.2
 21
12.15
 31
0.0
100
AcDbText
 73
         2
  0
TEXT
  5
134
100
AcDbEntity
  8
ASSEMBLY_REF_DES_TOP
100
AcDbText
 10
117.15455
 20
30.5182
 30
0.0
 40
0.7
  1
C27
 50
270.0
  7
GOST_TYPE_B
 72
         1
 11
117.5
 21
29.8
 31
0.0
100
AcDbText
 73
         2
  0
TEXT
  5
135
100
AcDbEntity
  8
ASSEMBLY_REF_DES_TOP
100
AcDbText
 10
107.577
 20
38.0065
 30
0.0
 40
1.0
  1
DD2
  7
GOST_TYPE_B
 72
         1
 11
108.7
 21
38.5
 31
0.0
100
AcDbText
 73
         2
  0
TEXT
  5
136
100
AcDbEntity
  8
ASSEMBLY_REF_DES_TOP
100
AcDbText
 10
112.5818
 20
47.85455
 30
0.0
 40
0.7
  1
C25
  7
GOST_TYPE_B
 72
         1
 11
113.3
 21
48.2
 31
0.0
100
AcDbText
 73
         2
  0
TEXT
  5
137
100
AcDbEntity
  8
ASSEMBLY_REF_DES_TOP
100
AcDbText
 10
115.5065
 20
55.1725
 30
0.0
 40
1.0
  1
DA2
 50
270.0
  7
GOST_TYPE_B
 72
         1
 11
116.0
 21
54.0
 31
0.0
100
AcDbText
 73
         2
  0
TEXT
  5
138
100
AcDbEntity
  8
ASSEMBLY_REF_DES_TOP
100
AcDbText
 10
98.55455
 20
36.8131
 30
0.0
 40
0.7
  1
C4
 50
270.0
  7
GOST_TYPE_B
 72
         1
 11
98.9
 21
36.3
 31
0.0
100
AcDbText
 73
         2
  0
TEXT
  5
139
100
AcDbEntity
  8
ASSEMBLY_REF_DES_TOP
100
AcDbText
 10
104.95455
 20
28.3788
 30
0.0
 40
0.7
  1
C7
 50
270.0
  7
GOST_TYPE_B
 72
         1
 11
105.3
 21
27.9
 31
0.0
100
AcDbText
 73
         2
  0
TEXT
  5
13A
100
AcDbEntity
  8
ASSEMBLY_REF_DES_TOP
100
AcDbText
 10
113.94785
 20
28.15455
 30
0.0
 40
0.7
  1
C24
  7
GOST_TYPE_B
 72
         1
 11
114.7
 21
28.5
 31
0.0
100
AcDbText
 73
         2
  0
TEXT
  5
13B
100
AcDbEntity
  8
ASSEMBLY_REF_DES_TOP
100
AcDbText
 10
113.9818
 20
26.75455
 30
0.0
 40
0.7
  1
C23
  7
GOST_TYPE_B
 72
         1
 11
114.7
 21
27.1
 31
0.0
100
AcDbText
 73
         2
  0
TEXT
  5
13C
100
AcDbEntity
  8
ASSEMBLY_REF_DES_TOP
100
AcDbText
 10
107.05455
 20
28.3788
 30
0.0
 40
0.7
  1
C9
 50
270.0
  7
GOST_TYPE_B
 72
         1
 11
107.4
 21
27.9
 31
0.0
100
AcDbText
 73
         2
  0
TEXT
  5
13D
100
AcDbEntity
  8
ASSEMBLY_REF_DES_TOP
100
AcDbText
 10
109.05455
 20
28.5496
 30
0.0
 40
0.7
  1
C13
 50
270.0
  7
GOST_TYPE_B
 72
         1
 11
109.4
 21
27.9
 31
0.0
100
AcDbText
 73
         2
  0
TEXT
  5
13E
100
AcDbEntity
  8
ASSEMBLY_REF_DES_TOP
100
AcDbText
 10
110.75455
 20
28.5496
 30
0.0
 40
0.7
  1
C17
 50
270.0
  7
GOST_TYPE_B
 72
         1
 11
111.1
 21
27.9
 31
0.0
100
AcDbText
 73
         2
  0
TEXT
  5
13F
100
AcDbEntity
  8
ASSEMBLY_REF_DES_TOP
100
AcDbText
 10
118.94785
 20
37.25455
 30
0.0
 40
0.7
  1
C28
  7
GOST_TYPE_B
 72
         1
 11
119.7
 21
37.6
 31
0.0
100
AcDbText
 73
         2
  0
TEXT
  5
140
100
AcDbEntity
  8
ASSEMBLY_REF_DES_TOP
100
AcDbText
 10
107.85455
 20
49.6496
 30
0.0
 40
0.7
  1
C10
 50
270.0
  7
GOST_TYPE_B
 72
         1
 11
108.2
 21
49.0
 31
0.0
100
AcDbText
 73
         2
  0
TEXT
  5
141
100
AcDbEntity
  8
ASSEMBLY_REF_DES_TOP
100
AcDbText
 10
123.70455
 20
29.2368
 30
0.0
 40
0.7
  1
R28
 50
270.0
  7
GOST_TYPE_B
 72
         1
 11
124.05
 21
28.45
 31
0.0
100
AcDbText
 73
         2
  0
TEXT
  5
142
100
AcDbEntity
  8
ASSEMBLY_REF_DES_TOP
100
AcDbText
 10
123.664725
 20
35.784225
 30
0.0
 40
1.0
  1
C32
 50
270.0
  7
GOST_TYPE_B
 72
         1
 11
124.158225
 21
34.758225
 31
0.0
100
AcDbText
 73
         2
  0
TEXT
  5
143
100
AcDbEntity
  8
ASSEMBLY_REF_DES_TOP
100
AcDbText
 10
123.548275
 20
32.469775
 30
0.0
 40
1.0
  1
C31
 50
270.0
  7
GOST_TYPE_B
 72
         1
 11
124.041775
 21
31.541775
 31
0.0
100
AcDbText
 73
         2
  0
TEXT
  5
144
100
AcDbEntity
  8
ASSEMBLY_REF_DES_TOP
100
AcDbText
 10
121.362275
 20
29.559925
 30
0.0
 40
1.0
  1
ZQ3
 50
90.0
  7
VERIBEST_GERBER_0
 72
         1
 11
120.862275
 21
30.977425
 31
0.0
100
AcDbText
 73
         2
  0
TEXT
  5
145
100
AcDbEntity
  8
ASSEMBLY_REF_DES_TOP
100
AcDbText
 10
112.15455
 20
28.5839
 30
0.0
 40
0.7
  1
C18
 50
270.0
  7
GOST_TYPE_B
 72
         1
 11
112.5
 21
27.9
 31
0.0
100
AcDbText
 73
         2
  0
TEXT
  5
146
100
AcDbEntity
  8
ASSEMBLY_REF_DES_TOP
100
AcDbText
 10
100.4212
 20
28.75455
 30
0.0
 40
0.7
  1
C5
  7
GOST_TYPE_B
 72
         1
 11
100.9
 21
29.1
 31
0.0
100
AcDbText
 73
         2
  0
TEXT
  5
147
100
AcDbEntity
  8
ASSEMBLY_REF_DES_TOP
100
AcDbText
 10
118.75455
 20
40.6182
 30
0.0
 40
0.7
  1
C29
 50
270.0
  7
GOST_TYPE_B
 72
         1
 11
119.1
 21
39.9
 31
0.0
100
AcDbText
 73
         2
  0
TEXT
  5
148
100
AcDbEntity
  8
ASSEMBLY_REF_DES_TOP
100
AcDbText
 10
92.3565
 20
27.6835
 30
0.0
 40
1.0
  1
X1
 50
270.0
  7
GOST_TYPE_B
 72
         1
 11
92.85
 21
27.0
 31
0.0
100
AcDbText
 73
         2
  0
TEXT
  5
149
100
AcDbEntity
  8
ASSEMBLY_REF_DES_TOP
100
AcDbText
 10
107.7065
 20
61.077
 30
0.0
 40
1.0
  1
R16
 50
270.0
  7
GOST_TYPE_B
 72
         1
 11
108.2
 21
60.1
 31
0.0
100
AcDbText
 73
         2
  0
TEXT
  5
14A
100
AcDbEntity
  8
ASSEMBLY_REF_DES_TOP
100
AcDbText
 10
105.7065
 20
63.233
 30
0.0
 40
1.0
  1
C8
 50
270.0
  7
GOST_TYPE_B
 72
         1
 11
106.2
 21
62.5
 31
0.0
100
AcDbText
 73
         2
  0
TEXT
  5
14B
100
AcDbEntity
  8
ASSEMBLY_REF_DES_TOP
100
AcDbText
 10
97.70033
 20
61.806212
 30
0.0
 40
1.0
  1
X2
 50
270.0
  7
GOST_TYPE_B
 72
         1
 11
98.19383
 21
61.024712
 31
0.0
100
AcDbText
 73
         2
  0
TEXT
  5
14C
100
AcDbEntity
  8
ASSEMBLY_REF_DES_TOP
100
AcDbText
 10
111.174
 20
59.8065
 30
0.0
 40
1.0
  1
C22
  7
GOST_TYPE_B
 72
         1
 11
112.2
 21
60.3
 31
0.0
100
AcDbText
 73
         2
  0
TEXT
  5
14D
100
AcDbEntity
  8
ASSEMBLY_REF_DES_TOP
100
AcDbText
 10
106.287
 20
74.2
 30
0.0
 40
1.0
  1
X3
  7
GOST_TYPE_B
 72
         2
 11
107.85
 21
74.2
 31
0.0
100
AcDbText
 73
         1
  0
TEXT
  5
14E
100
AcDbEntity
  8
ASSEMBLY_REF_DES_TOP
100
AcDbText
 10
109.55455
 20
52.7839
 30
0.0
 40
0.7
  1
C14
 50
270.0
  7
GOST_TYPE_B
 72
         1
 11
109.9
 21
52.1
 31
0.0
100
AcDbText
 73
         2
  0
TEXT
  5
14F
100
AcDbEntity
  8
ASSEMBLY_REF_DES_TOP
100
AcDbText
 10
107.848275
 20
53.018775
 30
0.0
 40
1.0
  1
R12
 50
270.0
  7
GOST_TYPE_B
 72
         1
 11
108.341775
 21
52.041775
 31
0.0
100
AcDbText
 73
         2
  0
TEXT
  5
150
100
AcDbEntity
  8
ASSEMBLY_REF_DES_TOP
100
AcDbText
 10
100.5675
 20
5.2065
 30
0.0
 40
1.0
  1
R2
  7
GOST_TYPE_B
 72
         1
 11
101.3
 21
5.7
 31
0.0
100
AcDbText
 73
         2
  0
TEXT
  5
151
100
AcDbEntity
  8
ASSEMBLY_REF_DES_TOP
100
AcDbText
 10
96.700925
 20
3.394225
 30
0.0
 40
1.0
  1
HL1
  7
GOST_TYPE_B
 72
         1
 11
97.677425
 21
3.887725
 31
0.0
100
AcDbText
 73
         2
  0
TEXT
  5
152
100
AcDbEntity
  8
ASSEMBLY_REF_DES_TOP
100
AcDbText
 10
101.0065
 20
23.333
 30
0.0
 40
1.0
  1
R3
 50
270.0
  7
GOST_TYPE_B
 72
         1
 11
101.5
 21
22.6
 31
0.0
100
AcDbText
 73
         2
  0
LWPOLYLINE
  5
153
100
AcDbEntity
  8
BOARD_OUTLINE
100
AcDbPolyline
 90
        4
 70
         1
 43
0.25
 10
90.8
 20
2.7
 10
90.8
 20
77.7
 10
137.3
 20
77.7
 10
137.3
 20
2.7
  0
CIRCLE
  5
154
100
AcDbEntity
  8
MOUNTING_HOLES_LAYER_TOP
100
AcDbCircle
 10
92.8
 20
51.0
 30
0.0
 40
1.5
  0
HATCH
  5
155
100
AcDbEntity
  8
MOUNTING_HOLES_LAYER_TOP
100
AcDbHatch
 10
0.0
 20
0.0
 30
0.0
210
0.0
220
0.0
230
1.0
  2
SOLID
 70
         1
 71
         1
 91
        1
 92
        1
 93
        1
 72
         2
 10
92.799999999999997
 20
51.0
 40
1.5
 50
0.0
 51
360.0
 73
         1
 97
        1
330
154
 75
         0
 76
         1
 98
        1
 10
0.0
 20
0.0
  0
CIRCLE
  5
156
100
AcDbEntity
  8
MOUNTING_HOLES_LAYER_TOP
100
AcDbCircle
 10
124.8
 20
61.6
 30
0.0
 40
1.5
  0
HATCH
  5
157
100
AcDbEntity
  8
MOUNTING_HOLES_LAYER_TOP
100
AcDbHatch
 10
0.0
 20
0.0
 30
0.0
210
0.0
220
0.0
230
1.0
  2
SOLID
 70
         1
 71
         1
 91
        1
 92
        1
 93
        1
 72
         2
 10
124.8
 20
61.600000000000001
 40
1.5
 50
0.0
 51
360.0
 73
         1
 97
        1
330
156
 75
         0
 76
         1
 98
        1
 10
0.0
 20
0.0
  0
CIRCLE
  5
158
100
AcDbEntity
  8
MOUNTING_HOLES_LAYER_TOP
100
AcDbCircle
 10
121.5
 20
23.0
 30
0.0
 40
1.5
  0
HATCH
  5
159
100
AcDbEntity
  8
MOUNTING_HOLES_LAYER_TOP
100
AcDbHatch
 10
0.0
 20
0.0
 30
0.0
210
0.0
220
0.0
230
1.0
  2
SOLID
 70
         1
 71
         1
 91
        1
 92
        1
 93
        1
 72
         2
 10
121.5
 20
23.0
 40
1.5
 50
0.0
 51
360.0
 73
         1
 97
        1
330
158
 75
         0
 76
         1
 98
        1
 10
0.0
 20
0.0
  0
CIRCLE
  5
15A
100
AcDbEntity
  8
MOUNTING_HOLES_LAYER_TOP
100
AcDbCircle
 10
92.8
 20
4.7
 30
0.0
 40
1.5
  0
HATCH
  5
15B
100
AcDbEntity
  8
MOUNTING_HOLES_LAYER_TOP
100
AcDbHatch
 10
0.0
 20
0.0
 30
0.0
210
0.0
220
0.0
230
1.0
  2
SOLID
 70
         1
 71
         1
 91
        1
 92
        1
 93
        1
 72
         2
 10
92.799999999999997
 20
4.7000000000000002
 40
1.5
 50
0.0
 51
360.0
 73
         1
 97
        1
330
15A
 75
         0
 76
         1
 98
        1
 10
0.0
 20
0.0
  0
CIRCLE
  5
15C
100
AcDbEntity
  8
MOUNTING_HOLES_LAYER_TOP
100
AcDbCircle
 10
128.05
 20
6.69
 30
0.0
 40
1.625
  0
HATCH
  5
15D
100
AcDbEntity
  8
MOUNTING_HOLES_LAYER_TOP
100
AcDbHatch
 10
0.0
 20
0.0
 30
0.0
210
0.0
220
0.0
230
1.0
  2
SOLID
 70
         1
 71
         1
 91
        1
 92
        1
 93
        1
 72
         2
 10
128.05000000000001
 20
6.6900000000000004
 40
1.625
 50
0.0
 51
360.0
 73
         1
 97
        1
330
15C
 75
         0
 76
         1
 98
        1
 10
0.0
 20
0.0
  0
CIRCLE
  5
15E
100
AcDbEntity
  8
MOUNTING_HOLES_LAYER_TOP
100
AcDbCircle
 10
128.05
 20
18.11
 30
0.0
 40
1.625
  0
HATCH
  5
15F
100
AcDbEntity
  8
MOUNTING_HOLES_LAYER_TOP
100
AcDbHatch
 10
0.0
 20
0.0
 30
0.0
210
0.0
220
0.0
230
1.0
  2
SOLID
 70
         1
 71
         1
 91
        1
 92
        1
 93
        1
 72
         2
 10
128.05000000000001
 20
18.109999999999999
 40
1.625
 50
0.0
 51
360.0
 73
         1
 97
        1
330
15E
 75
         0
 76
         1
 98
        1
 10
0.0
 20
0.0
  0
CIRCLE
  5
160
100
AcDbEntity
  8
MOUNTING_HOLES_LAYER_TOP
100
AcDbCircle
 10
100.351005
 20
66.048337
 30
0.0
 40
0.75
  0
HATCH
  5
161
100
AcDbEntity
  8
MOUNTING_HOLES_LAYER_TOP
100
AcDbHatch
 10
0.0
 20
0.0
 30
0.0
210
0.0
220
0.0
230
1.0
  2
SOLID
 70
         1
 71
         1
 91
        1
 92
        1
 93
        1
 72
         2
 10
100.351005
 20
66.048337000000004
 40
0.75
 50
0.0
 51
360.0
 73
         1
 97
        1
330
160
 75
         0
 76
         1
 98
        1
 10
0.0
 20
0.0
  0
CIRCLE
  5
162
100
AcDbEntity
  8
MOUNTING_HOLES_LAYER_TOP
100
AcDbCircle
 10
100.351005
 20
56.048337
 30
0.0
 40
0.75
  0
HATCH
  5
163
100
AcDbEntity
  8
MOUNTING_HOLES_LAYER_TOP
100
AcDbHatch
 10
0.0
 20
0.0
 30
0.0
210
0.0
220
0.0
230
1.0
  2
SOLID
 70
         1
 71
         1
 91
        1
 92
        1
 93
        1
 72
         2
 10
100.351005
 20
56.048336999999997
 40
0.75
 50
0.0
 51
360.0
 73
         1
 97
        1
330
162
 75
         0
 76
         1
 98
        1
 10
0.0
 20
0.0
  0
CIRCLE
  5
164
100
AcDbEntity
  8
PART_HOLES_LAYER_TOP
100
AcDbCircle
 10
121.299974
 20
56.600661
 30
0.0
 40
0.45
  0
HATCH
  5
165
100
AcDbEntity
  8
PART_HOLES_LAYER_TOP
100
AcDbHatch
 10
0.0
 20
0.0
 30
0.0
210
0.0
220
0.0
230
1.0
  2
SOLID
 70
         1
 71
         1
 91
        1
 92
        1
 93
        1
 72
         2
 10
121.29997400000001
 20
56.600661000000002
 40
0.45
 50
0.0
 51
360.0
 73
         1
 97
        1
330
164
 75
         0
 76
         1
 98
        1
 10
0.0
 20
0.0
  0
CIRCLE
  5
166
100
AcDbEntity
  8
PART_HOLES_LAYER_TOP
100
AcDbCircle
 10
123.299974
 20
56.600661
 30
0.0
 40
0.45
  0
HATCH
  5
167
100
AcDbEntity
  8
PART_HOLES_LAYER_TOP
100
AcDbHatch
 10
0.0
 20
0.0
 30
0.0
210
0.0
220
0.0
230
1.0
  2
SOLID
 70
         1
 71
         1
 91
        1
 92
        1
 93
        1
 72
         2
 10
123.29997400000001
 20
56.600661000000002
 40
0.45
 50
0.0
 51
360.0
 73
         1
 97
        1
330
166
 75
         0
 76
         1
 98
        1
 10
0.0
 20
0.0
  0
CIRCLE
  5
168
100
AcDbEntity
  8
PART_HOLES_LAYER_TOP
100
AcDbCircle
 10
123.299974
 20
54.600661
 30
0.0
 40
0.45
  0
HATCH
  5
169
100
AcDbEntity
  8
PART_HOLES_LAYER_TOP
100
AcDbHatch
 10
0.0
 20
0.0
 30
0.0
210
0.0
220
0.0
230
1.0
  2
SOLID
 70
         1
 71
         1
 91
        1
 92
        1
 93
        1
 72
         2
 10
123.29997400000001
 20
54.600661000000002
 40
0.45
 50
0.0
 51
360.0
 73
         1
 97
        1
330
168
 75
         0
 76
         1
 98
        1
 10
0.0
 20
0.0
  0
CIRCLE
  5
16A
100
AcDbEntity
  8
PART_HOLES_LAYER_TOP
100
AcDbCircle
 10
123.299974
 20
52.600661
 30
0.0
 40
0.45
  0
HATCH
  5
16B
100
AcDbEntity
  8
PART_HOLES_LAYER_TOP
100
AcDbHatch
 10
0.0
 20
0.0
 30
0.0
210
0.0
220
0.0
230
1.0
  2
SOLID
 70
         1
 71
         1
 91
        1
 92
        1
 93
        1
 72
         2
 10
123.29997400000001
 20
52.600661000000002
 40
0.45
 50
0.0
 51
360.0
 73
         1
 97
        1
330
16A
 75
         0
 76
         1
 98
        1
 10
0.0
 20
0.0
  0
CIRCLE
  5
16C
100
AcDbEntity
  8
PART_HOLES_LAYER_TOP
100
AcDbCircle
 10
123.299974
 20
50.600661
 30
0.0
 40
0.45
  0
HATCH
  5
16D
100
AcDbEntity
  8
PART_HOLES_LAYER_TOP
100
AcDbHatch
 10
0.0
 20
0.0
 30
0.0
210
0.0
220
0.0
230
1.0
  2
SOLID
 70
         1
 71
         1
 91
        1
 92
        1
 93
        1
 72
         2
 10
123.29997400000001
 20
50.600661000000002
 40
0.45
 50
0.0
 51
360.0
 73
         1
 97
        1
330
16C
 75
         0
 76
         1
 98
        1
 10
0.0
 20
0.0
  0
CIRCLE
  5
16E
100
AcDbEntity
  8
PART_HOLES_LAYER_TOP
100
AcDbCircle
 10
123.299974
 20
48.600661
 30
0.0
 40
0.45
  0
HATCH
  5
16F
100
AcDbEntity
  8
PART_HOLES_LAYER_TOP
100
AcDbHatch
 10
0.0
 20
0.0
 30
0.0
210
0.0
220
0.0
230
1.0
  2
SOLID
 70
         1
 71
         1
 91
        1
 92
        1
 93
        1
 72
         2
 10
123.29997400000001
 20
48.600661000000002
 40
0.45
 50
0.0
 51
360.0
 73
         1
 97
        1
330
16E
 75
         0
 76
         1
 98
        1
 10
0.0
 20
0.0
  0
CIRCLE
  5
170
100
AcDbEntity
  8
PART_HOLES_LAYER_TOP
100
AcDbCircle
 10
121.299974
 20
54.600661
 30
0.0
 40
0.45
  0
HATCH
  5
171
100
AcDbEntity
  8
PART_HOLES_LAYER_TOP
100
AcDbHatch
 10
0.0
 20
0.0
 30
0.0
210
0.0
220
0.0
230
1.0
  2
SOLID
 70
         1
 71
         1
 91
        1
 92
        1
 93
        1
 72
         2
 10
121.29997400000001
 20
54.600661000000002
 40
0.45
 50
0.0
 51
360.0
 73
         1
 97
        1
330
170
 75
         0
 76
         1
 98
        1
 10
0.0
 20
0.0
  0
CIRCLE
  5
172
100
AcDbEntity
  8
PART_HOLES_LAYER_TOP
100
AcDbCircle
 10
121.299974
 20
52.600661
 30
0.0
 40
0.45
  0
HATCH
  5
173
100
AcDbEntity
  8
PART_HOLES_LAYER_TOP
100
AcDbHatch
 10
0.0
 20
0.0
 30
0.0
210
0.0
220
0.0
230
1.0
  2
SOLID
 70
         1
 71
         1
 91
        1
 92
        1
 93
        1
 72
         2
 10
121.29997400000001
 20
52.600661000000002
 40
0.45
 50
0.0
 51
360.0
 73
         1
 97
        1
330
172
 75
         0
 76
         1
 98
        1
 10
0.0
 20
0.0
  0
CIRCLE
  5
174
100
AcDbEntity
  8
PART_HOLES_LAYER_TOP
100
AcDbCircle
 10
121.299974
 20
50.600661
 30
0.0
 40
0.45
  0
HATCH
  5
175
100
AcDbEntity
  8
PART_HOLES_LAYER_TOP
100
AcDbHatch
 10
0.0
 20
0.0
 30
0.0
210
0.0
220
0.0
230
1.0
  2
SOLID
 70
         1
 71
         1
 91
        1
 92
        1
 93
        1
 72
         2
 10
121.29997400000001
 20
50.600661000000002
 40
0.45
 50
0.0
 51
360.0
 73
         1
 97
        1
330
174
 75
         0
 76
         1
 98
        1
 10
0.0
 20
0.0
  0
CIRCLE
  5
176
100
AcDbEntity
  8
PART_HOLES_LAYER_TOP
100
AcDbCircle
 10
121.299974
 20
48.600661
 30
0.0
 40
0.45
  0
HATCH
  5
177
100
AcDbEntity
  8
PART_HOLES_LAYER_TOP
100
AcDbHatch
 10
0.0
 20
0.0
 30
0.0
210
0.0
220
0.0
230
1.0
  2
SOLID
 70
         1
 71
         1
 91
        1
 92
        1
 93
        1
 72
         2
 10
121.29997400000001
 20
48.600661000000002
 40
0.45
 50
0.0
 51
360.0
 73
         1
 97
        1
330
176
 75
         0
 76
         1
 98
        1
 10
0.0
 20
0.0
  0
CIRCLE
  5
178
100
AcDbEntity
  8
PART_HOLES_LAYER_TOP
100
AcDbCircle
 10
107.1
 20
19.44
 30
0.0
 40
0.45
  0
HATCH
  5
179
100
AcDbEntity
  8
PART_HOLES_LAYER_TOP
100
AcDbHatch
 10
0.0
 20
0.0
 30
0.0
210
0.0
220
0.0
230
1.0
  2
SOLID
 70
         1
 71
         1
 91
        1
 92
        1
 93
        1
 72
         2
 10
107.09999999999999
 20
19.440000000000001
 40
0.45
 50
0.0
 51
360.0
 73
         1
 97
        1
330
178
 75
         0
 76
         1
 98
        1
 10
0.0
 20
0.0
  0
CIRCLE
  5
17A
100
AcDbEntity
  8
PART_HOLES_LAYER_TOP
100
AcDbCircle
 10
107.1
 20
14.56
 30
0.0
 40
0.45
  0
HATCH
  5
17B
100
AcDbEntity
  8
PART_HOLES_LAYER_TOP
100
AcDbHatch
 10
0.0
 20
0.0
 30
0.0
210
0.0
220
0.0
230
1.0
  2
SOLID
 70
         1
 71
         1
 91
        1
 92
        1
 93
        1
 72
         2
 10
107.09999999999999
 20
14.56
 40
0.45
 50
0.0
 51
360.0
 73
         1
 97
        1
330
17A
 75
         0
 76
         1
 98
        1
 10
0.0
 20
0.0
  0
CIRCLE
  5
17C
100
AcDbEntity
  8
PART_HOLES_LAYER_TOP
100
AcDbCircle
 10
124.939998
 20
70.7
 30
0.0
 40
1.4
  0
HATCH
  5
17D
100
AcDbEntity
  8
PART_HOLES_LAYER_TOP
100
AcDbHatch
 10
0.0
 20
0.0
 30
0.0
210
0.0
220
0.0
230
1.0
  2
SOLID
 70
         1
 71
         1
 91
        1
 92
        1
 93
        1
 72
         2
 10
124.939998
 20
70.700000000000003
 40
1.3999999999999999
 50
0.0
 51
360.0
 73
         1
 97
        1
330
17C
 75
         0
 76
         1
 98
        1
 10
0.0
 20
0.0
  0
CIRCLE
  5
17E
100
AcDbEntity
  8
PART_HOLES_LAYER_TOP
100
AcDbCircle
 10
128.14
 20
75.4
 30
0.0
 40
1.4
  0
HATCH
  5
17F
100
AcDbEntity
  8
PART_HOLES_LAYER_TOP
100
AcDbHatch
 10
0.0
 20
0.0
 30
0.0
210
0.0
220
0.0
230
1.0
  2
SOLID
 70
         1
 71
         1
 91
        1
 92
        1
 93
        1
 72
         2
 10
128.13999999999999
 20
75.400000000000006
 40
1.3999999999999999
 50
0.0
 51
360.0
 73
         1
 97
        1
330
17E
 75
         0
 76
         1
 98
        1
 10
0.0
 20
0.0
  0
CIRCLE
  5
180
100
AcDbEntity
  8
PART_HOLES_LAYER_TOP
100
AcDbCircle
 10
131.139998
 20
70.7
 30
0.0
 40
1.4
  0
HATCH
  5
181
100
AcDbEntity
  8
PART_HOLES_LAYER_TOP
100
AcDbHatch
 10
0.0
 20
0.0
 30
0.0
210
0.0
220
0.0
230
1.0
  2
SOLID
 70
         1
 71
         1
 91
        1
 92
        1
 93
        1
 72
         2
 10
131.13999799999999
 20
70.700000000000003
 40
1.3999999999999999
 50
0.0
 51
360.0
 73
         1
 97
        1
330
180
 75
         0
 76
         1
 98
        1
 10
0.0
 20
0.0
  0
CIRCLE
  5
182
100
AcDbEntity
  8
PART_HOLES_LAYER_TOP
100
AcDbCircle
 10
120.8
 20
42.529998
 30
0.0
 40
0.45
  0
HATCH
  5
183
100
AcDbEntity
  8
PART_HOLES_LAYER_TOP
100
AcDbHatch
 10
0.0
 20
0.0
 30
0.0
210
0.0
220
0.0
230
1.0
  2
SOLID
 70
         1
 71
         1
 91
        1
 92
        1
 93
        1
 72
         2
 10
120.8
 20
42.529997999999999
 40
0.45
 50
0.0
 51
360.0
 73
         1
 97
        1
330
182
 75
         0
 76
         1
 98
        1
 10
0.0
 20
0.0
  0
CIRCLE
  5
184
100
AcDbEntity
  8
PART_HOLES_LAYER_TOP
100
AcDbCircle
 10
120.8
 20
45.07
 30
0.0
 40
0.45
  0
HATCH
  5
185
100
AcDbEntity
  8
PART_HOLES_LAYER_TOP
100
AcDbHatch
 10
0.0
 20
0.0
 30
0.0
210
0.0
220
0.0
230
1.0
  2
SOLID
 70
         1
 71
         1
 91
        1
 92
        1
 93
        1
 72
         2
 10
120.8
 20
45.07
 40
0.45
 50
0.0
 51
360.0
 73
         1
 97
        1
330
184
 75
         0
 76
         1
 98
        1
 10
0.0
 20
0.0
  0
CIRCLE
  5
186
100
AcDbEntity
  8
PART_HOLES_LAYER_TOP
100
AcDbCircle
 10
132.55
 20
61.2
 30
0.0
 40
0.45
  0
HATCH
  5
187
100
AcDbEntity
  8
PART_HOLES_LAYER_TOP
100
AcDbHatch
 10
0.0
 20
0.0
 30
0.0
210
0.0
220
0.0
230
1.0
  2
SOLID
 70
         1
 71
         1
 91
        1
 92
        1
 93
        1
 72
         2
 10
132.55000000000001
 20
61.200000000000003
 40
0.45
 50
0.0
 51
360.0
 73
         1
 97
        1
330
186
 75
         0
 76
         1
 98
        1
 10
0.0
 20
0.0
  0
CIRCLE
  5
188
100
AcDbEntity
  8
PART_HOLES_LAYER_TOP
100
AcDbCircle
 10
132.55
 20
56.8
 30
0.0
 40
0.45
  0
HATCH
  5
189
100
AcDbEntity
  8
PART_HOLES_LAYER_TOP
100
AcDbHatch
 10
0.0
 20
0.0
 30
0.0
210
0.0
220
0.0
230
1.0
  2
SOLID
 70
         1
 71
         1
 91
        1
 92
        1
 93
        1
 72
         2
 10
132.55000000000001
 20
56.799999999999997
 40
0.45
 50
0.0
 51
360.0
 73
         1
 97
        1
330
188
 75
         0
 76
         1
 98
        1
 10
0.0
 20
0.0
  0
CIRCLE
  5
18A
100
AcDbEntity
  8
PART_HOLES_LAYER_TOP
100
AcDbCircle
 10
96.9
 20
40.6
 30
0.0
 40
0.45
  0
HATCH
  5
18B
100
AcDbEntity
  8
PART_HOLES_LAYER_TOP
100
AcDbHatch
 10
0.0
 20
0.0
 30
0.0
210
0.0
220
0.0
230
1.0
  2
SOLID
 70
         1
 71
         1
 91
        1
 92
        1
 93
        1
 72
         2
 10
96.900000000000006
 20
40.600000000000001
 40
0.45
 50
0.0
 51
360.0
 73
         1
 97
        1
330
18A
 75
         0
 76
         1
 98
        1
 10
0.0
 20
0.0
  0
CIRCLE
  5
18C
100
AcDbEntity
  8
PART_HOLES_LAYER_TOP
100
AcDbCircle
 10
96.9
 20
43.14
 30
0.0
 40
0.45
  0
HATCH
  5
18D
100
AcDbEntity
  8
PART_HOLES_LAYER_TOP
100
AcDbHatch
 10
0.0
 20
0.0
 30
0.0
210
0.0
220
0.0
230
1.0
  2
SOLID
 70
         1
 71
         1
 91
        1
 92
        1
 93
        1
 72
         2
 10
96.900000000000006
 20
43.140000000000001
 40
0.45
 50
0.0
 51
360.0
 73
         1
 97
        1
330
18C
 75
         0
 76
         1
 98
        1
 10
0.0
 20
0.0
  0
CIRCLE
  5
18E
100
AcDbEntity
  8
PART_HOLES_LAYER_TOP
100
AcDbCircle
 10
127.1
 20
53.8
 30
0.0
 40
0.45
  0
HATCH
  5
18F
100
AcDbEntity
  8
PART_HOLES_LAYER_TOP
100
AcDbHatch
 10
0.0
 20
0.0
 30
0.0
210
0.0
220
0.0
230
1.0
  2
SOLID
 70
         1
 71
         1
 91
        1
 92
        1
 93
        1
 72
         2
 10
127.09999999999999
 20
53.799999999999997
 40
0.45
 50
0.0
 51
360.0
 73
         1
 97
        1
330
18E
 75
         0
 76
         1
 98
        1
 10
0.0
 20
0.0
  0
CIRCLE
  5
190
100
AcDbEntity
  8
PART_HOLES_LAYER_TOP
100
AcDbCircle
 10
127.1
 20
56.34
 30
0.0
 40
0.45
  0
HATCH
  5
191
100
AcDbEntity
  8
PART_HOLES_LAYER_TOP
100
AcDbHatch
 10
0.0
 20
0.0
 30
0.0
210
0.0
220
0.0
230
1.0
  2
SOLID
 70
         1
 71
         1
 91
        1
 92
        1
 93
        1
 72
         2
 10
127.09999999999999
 20
56.340000000000003
 40
0.45
 50
0.0
 51
360.0
 73
         1
 97
        1
330
190
 75
         0
 76
         1
 98
        1
 10
0.0
 20
0.0
  0
CIRCLE
  5
192
100
AcDbEntity
  8
PART_HOLES_LAYER_TOP
100
AcDbCircle
 10
96.8
 20
16.36
 30
0.0
 40
0.45
  0
HATCH
  5
193
100
AcDbEntity
  8
PART_HOLES_LAYER_TOP
100
AcDbHatch
 10
0.0
 20
0.0
 30
0.0
210
0.0
220
0.0
230
1.0
  2
SOLID
 70
         1
 71
         1
 91
        1
 92
        1
 93
        1
 72
         2
 10
96.799999999999997
 20
16.359999999999999
 40
0.45
 50
0.0
 51
360.0
 73
         1
 97
        1
330
192
 75
         0
 76
         1
 98
        1
 10
0.0
 20
0.0
  0
CIRCLE
  5
194
100
AcDbEntity
  8
PART_HOLES_LAYER_TOP
100
AcDbCircle
 10
96.8
 20
18.9
 30
0.0
 40
0.45
  0
HATCH
  5
195
100
AcDbEntity
  8
PART_HOLES_LAYER_TOP
100
AcDbHatch
 10
0.0
 20
0.0
 30
0.0
210
0.0
220
0.0
230
1.0
  2
SOLID
 70
         1
 71
         1
 91
        1
 92
        1
 93
        1
 72
         2
 10
96.799999999999997
 20
18.899999999999999
 40
0.45
 50
0.0
 51
360.0
 73
         1
 97
        1
330
194
 75
         0
 76
         1
 98
        1
 10
0.0
 20
0.0
  0
CIRCLE
  5
196
100
AcDbEntity
  8
PART_HOLES_LAYER_TOP
100
AcDbCircle
 10
126.4
 20
36.45
 30
0.0
 40
0.6
  0
HATCH
  5
197
100
AcDbEntity
  8
PART_HOLES_LAYER_TOP
100
AcDbHatch
 10
0.0
 20
0.0
 30
0.0
210
0.0
220
0.0
230
1.0
  2
SOLID
 70
         1
 71
         1
 91
        1
 92
        1
 93
        1
 72
         2
 10
126.40000000000001
 20
36.450000000000003
 40
0.6
 50
0.0
 51
360.0
 73
         1
 97
        1
330
196
 75
         0
 76
         1
 98
        1
 10
0.0
 20
0.0
  0
CIRCLE
  5
198
100
AcDbEntity
  8
PART_HOLES_LAYER_TOP
100
AcDbCircle
 10
126.4
 20
30.91
 30
0.0
 40
0.6
  0
HATCH
  5
199
100
AcDbEntity
  8
PART_HOLES_LAYER_TOP
100
AcDbHatch
 10
0.0
 20
0.0
 30
0.0
210
0.0
220
0.0
230
1.0
  2
SOLID
 70
         1
 71
         1
 91
        1
 92
        1
 93
        1
 72
         2
 10
126.40000000000001
 20
30.91
 40
0.6
 50
0.0
 51
360.0
 73
         1
 97
        1
330
198
 75
         0
 76
         1
 98
        1
 10
0.0
 20
0.0
  0
CIRCLE
  5
19A
100
AcDbEntity
  8
PART_HOLES_LAYER_TOP
100
AcDbCircle
 10
126.4
 20
33.68
 30
0.0
 40
0.6
  0
HATCH
  5
19B
100
AcDbEntity
  8
PART_HOLES_LAYER_TOP
100
AcDbHatch
 10
0.0
 20
0.0
 30
0.0
210
0.0
220
0.0
230
1.0
  2
SOLID
 70
         1
 71
         1
 91
        1
 92
        1
 93
        1
 72
         2
 10
126.40000000000001
 20
33.68
 40
0.6
 50
0.0
 51
360.0
 73
         1
 97
        1
330
19A
 75
         0
 76
         1
 98
        1
 10
0.0
 20
0.0
  0
CIRCLE
  5
19C
100
AcDbEntity
  8
PART_HOLES_LAYER_TOP
100
AcDbCircle
 10
126.4
 20
39.22
 30
0.0
 40
0.6
  0
HATCH
  5
19D
100
AcDbEntity
  8
PART_HOLES_LAYER_TOP
100
AcDbHatch
 10
0.0
 20
0.0
 30
0.0
210
0.0
220
0.0
230
1.0
  2
SOLID
 70
         1
 71
         1
 91
        1
 92
        1
 93
        1
 72
         2
 10
126.40000000000001
 20
39.219999999999999
 40
0.6
 50
0.0
 51
360.0
 73
         1
 97
        1
330
19C
 75
         0
 76
         1
 98
        1
 10
0.0
 20
0.0
  0
CIRCLE
  5
19E
100
AcDbEntity
  8
PART_HOLES_LAYER_TOP
100
AcDbCircle
 10
126.4
 20
41.99
 30
0.0
 40
0.6
  0
HATCH
  5
19F
100
AcDbEntity
  8
PART_HOLES_LAYER_TOP
100
AcDbHatch
 10
0.0
 20
0.0
 30
0.0
210
0.0
220
0.0
230
1.0
  2
SOLID
 70
         1
 71
         1
 91
        1
 92
        1
 93
        1
 72
         2
 10
126.40000000000001
 20
41.990000000000002
 40
0.6
 50
0.0
 51
360.0
 73
         1
 97
        1
330
19E
 75
         0
 76
         1
 98
        1
 10
0.0
 20
0.0
  0
CIRCLE
  5
1A0
100
AcDbEntity
  8
PART_HOLES_LAYER_TOP
100
AcDbCircle
 10
129.24
 20
32.295
 30
0.0
 40
0.6
  0
HATCH
  5
1A1
100
AcDbEntity
  8
PART_HOLES_LAYER_TOP
100
AcDbHatch
 10
0.0
 20
0.0
 30
0.0
210
0.0
220
0.0
230
1.0
  2
SOLID
 70
         1
 71
         1
 91
        1
 92
        1
 93
        1
 72
         2
 10
129.24000000000001
 20
32.295000000000002
 40
0.6
 50
0.0
 51
360.0
 73
         1
 97
        1
330
1A0
 75
         0
 76
         1
 98
        1
 10
0.0
 20
0.0
  0
CIRCLE
  5
1A2
100
AcDbEntity
  8
PART_HOLES_LAYER_TOP
100
AcDbCircle
 10
129.24
 20
35.065
 30
0.0
 40
0.6
  0
HATCH
  5
1A3
100
AcDbEntity
  8
PART_HOLES_LAYER_TOP
100
AcDbHatch
 10
0.0
 20
0.0
 30
0.0
210
0.0
220
0.0
230
1.0
  2
SOLID
 70
         1
 71
         1
 91
        1
 92
        1
 93
        1
 72
         2
 10
129.24000000000001
 20
35.064999999999998
 40
0.6
 50
0.0
 51
360.0
 73
         1
 97
        1
330
1A2
 75
         0
 76
         1
 98
        1
 10
0.0
 20
0.0
  0
CIRCLE
  5
1A4
100
AcDbEntity
  8
PART_HOLES_LAYER_TOP
100
AcDbCircle
 10
129.24
 20
37.835
 30
0.0
 40
0.6
  0
HATCH
  5
1A5
100
AcDbEntity
  8
PART_HOLES_LAYER_TOP
100
AcDbHatch
 10
0.0
 20
0.0
 30
0.0
210
0.0
220
0.0
230
1.0
  2
SOLID
 70
         1
 71
         1
 91
        1
 92
        1
 93
        1
 72
         2
 10
129.24000000000001
 20
37.835000000000001
 40
0.6
 50
0.0
 51
360.0
 73
         1
 97
        1
330
1A4
 75
         0
 76
         1
 98
        1
 10
0.0
 20
0.0
  0
CIRCLE
  5
1A6
100
AcDbEntity
  8
PART_HOLES_LAYER_TOP
100
AcDbCircle
 10
129.24
 20
40.605
 30
0.0
 40
0.6
  0
HATCH
  5
1A7
100
AcDbEntity
  8
PART_HOLES_LAYER_TOP
100
AcDbHatch
 10
0.0
 20
0.0
 30
0.0
210
0.0
220
0.0
230
1.0
  2
SOLID
 70
         1
 71
         1
 91
        1
 92
        1
 93
        1
 72
         2
 10
129.24000000000001
 20
40.604999999999997
 40
0.6
 50
0.0
 51
360.0
 73
         1
 97
        1
330
1A6
 75
         0
 76
         1
 98
        1
 10
0.0
 20
0.0
  0
CIRCLE
  5
1A8
100
AcDbEntity
  8
PART_HOLES_LAYER_TOP
100
AcDbCircle
 10
127.82
 20
48.95
 30
0.0
 40
1.5
  0
HATCH
  5
1A9
100
AcDbEntity
  8
PART_HOLES_LAYER_TOP
100
AcDbHatch
 10
0.0
 20
0.0
 30
0.0
210
0.0
220
0.0
230
1.0
  2
SOLID
 70
         1
 71
         1
 91
        1
 92
        1
 93
        1
 72
         2
 10
127.81999999999999
 20
48.950000000000003
 40
1.5
 50
0.0
 51
360.0
 73
         1
 97
        1
330
1A8
 75
         0
 76
         1
 98
        1
 10
0.0
 20
0.0
  0
CIRCLE
  5
1AA
100
AcDbEntity
  8
PART_HOLES_LAYER_TOP
100
AcDbCircle
 10
127.82
 20
23.95
 30
0.0
 40
1.5
  0
HATCH
  5
1AB
100
AcDbEntity
  8
PART_HOLES_LAYER_TOP
100
AcDbHatch
 10
0.0
 20
0.0
 30
0.0
210
0.0
220
0.0
230
1.0
  2
SOLID
 70
         1
 71
         1
 91
        1
 92
        1
 93
        1
 72
         2
 10
127.81999999999999
 20
23.949999999999999
 40
1.5
 50
0.0
 51
360.0
 73
         1
 97
        1
330
1AA
 75
         0
 76
         1
 98
        1
 10
0.0
 20
0.0
  0
CIRCLE
  5
1AC
100
AcDbEntity
  8
PART_HOLES_LAYER_TOP
100
AcDbCircle
 10
121.7
 20
7.955
 30
0.0
 40
0.45
  0
HATCH
  5
1AD
100
AcDbEntity
  8
PART_HOLES_LAYER_TOP
100
AcDbHatch
 10
0.0
 20
0.0
 30
0.0
210
0.0
220
0.0
230
1.0
  2
SOLID
 70
         1
 71
         1
 91
        1
 92
        1
 93
        1
 72
         2
 10
121.7
 20
7.9550000000000001
 40
0.45
 50
0.0
 51
360.0
 73
         1
 97
        1
330
1AC
 75
         0
 76
         1
 98
        1
 10
0.0
 20
0.0
  0
CIRCLE
  5
1AE
100
AcDbEntity
  8
PART_HOLES_LAYER_TOP
100
AcDbCircle
 10
121.7
 20
10.495
 30
0.0
 40
0.45
  0
HATCH
  5
1AF
100
AcDbEntity
  8
PART_HOLES_LAYER_TOP
100
AcDbHatch
 10
0.0
 20
0.0
 30
0.0
210
0.0
220
0.0
230
1.0
  2
SOLID
 70
         1
 71
         1
 91
        1
 92
        1
 93
        1
 72
         2
 10
121.7
 20
10.494999999999999
 40
0.45
 50
0.0
 51
360.0
 73
         1
 97
        1
330
1AE
 75
         0
 76
         1
 98
        1
 10
0.0
 20
0.0
  0
CIRCLE
  5
1B0
100
AcDbEntity
  8
PART_HOLES_LAYER_TOP
100
AcDbCircle
 10
121.7
 20
13.035
 30
0.0
 40
0.45
  0
HATCH
  5
1B1
100
AcDbEntity
  8
PART_HOLES_LAYER_TOP
100
AcDbHatch
 10
0.0
 20
0.0
 30
0.0
210
0.0
220
0.0
230
1.0
  2
SOLID
 70
         1
 71
         1
 91
        1
 92
        1
 93
        1
 72
         2
 10
121.7
 20
13.035
 40
0.45
 50
0.0
 51
360.0
 73
         1
 97
        1
330
1B0
 75
         0
 76
         1
 98
        1
 10
0.0
 20
0.0
  0
CIRCLE
  5
1B2
100
AcDbEntity
  8
PART_HOLES_LAYER_TOP
100
AcDbCircle
 10
119.16
 20
11.765
 30
0.0
 40
0.45
  0
HATCH
  5
1B3
100
AcDbEntity
  8
PART_HOLES_LAYER_TOP
100
AcDbHatch
 10
0.0
 20
0.0
 30
0.0
210
0.0
220
0.0
230
1.0
  2
SOLID
 70
         1
 71
         1
 91
        1
 92
        1
 93
        1
 72
         2
 10
119.16
 20
11.765000000000001
 40
0.45
 50
0.0
 51
360.0
 73
         1
 97
        1
330
1B2
 75
         0
 76
         1
 98
        1
 10
0.0
 20
0.0
  0
CIRCLE
  5
1B4
100
AcDbEntity
  8
PART_HOLES_LAYER_TOP
100
AcDbCircle
 10
125.0
 20
20.27
 30
0.0
 40
0.95
  0
HATCH
  5
1B5
100
AcDbEntity
  8
PART_HOLES_LAYER_TOP
100
AcDbHatch
 10
0.0
 20
0.0
 30
0.0
210
0.0
220
0.0
230
1.0
  2
SOLID
 70
         1
 71
         1
 91
        1
 92
        1
 93
        1
 72
         2
 10
125.0
 20
20.27
 40
0.95
 50
0.0
 51
360.0
 73
         1
 97
        1
330
1B4
 75
         0
 76
         1
 98
        1
 10
0.0
 20
0.0
  0
CIRCLE
  5
1B6
100
AcDbEntity
  8
PART_HOLES_LAYER_TOP
100
AcDbCircle
 10
119.16
 20
14.305
 30
0.0
 40
0.45
  0
HATCH
  5
1B7
100
AcDbEntity
  8
PART_HOLES_LAYER_TOP
100
AcDbHatch
 10
0.0
 20
0.0
 30
0.0
210
0.0
220
0.0
230
1.0
  2
SOLID
 70
         1
 71
         1
 91
        1
 92
        1
 93
        1
 72
         2
 10
119.16
 20
14.305
 40
0.45
 50
0.0
 51
360.0
 73
         1
 97
        1
330
1B6
 75
         0
 76
         1
 98
        1
 10
0.0
 20
0.0
  0
CIRCLE
  5
1B8
100
AcDbEntity
  8
PART_HOLES_LAYER_TOP
100
AcDbCircle
 10
133.13
 20
6.07
 30
0.0
 40
0.6
  0
HATCH
  5
1B9
100
AcDbEntity
  8
PART_HOLES_LAYER_TOP
100
AcDbHatch
 10
0.0
 20
0.0
 30
0.0
210
0.0
220
0.0
230
1.0
  2
SOLID
 70
         1
 71
         1
 91
        1
 92
        1
 93
        1
 72
         2
 10
133.13
 20
6.0700000000000003
 40
0.6
 50
0.0
 51
360.0
 73
         1
 97
        1
330
1B8
 75
         0
 76
         1
 98
        1
 10
0.0
 20
0.0
  0
CIRCLE
  5
1BA
100
AcDbEntity
  8
PART_HOLES_LAYER_TOP
100
AcDbCircle
 10
114.33
 20
6.94
 30
0.0
 40
0.75
  0
HATCH
  5
1BB
100
AcDbEntity
  8
PART_HOLES_LAYER_TOP
100
AcDbHatch
 10
0.0
 20
0.0
 30
0.0
210
0.0
220
0.0
230
1.0
  2
SOLID
 70
         1
 71
         1
 91
        1
 92
        1
 93
        1
 72
         2
 10
114.33
 20
6.9400000000000004
 40
0.75
 50
0.0
 51
360.0
 73
         1
 97
        1
330
1BA
 75
         0
 76
         1
 98
        1
 10
0.0
 20
0.0
  0
CIRCLE
  5
1BC
100
AcDbEntity
  8
PART_HOLES_LAYER_TOP
100
AcDbCircle
 10
131.43
 20
8.61
 30
0.0
 40
0.6
  0
HATCH
  5
1BD
100
AcDbEntity
  8
PART_HOLES_LAYER_TOP
100
AcDbHatch
 10
0.0
 20
0.0
 30
0.0
210
0.0
220
0.0
230
1.0
  2
SOLID
 70
         1
 71
         1
 91
        1
 92
        1
 93
        1
 72
         2
 10
131.43000000000001
 20
8.6099999999999994
 40
0.6
 50
0.0
 51
360.0
 73
         1
 97
        1
330
1BC
 75
         0
 76
         1
 98
        1
 10
0.0
 20
0.0
  0
CIRCLE
  5
1BE
100
AcDbEntity
  8
PART_HOLES_LAYER_TOP
100
AcDbCircle
 10
114.33
 20
9.48
 30
0.0
 40
0.75
  0
HATCH
  5
1BF
100
AcDbEntity
  8
PART_HOLES_LAYER_TOP
100
AcDbHatch
 10
0.0
 20
0.0
 30
0.0
210
0.0
220
0.0
230
1.0
  2
SOLID
 70
         1
 71
         1
 91
        1
 92
        1
 93
        1
 72
         2
 10
114.33
 20
9.4800000000000004
 40
0.75
 50
0.0
 51
360.0
 73
         1
 97
        1
330
1BE
 75
         0
 76
         1
 98
        1
 10
0.0
 20
0.0
  0
CIRCLE
  5
1C0
100
AcDbEntity
  8
PART_HOLES_LAYER_TOP
100
AcDbCircle
 10
133.13
 20
16.19
 30
0.0
 40
0.6
  0
HATCH
  5
1C1
100
AcDbEntity
  8
PART_HOLES_LAYER_TOP
100
AcDbHatch
 10
0.0
 20
0.0
 30
0.0
210
0.0
220
0.0
230
1.0
  2
SOLID
 70
         1
 71
         1
 91
        1
 92
        1
 93
        1
 72
         2
 10
133.13
 20
16.190000000000001
 40
0.6
 50
0.0
 51
360.0
 73
         1
 97
        1
330
1C0
 75
         0
 76
         1
 98
        1
 10
0.0
 20
0.0
  0
CIRCLE
  5
1C2
100
AcDbEntity
  8
PART_HOLES_LAYER_TOP
100
AcDbCircle
 10
114.33
 20
15.32
 30
0.0
 40
0.75
  0
HATCH
  5
1C3
100
AcDbEntity
  8
PART_HOLES_LAYER_TOP
100
AcDbHatch
 10
0.0
 20
0.0
 30
0.0
210
0.0
220
0.0
230
1.0
  2
SOLID
 70
         1
 71
         1
 91
        1
 92
        1
 93
        1
 72
         2
 10
114.33
 20
15.32
 40
0.75
 50
0.0
 51
360.0
 73
         1
 97
        1
330
1C2
 75
         0
 76
         1
 98
        1
 10
0.0
 20
0.0
  0
CIRCLE
  5
1C4
100
AcDbEntity
  8
PART_HOLES_LAYER_TOP
100
AcDbCircle
 10
125.0
 20
4.53
 30
0.0
 40
0.95
  0
HATCH
  5
1C5
100
AcDbEntity
  8
PART_HOLES_LAYER_TOP
100
AcDbHatch
 10
0.0
 20
0.0
 30
0.0
210
0.0
220
0.0
230
1.0
  2
SOLID
 70
         1
 71
         1
 91
        1
 92
        1
 93
        1
 72
         2
 10
125.0
 20
4.5300000000000002
 40
0.95
 50
0.0
 51
360.0
 73
         1
 97
        1
330
1C4
 75
         0
 76
         1
 98
        1
 10
0.0
 20
0.0
  0
CIRCLE
  5
1C6
100
AcDbEntity
  8
PART_HOLES_LAYER_TOP
100
AcDbCircle
 10
131.43
 20
18.73
 30
0.0
 40
0.6
  0
HATCH
  5
1C7
100
AcDbEntity
  8
PART_HOLES_LAYER_TOP
100
AcDbHatch
 10
0.0
 20
0.0
 30
0.0
210
0.0
220
0.0
230
1.0
  2
SOLID
 70
         1
 71
         1
 91
        1
 92
        1
 93
        1
 72
         2
 10
131.43000000000001
 20
18.73
 40
0.6
 50
0.0
 51
360.0
 73
         1
 97
        1
330
1C6
 75
         0
 76
         1
 98
        1
 10
0.0
 20
0.0
  0
CIRCLE
  5
1C8
100
AcDbEntity
  8
PART_HOLES_LAYER_TOP
100
AcDbCircle
 10
114.33
 20
17.86
 30
0.0
 40
0.75
  0
HATCH
  5
1C9
100
AcDbEntity
  8
PART_HOLES_LAYER_TOP
100
AcDbHatch
 10
0.0
 20
0.0
 30
0.0
210
0.0
220
0.0
230
1.0
  2
SOLID
 70
         1
 71
         1
 91
        1
 92
        1
 93
        1
 72
         2
 10
114.33
 20
17.859999999999999
 40
0.75
 50
0.0
 51
360.0
 73
         1
 97
        1
330
1C8
 75
         0
 76
         1
 98
        1
 10
0.0
 20
0.0
  0
CIRCLE
  5
1CA
100
AcDbEntity
  8
PART_HOLES_LAYER_TOP
100
AcDbCircle
 10
121.7
 20
15.575
 30
0.0
 40
0.45
  0
HATCH
  5
1CB
100
AcDbEntity
  8
PART_HOLES_LAYER_TOP
100
AcDbHatch
 10
0.0
 20
0.0
 30
0.0
210
0.0
220
0.0
230
1.0
  2
SOLID
 70
         1
 71
         1
 91
        1
 92
        1
 93
        1
 72
         2
 10
121.7
 20
15.574999999999999
 40
0.45
 50
0.0
 51
360.0
 73
         1
 97
        1
330
1CA
 75
         0
 76
         1
 98
        1
 10
0.0
 20
0.0
  0
CIRCLE
  5
1CC
100
AcDbEntity
  8
PART_HOLES_LAYER_TOP
100
AcDbCircle
 10
119.16
 20
16.845
 30
0.0
 40
0.45
  0
HATCH
  5
1CD
100
AcDbEntity
  8
PART_HOLES_LAYER_TOP
100
AcDbHatch
 10
0.0
 20
0.0
 30
0.0
210
0.0
220
0.0
230
1.0
  2
SOLID
 70
         1
 71
         1
 91
        1
 92
        1
 93
        1
 72
         2
 10
119.16
 20
16.844999999999999
 40
0.45
 50
0.0
 51
360.0
 73
         1
 97
        1
330
1CC
 75
         0
 76
         1
 98
        1
 10
0.0
 20
0.0
  0
CIRCLE
  5
1CE
100
AcDbEntity
  8
PART_HOLES_LAYER_TOP
100
AcDbCircle
 10
119.16
 20
9.225
 30
0.0
 40
0.45
  0
HATCH
  5
1CF
100
AcDbEntity
  8
PART_HOLES_LAYER_TOP
100
AcDbHatch
 10
0.0
 20
0.0
 30
0.0
210
0.0
220
0.0
230
1.0
  2
SOLID
 70
         1
 71
         1
 91
        1
 92
        1
 93
        1
 72
         2
 10
119.16
 20
9.2249999999999996
 40
0.45
 50
0.0
 51
360.0
 73
         1
 97
        1
330
1CE
 75
         0
 76
         1
 98
        1
 10
0.0
 20
0.0
  0
CIRCLE
  5
1D0
100
AcDbEntity
  8
PART_HOLES_LAYER_TOP
100
AcDbCircle
 10
120.9
 20
28.66
 30
0.0
 40
0.45
  0
HATCH
  5
1D1
100
AcDbEntity
  8
PART_HOLES_LAYER_TOP
100
AcDbHatch
 10
0.0
 20
0.0
 30
0.0
210
0.0
220
0.0
230
1.0
  2
SOLID
 70
         1
 71
         1
 91
        1
 92
        1
 93
        1
 72
         2
 10
120.90000000000001
 20
28.66
 40
0.45
 50
0.0
 51
360.0
 73
         1
 97
        1
330
1D0
 75
         0
 76
         1
 98
        1
 10
0.0
 20
0.0
  0
CIRCLE
  5
1D2
100
AcDbEntity
  8
PART_HOLES_LAYER_TOP
100
AcDbCircle
 10
120.9
 20
33.54
 30
0.0
 40
0.45
  0
HATCH
  5
1D3
100
AcDbEntity
  8
PART_HOLES_LAYER_TOP
100
AcDbHatch
 10
0.0
 20
0.0
 30
0.0
210
0.0
220
0.0
230
1.0
  2
SOLID
 70
         1
 71
         1
 91
        1
 92
        1
 93
        1
 72
         2
 10
120.90000000000001
 20
33.539999999999999
 40
0.45
 50
0.0
 51
360.0
 73
         1
 97
        1
330
1D2
 75
         0
 76
         1
 98
        1
 10
0.0
 20
0.0
  0
CIRCLE
  5
1D4
100
AcDbEntity
  8
PART_HOLES_LAYER_TOP
100
AcDbCircle
 10
93.9
 20
8.7
 30
0.0
 40
0.4
  0
HATCH
  5
1D5
100
AcDbEntity
  8
PART_HOLES_LAYER_TOP
100
AcDbHatch
 10
0.0
 20
0.0
 30
0.0
210
0.0
220
0.0
230
1.0
  2
SOLID
 70
         1
 71
         1
 91
        1
 92
        1
 93
        1
 72
         2
 10
93.900000000000006
 20
8.6999999999999993
 40
0.4
 50
0.0
 51
360.0
 73
         1
 97
        1
330
1D4
 75
         0
 76
         1
 98
        1
 10
0.0
 20
0.0
  0
CIRCLE
  5
1D6
100
AcDbEntity
  8
PART_HOLES_LAYER_TOP
100
AcDbCircle
 10
91.9
 20
8.7
 30
0.0
 40
0.4
  0
HATCH
  5
1D7
100
AcDbEntity
  8
PART_HOLES_LAYER_TOP
100
AcDbHatch
 10
0.0
 20
0.0
 30
0.0
210
0.0
220
0.0
230
1.0
  2
SOLID
 70
         1
 71
         1
 91
        1
 92
        1
 93
        1
 72
         2
 10
91.900000000000006
 20
8.6999999999999993
 40
0.4
 50
0.0
 51
360.0
 73
         1
 97
        1
330
1D6
 75
         0
 76
         1
 98
        1
 10
0.0
 20
0.0
  0
CIRCLE
  5
1D8
100
AcDbEntity
  8
PART_HOLES_LAYER_TOP
100
AcDbCircle
 10
93.9
 20
10.7
 30
0.0
 40
0.4
  0
HATCH
  5
1D9
100
AcDbEntity
  8
PART_HOLES_LAYER_TOP
100
AcDbHatch
 10
0.0
 20
0.0
 30
0.0
210
0.0
220
0.0
230
1.0
  2
SOLID
 70
         1
 71
         1
 91
        1
 92
        1
 93
        1
 72
         2
 10
93.900000000000006
 20
10.699999999999999
 40
0.4
 50
0.0
 51
360.0
 73
         1
 97
        1
330
1D8
 75
         0
 76
         1
 98
        1
 10
0.0
 20
0.0
  0
CIRCLE
  5
1DA
100
AcDbEntity
  8
PART_HOLES_LAYER_TOP
100
AcDbCircle
 10
91.9
 20
10.7
 30
0.0
 40
0.4
  0
HATCH
  5
1DB
100
AcDbEntity
  8
PART_HOLES_LAYER_TOP
100
AcDbHatch
 10
0.0
 20
0.0
 30
0.0
210
0.0
220
0.0
230
1.0
  2
SOLID
 70
         1
 71
         1
 91
        1
 92
        1
 93
        1
 72
         2
 10
91.900000000000006
 20
10.699999999999999
 40
0.4
 50
0.0
 51
360.0
 73
         1
 97
        1
330
1DA
 75
         0
 76
         1
 98
        1
 10
0.0
 20
0.0
  0
CIRCLE
  5
1DC
100
AcDbEntity
  8
PART_HOLES_LAYER_TOP
100
AcDbCircle
 10
93.9
 20
12.7
 30
0.0
 40
0.4
  0
HATCH
  5
1DD
100
AcDbEntity
  8
PART_HOLES_LAYER_TOP
100
AcDbHatch
 10
0.0
 20
0.0
 30
0.0
210
0.0
220
0.0
230
1.0
  2
SOLID
 70
         1
 71
         1
 91
        1
 92
        1
 93
        1
 72
         2
 10
93.900000000000006
 20
12.699999999999999
 40
0.4
 50
0.0
 51
360.0
 73
         1
 97
        1
330
1DC
 75
         0
 76
         1
 98
        1
 10
0.0
 20
0.0
  0
CIRCLE
  5
1DE
100
AcDbEntity
  8
PART_HOLES_LAYER_TOP
100
AcDbCircle
 10
91.9
 20
12.7
 30
0.0
 40
0.4
  0
HATCH
  5
1DF
100
AcDbEntity
  8
PART_HOLES_LAYER_TOP
100
AcDbHatch
 10
0.0
 20
0.0
 30
0.0
210
0.0
220
0.0
230
1.0
  2
SOLID
 70
         1
 71
         1
 91
        1
 92
        1
 93
        1
 72
         2
 10
91.900000000000006
 20
12.699999999999999
 40
0.4
 50
0.0
 51
360.0
 73
         1
 97
        1
330
1DE
 75
         0
 76
         1
 98
        1
 10
0.0
 20
0.0
  0
CIRCLE
  5
1E0
100
AcDbEntity
  8
PART_HOLES_LAYER_TOP
100
AcDbCircle
 10
93.9
 20
14.7
 30
0.0
 40
0.4
  0
HATCH
  5
1E1
100
AcDbEntity
  8
PART_HOLES_LAYER_TOP
100
AcDbHatch
 10
0.0
 20
0.0
 30
0.0
210
0.0
220
0.0
230
1.0
  2
SOLID
 70
         1
 71
         1
 91
        1
 92
        1
 93
        1
 72
         2
 10
93.900000000000006
 20
14.699999999999999
 40
0.4
 50
0.0
 51
360.0
 73
         1
 97
        1
330
1E0
 75
         0
 76
         1
 98
        1
 10
0.0
 20
0.0
  0
CIRCLE
  5
1E2
100
AcDbEntity
  8
PART_HOLES_LAYER_TOP
100
AcDbCircle
 10
91.9
 20
14.7
 30
0.0
 40
0.4
  0
HATCH
  5
1E3
100
AcDbEntity
  8
PART_HOLES_LAYER_TOP
100
AcDbHatch
 10
0.0
 20
0.0
 30
0.0
210
0.0
220
0.0
230
1.0
  2
SOLID
 70
         1
 71
         1
 91
        1
 92
        1
 93
        1
 72
         2
 10
91.900000000000006
 20
14.699999999999999
 40
0.4
 50
0.0
 51
360.0
 73
         1
 97
        1
330
1E2
 75
         0
 76
         1
 98
        1
 10
0.0
 20
0.0
  0
CIRCLE
  5
1E4
100
AcDbEntity
  8
PART_HOLES_LAYER_TOP
100
AcDbCircle
 10
93.9
 20
16.7
 30
0.0
 40
0.4
  0
HATCH
  5
1E5
100
AcDbEntity
  8
PART_HOLES_LAYER_TOP
100
AcDbHatch
 10
0.0
 20
0.0
 30
0.0
210
0.0
220
0.0
230
1.0
  2
SOLID
 70
         1
 71
         1
 91
        1
 92
        1
 93
        1
 72
         2
 10
93.900000000000006
 20
16.699999999999999
 40
0.4
 50
0.0
 51
360.0
 73
         1
 97
        1
330
1E4
 75
         0
 76
         1
 98
        1
 10
0.0
 20
0.0
  0
CIRCLE
  5
1E6
100
AcDbEntity
  8
PART_HOLES_LAYER_TOP
100
AcDbCircle
 10
91.9
 20
16.7
 30
0.0
 40
0.4
  0
HATCH
  5
1E7
100
AcDbEntity
  8
PART_HOLES_LAYER_TOP
100
AcDbHatch
 10
0.0
 20
0.0
 30
0.0
210
0.0
220
0.0
230
1.0
  2
SOLID
 70
         1
 71
         1
 91
        1
 92
        1
 93
        1
 72
         2
 10
91.900000000000006
 20
16.699999999999999
 40
0.4
 50
0.0
 51
360.0
 73
         1
 97
        1
330
1E6
 75
         0
 76
         1
 98
        1
 10
0.0
 20
0.0
  0
CIRCLE
  5
1E8
100
AcDbEntity
  8
PART_HOLES_LAYER_TOP
100
AcDbCircle
 10
93.9
 20
18.7
 30
0.0
 40
0.4
  0
HATCH
  5
1E9
100
AcDbEntity
  8
PART_HOLES_LAYER_TOP
100
AcDbHatch
 10
0.0
 20
0.0
 30
0.0
210
0.0
220
0.0
230
1.0
  2
SOLID
 70
         1
 71
         1
 91
        1
 92
        1
 93
        1
 72
         2
 10
93.900000000000006
 20
18.699999999999999
 40
0.4
 50
0.0
 51
360.0
 73
         1
 97
        1
330
1E8
 75
         0
 76
         1
 98
        1
 10
0.0
 20
0.0
  0
CIRCLE
  5
1EA
100
AcDbEntity
  8
PART_HOLES_LAYER_TOP
100
AcDbCircle
 10
91.9
 20
18.7
 30
0.0
 40
0.4
  0
HATCH
  5
1EB
100
AcDbEntity
  8
PART_HOLES_LAYER_TOP
100
AcDbHatch
 10
0.0
 20
0.0
 30
0.0
210
0.0
220
0.0
230
1.0
  2
SOLID
 70
         1
 71
         1
 91
        1
 92
        1
 93
        1
 72
         2
 10
91.900000000000006
 20
18.699999999999999
 40
0.4
 50
0.0
 51
360.0
 73
         1
 97
        1
330
1EA
 75
         0
 76
         1
 98
        1
 10
0.0
 20
0.0
  0
CIRCLE
  5
1EC
100
AcDbEntity
  8
PART_HOLES_LAYER_TOP
100
AcDbCircle
 10
93.9
 20
20.7
 30
0.0
 40
0.4
  0
HATCH
  5
1ED
100
AcDbEntity
  8
PART_HOLES_LAYER_TOP
100
AcDbHatch
 10
0.0
 20
0.0
 30
0.0
210
0.0
220
0.0
230
1.0
  2
SOLID
 70
         1
 71
         1
 91
        1
 92
        1
 93
        1
 72
         2
 10
93.900000000000006
 20
20.699999999999999
 40
0.4
 50
0.0
 51
360.0
 73
         1
 97
        1
330
1EC
 75
         0
 76
         1
 98
        1
 10
0.0
 20
0.0
  0
CIRCLE
  5
1EE
100
AcDbEntity
  8
PART_HOLES_LAYER_TOP
100
AcDbCircle
 10
91.9
 20
20.7
 30
0.0
 40
0.4
  0
HATCH
  5
1EF
100
AcDbEntity
  8
PART_HOLES_LAYER_TOP
100
AcDbHatch
 10
0.0
 20
0.0
 30
0.0
210
0.0
220
0.0
230
1.0
  2
SOLID
 70
         1
 71
         1
 91
        1
 92
        1
 93
        1
 72
         2
 10
91.900000000000006
 20
20.699999999999999
 40
0.4
 50
0.0
 51
360.0
 73
         1
 97
        1
330
1EE
 75
         0
 76
         1
 98
        1
 10
0.0
 20
0.0
  0
CIRCLE
  5
1F0
100
AcDbEntity
  8
PART_HOLES_LAYER_TOP
100
AcDbCircle
 10
93.9
 20
22.7
 30
0.0
 40
0.4
  0
HATCH
  5
1F1
100
AcDbEntity
  8
PART_HOLES_LAYER_TOP
100
AcDbHatch
 10
0.0
 20
0.0
 30
0.0
210
0.0
220
0.0
230
1.0
  2
SOLID
 70
         1
 71
         1
 91
        1
 92
        1
 93
        1
 72
         2
 10
93.900000000000006
 20
22.699999999999999
 40
0.4
 50
0.0
 51
360.0
 73
         1
 97
        1
330
1F0
 75
         0
 76
         1
 98
        1
 10
0.0
 20
0.0
  0
CIRCLE
  5
1F2
100
AcDbEntity
  8
PART_HOLES_LAYER_TOP
100
AcDbCircle
 10
91.9
 20
22.7
 30
0.0
 40
0.4
  0
HATCH
  5
1F3
100
AcDbEntity
  8
PART_HOLES_LAYER_TOP
100
AcDbHatch
 10
0.0
 20
0.0
 30
0.0
210
0.0
220
0.0
230
1.0
  2
SOLID
 70
         1
 71
         1
 91
        1
 92
        1
 93
        1
 72
         2
 10
91.900000000000006
 20
22.699999999999999
 40
0.4
 50
0.0
 51
360.0
 73
         1
 97
        1
330
1F2
 75
         0
 76
         1
 98
        1
 10
0.0
 20
0.0
  0
CIRCLE
  5
1F4
100
AcDbEntity
  8
PART_HOLES_LAYER_TOP
100
AcDbCircle
 10
93.9
 20
24.7
 30
0.0
 40
0.4
  0
HATCH
  5
1F5
100
AcDbEntity
  8
PART_HOLES_LAYER_TOP
100
AcDbHatch
 10
0.0
 20
0.0
 30
0.0
210
0.0
220
0.0
230
1.0
  2
SOLID
 70
         1
 71
         1
 91
        1
 92
        1
 93
        1
 72
         2
 10
93.900000000000006
 20
24.699999999999999
 40
0.4
 50
0.0
 51
360.0
 73
         1
 97
        1
330
1F4
 75
         0
 76
         1
 98
        1
 10
0.0
 20
0.0
  0
CIRCLE
  5
1F6
100
AcDbEntity
  8
PART_HOLES_LAYER_TOP
100
AcDbCircle
 10
91.9
 20
24.7
 30
0.0
 40
0.4
  0
HATCH
  5
1F7
100
AcDbEntity
  8
PART_HOLES_LAYER_TOP
100
AcDbHatch
 10
0.0
 20
0.0
 30
0.0
210
0.0
220
0.0
230
1.0
  2
SOLID
 70
         1
 71
         1
 91
        1
 92
        1
 93
        1
 72
         2
 10
91.900000000000006
 20
24.699999999999999
 40
0.4
 50
0.0
 51
360.0
 73
         1
 97
        1
330
1F6
 75
         0
 76
         1
 98
        1
 10
0.0
 20
0.0
  0
CIRCLE
  5
1F8
100
AcDbEntity
  8
PART_HOLES_LAYER_TOP
100
AcDbCircle
 10
93.9
 20
26.7
 30
0.0
 40
0.4
  0
HATCH
  5
1F9
100
AcDbEntity
  8
PART_HOLES_LAYER_TOP
100
AcDbHatch
 10
0.0
 20
0.0
 30
0.0
210
0.0
220
0.0
230
1.0
  2
SOLID
 70
         1
 71
         1
 91
        1
 92
        1
 93
        1
 72
         2
 10
93.900000000000006
 20
26.699999999999999
 40
0.4
 50
0.0
 51
360.0
 73
         1
 97
        1
330
1F8
 75
         0
 76
         1
 98
        1
 10
0.0
 20
0.0
  0
CIRCLE
  5
1FA
100
AcDbEntity
  8
PART_HOLES_LAYER_TOP
100
AcDbCircle
 10
91.9
 20
26.7
 30
0.0
 40
0.4
  0
HATCH
  5
1FB
100
AcDbEntity
  8
PART_HOLES_LAYER_TOP
100
AcDbHatch
 10
0.0
 20
0.0
 30
0.0
210
0.0
220
0.0
230
1.0
  2
SOLID
 70
         1
 71
         1
 91
        1
 92
        1
 93
        1
 72
         2
 10
91.900000000000006
 20
26.699999999999999
 40
0.4
 50
0.0
 51
360.0
 73
         1
 97
        1
330
1FA
 75
         0
 76
         1
 98
        1
 10
0.0
 20
0.0
  0
CIRCLE
  5
1FC
100
AcDbEntity
  8
PART_HOLES_LAYER_TOP
100
AcDbCircle
 10
93.9
 20
28.7
 30
0.0
 40
0.4
  0
HATCH
  5
1FD
100
AcDbEntity
  8
PART_HOLES_LAYER_TOP
100
AcDbHatch
 10
0.0
 20
0.0
 30
0.0
210
0.0
220
0.0
230
1.0
  2
SOLID
 70
         1
 71
         1
 91
        1
 92
        1
 93
        1
 72
         2
 10
93.900000000000006
 20
28.699999999999999
 40
0.4
 50
0.0
 51
360.0
 73
         1
 97
        1
330
1FC
 75
         0
 76
         1
 98
        1
 10
0.0
 20
0.0
  0
CIRCLE
  5
1FE
100
AcDbEntity
  8
PART_HOLES_LAYER_TOP
100
AcDbCircle
 10
91.9
 20
28.7
 30
0.0
 40
0.4
  0
HATCH
  5
1FF
100
AcDbEntity
  8
PART_HOLES_LAYER_TOP
100
AcDbHatch
 10
0.0
 20
0.0
 30
0.0
210
0.0
220
0.0
230
1.0
  2
SOLID
 70
         1
 71
         1
 91
        1
 92
        1
 93
        1
 72
         2
 10
91.900000000000006
 20
28.699999999999999
 40
0.4
 50
0.0
 51
360.0
 73
         1
 97
        1
330
1FE
 75
         0
 76
         1
 98
        1
 10
0.0
 20
0.0
  0
CIRCLE
  5
200
100
AcDbEntity
  8
PART_HOLES_LAYER_TOP
100
AcDbCircle
 10
93.9
 20
30.7
 30
0.0
 40
0.4
  0
HATCH
  5
201
100
AcDbEntity
  8
PART_HOLES_LAYER_TOP
100
AcDbHatch
 10
0.0
 20
0.0
 30
0.0
210
0.0
220
0.0
230
1.0
  2
SOLID
 70
         1
 71
         1
 91
        1
 92
        1
 93
        1
 72
         2
 10
93.900000000000006
 20
30.699999999999999
 40
0.4
 50
0.0
 51
360.0
 73
         1
 97
        1
330
200
 75
         0
 76
         1
 98
        1
 10
0.0
 20
0.0
  0
CIRCLE
  5
202
100
AcDbEntity
  8
PART_HOLES_LAYER_TOP
100
AcDbCircle
 10
91.9
 20
30.7
 30
0.0
 40
0.4
  0
HATCH
  5
203
100
AcDbEntity
  8
PART_HOLES_LAYER_TOP
100
AcDbHatch
 10
0.0
 20
0.0
 30
0.0
210
0.0
220
0.0
230
1.0
  2
SOLID
 70
         1
 71
         1
 91
        1
 92
        1
 93
        1
 72
         2
 10
91.900000000000006
 20
30.699999999999999
 40
0.4
 50
0.0
 51
360.0
 73
         1
 97
        1
330
202
 75
         0
 76
         1
 98
        1
 10
0.0
 20
0.0
  0
CIRCLE
  5
204
100
AcDbEntity
  8
PART_HOLES_LAYER_TOP
100
AcDbCircle
 10
93.9
 20
32.7
 30
0.0
 40
0.4
  0
HATCH
  5
205
100
AcDbEntity
  8
PART_HOLES_LAYER_TOP
100
AcDbHatch
 10
0.0
 20
0.0
 30
0.0
210
0.0
220
0.0
230
1.0
  2
SOLID
 70
         1
 71
         1
 91
        1
 92
        1
 93
        1
 72
         2
 10
93.900000000000006
 20
32.700000000000003
 40
0.4
 50
0.0
 51
360.0
 73
         1
 97
        1
330
204
 75
         0
 76
         1
 98
        1
 10
0.0
 20
0.0
  0
CIRCLE
  5
206
100
AcDbEntity
  8
PART_HOLES_LAYER_TOP
100
AcDbCircle
 10
91.9
 20
32.7
 30
0.0
 40
0.4
  0
HATCH
  5
207
100
AcDbEntity
  8
PART_HOLES_LAYER_TOP
100
AcDbHatch
 10
0.0
 20
0.0
 30
0.0
210
0.0
220
0.0
230
1.0
  2
SOLID
 70
         1
 71
         1
 91
        1
 92
        1
 93
        1
 72
         2
 10
91.900000000000006
 20
32.700000000000003
 40
0.4
 50
0.0
 51
360.0
 73
         1
 97
        1
330
206
 75
         0
 76
         1
 98
        1
 10
0.0
 20
0.0
  0
CIRCLE
  5
208
100
AcDbEntity
  8
PART_HOLES_LAYER_TOP
100
AcDbCircle
 10
93.9
 20
34.7
 30
0.0
 40
0.4
  0
HATCH
  5
209
100
AcDbEntity
  8
PART_HOLES_LAYER_TOP
100
AcDbHatch
 10
0.0
 20
0.0
 30
0.0
210
0.0
220
0.0
230
1.0
  2
SOLID
 70
         1
 71
         1
 91
        1
 92
        1
 93
        1
 72
         2
 10
93.900000000000006
 20
34.700000000000003
 40
0.4
 50
0.0
 51
360.0
 73
         1
 97
        1
330
208
 75
         0
 76
         1
 98
        1
 10
0.0
 20
0.0
  0
CIRCLE
  5
20A
100
AcDbEntity
  8
PART_HOLES_LAYER_TOP
100
AcDbCircle
 10
91.9
 20
34.7
 30
0.0
 40
0.4
  0
HATCH
  5
20B
100
AcDbEntity
  8
PART_HOLES_LAYER_TOP
100
AcDbHatch
 10
0.0
 20
0.0
 30
0.0
210
0.0
220
0.0
230
1.0
  2
SOLID
 70
         1
 71
         1
 91
        1
 92
        1
 93
        1
 72
         2
 10
91.900000000000006
 20
34.700000000000003
 40
0.4
 50
0.0
 51
360.0
 73
         1
 97
        1
330
20A
 75
         0
 76
         1
 98
        1
 10
0.0
 20
0.0
  0
CIRCLE
  5
20C
100
AcDbEntity
  8
PART_HOLES_LAYER_TOP
100
AcDbCircle
 10
93.9
 20
36.7
 30
0.0
 40
0.4
  0
HATCH
  5
20D
100
AcDbEntity
  8
PART_HOLES_LAYER_TOP
100
AcDbHatch
 10
0.0
 20
0.0
 30
0.0
210
0.0
220
0.0
230
1.0
  2
SOLID
 70
         1
 71
         1
 91
        1
 92
        1
 93
        1
 72
         2
 10
93.900000000000006
 20
36.700000000000003
 40
0.4
 50
0.0
 51
360.0
 73
         1
 97
        1
330
20C
 75
         0
 76
         1
 98
        1
 10
0.0
 20
0.0
  0
CIRCLE
  5
20E
100
AcDbEntity
  8
PART_HOLES_LAYER_TOP
100
AcDbCircle
 10
91.9
 20
36.7
 30
0.0
 40
0.4
  0
HATCH
  5
20F
100
AcDbEntity
  8
PART_HOLES_LAYER_TOP
100
AcDbHatch
 10
0.0
 20
0.0
 30
0.0
210
0.0
220
0.0
230
1.0
  2
SOLID
 70
         1
 71
         1
 91
        1
 92
        1
 93
        1
 72
         2
 10
91.900000000000006
 20
36.700000000000003
 40
0.4
 50
0.0
 51
360.0
 73
         1
 97
        1
330
20E
 75
         0
 76
         1
 98
        1
 10
0.0
 20
0.0
  0
CIRCLE
  5
210
100
AcDbEntity
  8
PART_HOLES_LAYER_TOP
100
AcDbCircle
 10
93.9
 20
38.7
 30
0.0
 40
0.4
  0
HATCH
  5
211
100
AcDbEntity
  8
PART_HOLES_LAYER_TOP
100
AcDbHatch
 10
0.0
 20
0.0
 30
0.0
210
0.0
220
0.0
230
1.0
  2
SOLID
 70
         1
 71
         1
 91
        1
 92
        1
 93
        1
 72
         2
 10
93.900000000000006
 20
38.700000000000003
 40
0.4
 50
0.0
 51
360.0
 73
         1
 97
        1
330
210
 75
         0
 76
         1
 98
        1
 10
0.0
 20
0.0
  0
CIRCLE
  5
212
100
AcDbEntity
  8
PART_HOLES_LAYER_TOP
100
AcDbCircle
 10
91.9
 20
38.7
 30
0.0
 40
0.4
  0
HATCH
  5
213
100
AcDbEntity
  8
PART_HOLES_LAYER_TOP
100
AcDbHatch
 10
0.0
 20
0.0
 30
0.0
210
0.0
220
0.0
230
1.0
  2
SOLID
 70
         1
 71
         1
 91
        1
 92
        1
 93
        1
 72
         2
 10
91.900000000000006
 20
38.700000000000003
 40
0.4
 50
0.0
 51
360.0
 73
         1
 97
        1
330
212
 75
         0
 76
         1
 98
        1
 10
0.0
 20
0.0
  0
CIRCLE
  5
214
100
AcDbEntity
  8
PART_HOLES_LAYER_TOP
100
AcDbCircle
 10
93.9
 20
40.7
 30
0.0
 40
0.4
  0
HATCH
  5
215
100
AcDbEntity
  8
PART_HOLES_LAYER_TOP
100
AcDbHatch
 10
0.0
 20
0.0
 30
0.0
210
0.0
220
0.0
230
1.0
  2
SOLID
 70
         1
 71
         1
 91
        1
 92
        1
 93
        1
 72
         2
 10
93.900000000000006
 20
40.700000000000003
 40
0.4
 50
0.0
 51
360.0
 73
         1
 97
        1
330
214
 75
         0
 76
         1
 98
        1
 10
0.0
 20
0.0
  0
CIRCLE
  5
216
100
AcDbEntity
  8
PART_HOLES_LAYER_TOP
100
AcDbCircle
 10
91.9
 20
40.7
 30
0.0
 40
0.4
  0
HATCH
  5
217
100
AcDbEntity
  8
PART_HOLES_LAYER_TOP
100
AcDbHatch
 10
0.0
 20
0.0
 30
0.0
210
0.0
220
0.0
230
1.0
  2
SOLID
 70
         1
 71
         1
 91
        1
 92
        1
 93
        1
 72
         2
 10
91.900000000000006
 20
40.700000000000003
 40
0.4
 50
0.0
 51
360.0
 73
         1
 97
        1
330
216
 75
         0
 76
         1
 98
        1
 10
0.0
 20
0.0
  0
CIRCLE
  5
218
100
AcDbEntity
  8
PART_HOLES_LAYER_TOP
100
AcDbCircle
 10
93.9
 20
42.7
 30
0.0
 40
0.4
  0
HATCH
  5
219
100
AcDbEntity
  8
PART_HOLES_LAYER_TOP
100
AcDbHatch
 10
0.0
 20
0.0
 30
0.0
210
0.0
220
0.0
230
1.0
  2
SOLID
 70
         1
 71
         1
 91
        1
 92
        1
 93
        1
 72
         2
 10
93.900000000000006
 20
42.700000000000003
 40
0.4
 50
0.0
 51
360.0
 73
         1
 97
        1
330
218
 75
         0
 76
         1
 98
        1
 10
0.0
 20
0.0
  0
CIRCLE
  5
21A
100
AcDbEntity
  8
PART_HOLES_LAYER_TOP
100
AcDbCircle
 10
91.9
 20
42.7
 30
0.0
 40
0.4
  0
HATCH
  5
21B
100
AcDbEntity
  8
PART_HOLES_LAYER_TOP
100
AcDbHatch
 10
0.0
 20
0.0
 30
0.0
210
0.0
220
0.0
230
1.0
  2
SOLID
 70
         1
 71
         1
 91
        1
 92
        1
 93
        1
 72
         2
 10
91.900000000000006
 20
42.700000000000003
 40
0.4
 50
0.0
 51
360.0
 73
         1
 97
        1
330
21A
 75
         0
 76
         1
 98
        1
 10
0.0
 20
0.0
  0
CIRCLE
  5
21C
100
AcDbEntity
  8
PART_HOLES_LAYER_TOP
100
AcDbCircle
 10
93.9
 20
44.7
 30
0.0
 40
0.4
  0
HATCH
  5
21D
100
AcDbEntity
  8
PART_HOLES_LAYER_TOP
100
AcDbHatch
 10
0.0
 20
0.0
 30
0.0
210
0.0
220
0.0
230
1.0
  2
SOLID
 70
         1
 71
         1
 91
        1
 92
        1
 93
        1
 72
         2
 10
93.900000000000006
 20
44.700000000000003
 40
0.4
 50
0.0
 51
360.0
 73
         1
 97
        1
330
21C
 75
         0
 76
         1
 98
        1
 10
0.0
 20
0.0
  0
CIRCLE
  5
21E
100
AcDbEntity
  8
PART_HOLES_LAYER_TOP
100
AcDbCircle
 10
91.9
 20
44.7
 30
0.0
 40
0.4
  0
HATCH
  5
21F
100
AcDbEntity
  8
PART_HOLES_LAYER_TOP
100
AcDbHatch
 10
0.0
 20
0.0
 30
0.0
210
0.0
220
0.0
230
1.0
  2
SOLID
 70
         1
 71
         1
 91
        1
 92
        1
 93
        1
 72
         2
 10
91.900000000000006
 20
44.700000000000003
 40
0.4
 50
0.0
 51
360.0
 73
         1
 97
        1
330
21E
 75
         0
 76
         1
 98
        1
 10
0.0
 20
0.0
  0
CIRCLE
  5
220
100
AcDbEntity
  8
PART_HOLES_LAYER_TOP
100
AcDbCircle
 10
93.9
 20
46.7
 30
0.0
 40
0.4
  0
HATCH
  5
221
100
AcDbEntity
  8
PART_HOLES_LAYER_TOP
100
AcDbHatch
 10
0.0
 20
0.0
 30
0.0
210
0.0
220
0.0
230
1.0
  2
SOLID
 70
         1
 71
         1
 91
        1
 92
        1
 93
        1
 72
         2
 10
93.900000000000006
 20
46.700000000000003
 40
0.4
 50
0.0
 51
360.0
 73
         1
 97
        1
330
220
 75
         0
 76
         1
 98
        1
 10
0.0
 20
0.0
  0
CIRCLE
  5
222
100
AcDbEntity
  8
PART_HOLES_LAYER_TOP
100
AcDbCircle
 10
91.9
 20
46.7
 30
0.0
 40
0.4
  0
HATCH
  5
223
100
AcDbEntity
  8
PART_HOLES_LAYER_TOP
100
AcDbHatch
 10
0.0
 20
0.0
 30
0.0
210
0.0
220
0.0
230
1.0
  2
SOLID
 70
         1
 71
         1
 91
        1
 92
        1
 93
        1
 72
         2
 10
91.900000000000006
 20
46.700000000000003
 40
0.4
 50
0.0
 51
360.0
 73
         1
 97
        1
330
222
 75
         0
 76
         1
 98
        1
 10
0.0
 20
0.0
  0
CIRCLE
  5
224
100
AcDbEntity
  8
PART_HOLES_LAYER_TOP
100
AcDbCircle
 10
95.9
 20
72.1
 30
0.0
 40
0.45
  0
HATCH
  5
225
100
AcDbEntity
  8
PART_HOLES_LAYER_TOP
100
AcDbHatch
 10
0.0
 20
0.0
 30
0.0
210
0.0
220
0.0
230
1.0
  2
SOLID
 70
         1
 71
         1
 91
        1
 92
        1
 93
        1
 72
         2
 10
95.900000000000006
 20
72.099999999999994
 40
0.45
 50
0.0
 51
360.0
 73
         1
 97
        1
330
224
 75
         0
 76
         1
 98
        1
 10
0.0
 20
0.0
  0
CIRCLE
  5
226
100
AcDbEntity
  8
PART_HOLES_LAYER_TOP
100
AcDbCircle
 10
118.76
 20
74.64
 30
0.0
 40
0.45
  0
HATCH
  5
227
100
AcDbEntity
  8
PART_HOLES_LAYER_TOP
100
AcDbHatch
 10
0.0
 20
0.0
 30
0.0
210
0.0
220
0.0
230
1.0
  2
SOLID
 70
         1
 71
         1
 91
        1
 92
        1
 93
        1
 72
         2
 10
118.76000000000001
 20
74.640000000000001
 40
0.45
 50
0.0
 51
360.0
 73
         1
 97
        1
330
226
 75
         0
 76
         1
 98
        1
 10
0.0
 20
0.0
  0
CIRCLE
  5
228
100
AcDbEntity
  8
PART_HOLES_LAYER_TOP
100
AcDbCircle
 10
116.22
 20
74.64
 30
0.0
 40
0.45
  0
HATCH
  5
229
100
AcDbEntity
  8
PART_HOLES_LAYER_TOP
100
AcDbHatch
 10
0.0
 20
0.0
 30
0.0
210
0.0
220
0.0
230
1.0
  2
SOLID
 70
         1
 71
         1
 91
        1
 92
        1
 93
        1
 72
         2
 10
116.22
 20
74.640000000000001
 40
0.45
 50
0.0
 51
360.0
 73
         1
 97
        1
330
228
 75
         0
 76
         1
 98
        1
 10
0.0
 20
0.0
  0
CIRCLE
  5
22A
100
AcDbEntity
  8
PART_HOLES_LAYER_TOP
100
AcDbCircle
 10
113.68
 20
74.64
 30
0.0
 40
0.45
  0
HATCH
  5
22B
100
AcDbEntity
  8
PART_HOLES_LAYER_TOP
100
AcDbHatch
 10
0.0
 20
0.0
 30
0.0
210
0.0
220
0.0
230
1.0
  2
SOLID
 70
         1
 71
         1
 91
        1
 92
        1
 93
        1
 72
         2
 10
113.68000000000001
 20
74.640000000000001
 40
0.45
 50
0.0
 51
360.0
 73
         1
 97
        1
330
22A
 75
         0
 76
         1
 98
        1
 10
0.0
 20
0.0
  0
CIRCLE
  5
22C
100
AcDbEntity
  8
PART_HOLES_LAYER_TOP
100
AcDbCircle
 10
98.44
 20
74.64
 30
0.0
 40
0.45
  0
HATCH
  5
22D
100
AcDbEntity
  8
PART_HOLES_LAYER_TOP
100
AcDbHatch
 10
0.0
 20
0.0
 30
0.0
210
0.0
220
0.0
230
1.0
  2
SOLID
 70
         1
 71
         1
 91
        1
 92
        1
 93
        1
 72
         2
 10
98.439999999999998
 20
74.640000000000001
 40
0.45
 50
0.0
 51
360.0
 73
         1
 97
        1
330
22C
 75
         0
 76
         1
 98
        1
 10
0.0
 20
0.0
  0
CIRCLE
  5
22E
100
AcDbEntity
  8
PART_HOLES_LAYER_TOP
100
AcDbCircle
 10
100.98
 20
74.64
 30
0.0
 40
0.45
  0
HATCH
  5
22F
100
AcDbEntity
  8
PART_HOLES_LAYER_TOP
100
AcDbHatch
 10
0.0
 20
0.0
 30
0.0
210
0.0
220
0.0
230
1.0
  2
SOLID
 70
         1
 71
         1
 91
        1
 92
        1
 93
        1
 72
         2
 10
100.98
 20
74.640000000000001
 40
0.45
 50
0.0
 51
360.0
 73
         1
 97
        1
330
22E
 75
         0
 76
         1
 98
        1
 10
0.0
 20
0.0
  0
CIRCLE
  5
230
100
AcDbEntity
  8
PART_HOLES_LAYER_TOP
100
AcDbCircle
 10
103.52
 20
74.64
 30
0.0
 40
0.45
  0
HATCH
  5
231
100
AcDbEntity
  8
PART_HOLES_LAYER_TOP
100
AcDbHatch
 10
0.0
 20
0.0
 30
0.0
210
0.0
220
0.0
230
1.0
  2
SOLID
 70
         1
 71
         1
 91
        1
 92
        1
 93
        1
 72
         2
 10
103.52
 20
74.640000000000001
 40
0.45
 50
0.0
 51
360.0
 73
         1
 97
        1
330
230
 75
         0
 76
         1
 98
        1
 10
0.0
 20
0.0
  0
CIRCLE
  5
232
100
AcDbEntity
  8
PART_HOLES_LAYER_TOP
100
AcDbCircle
 10
106.06
 20
74.64
 30
0.0
 40
0.45
  0
HATCH
  5
233
100
AcDbEntity
  8
PART_HOLES_LAYER_TOP
100
AcDbHatch
 10
0.0
 20
0.0
 30
0.0
210
0.0
220
0.0
230
1.0
  2
SOLID
 70
         1
 71
         1
 91
        1
 92
        1
 93
        1
 72
         2
 10
106.06
 20
74.640000000000001
 40
0.45
 50
0.0
 51
360.0
 73
         1
 97
        1
330
232
 75
         0
 76
         1
 98
        1
 10
0.0
 20
0.0
  0
CIRCLE
  5
234
100
AcDbEntity
  8
PART_HOLES_LAYER_TOP
100
AcDbCircle
 10
108.6
 20
74.64
 30
0.0
 40
0.45
  0
HATCH
  5
235
100
AcDbEntity
  8
PART_HOLES_LAYER_TOP
100
AcDbHatch
 10
0.0
 20
0.0
 30
0.0
210
0.0
220
0.0
230
1.0
  2
SOLID
 70
         1
 71
         1
 91
        1
 92
        1
 93
        1
 72
         2
 10
108.59999999999999
 20
74.640000000000001
 40
0.45
 50
0.0
 51
360.0
 73
         1
 97
        1
330
234
 75
         0
 76
         1
 98
        1
 10
0.0
 20
0.0
  0
CIRCLE
  5
236
100
AcDbEntity
  8
PART_HOLES_LAYER_TOP
100
AcDbCircle
 10
108.6
 20
72.1
 30
0.0
 40
0.45
  0
HATCH
  5
237
100
AcDbEntity
  8
PART_HOLES_LAYER_TOP
100
AcDbHatch
 10
0.0
 20
0.0
 30
0.0
210
0.0
220
0.0
230
1.0
  2
SOLID
 70
         1
 71
         1
 91
        1
 92
        1
 93
        1
 72
         2
 10
108.59999999999999
 20
72.099999999999994
 40
0.45
 50
0.0
 51
360.0
 73
         1
 97
        1
330
236
 75
         0
 76
         1
 98
        1
 10
0.0
 20
0.0
  0
CIRCLE
  5
238
100
AcDbEntity
  8
PART_HOLES_LAYER_TOP
100
AcDbCircle
 10
95.9
 20
74.64
 30
0.0
 40
0.45
  0
HATCH
  5
239
100
AcDbEntity
  8
PART_HOLES_LAYER_TOP
100
AcDbHatch
 10
0.0
 20
0.0
 30
0.0
210
0.0
220
0.0
230
1.0
  2
SOLID
 70
         1
 71
         1
 91
        1
 92
        1
 93
        1
 72
         2
 10
95.900000000000006
 20
74.640000000000001
 40
0.45
 50
0.0
 51
360.0
 73
         1
 97
        1
330
238
 75
         0
 76
         1
 98
        1
 10
0.0
 20
0.0
  0
CIRCLE
  5
23A
100
AcDbEntity
  8
PART_HOLES_LAYER_TOP
100
AcDbCircle
 10
111.14
 20
74.64
 30
0.0
 40
0.45
  0
HATCH
  5
23B
100
AcDbEntity
  8
PART_HOLES_LAYER_TOP
100
AcDbHatch
 10
0.0
 20
0.0
 30
0.0
210
0.0
220
0.0
230
1.0
  2
SOLID
 70
         1
 71
         1
 91
        1
 92
        1
 93
        1
 72
         2
 10
111.14
 20
74.640000000000001
 40
0.45
 50
0.0
 51
360.0
 73
         1
 97
        1
330
23A
 75
         0
 76
         1
 98
        1
 10
0.0
 20
0.0
  0
CIRCLE
  5
23C
100
AcDbEntity
  8
PART_HOLES_LAYER_TOP
100
AcDbCircle
 10
106.06
 20
72.1
 30
0.0
 40
0.45
  0
HATCH
  5
23D
100
AcDbEntity
  8
PART_HOLES_LAYER_TOP
100
AcDbHatch
 10
0.0
 20
0.0
 30
0.0
210
0.0
220
0.0
230
1.0
  2
SOLID
 70
         1
 71
         1
 91
        1
 92
        1
 93
        1
 72
         2
 10
106.06
 20
72.099999999999994
 40
0.45
 50
0.0
 51
360.0
 73
         1
 97
        1
330
23C
 75
         0
 76
         1
 98
        1
 10
0.0
 20
0.0
  0
CIRCLE
  5
23E
100
AcDbEntity
  8
PART_HOLES_LAYER_TOP
100
AcDbCircle
 10
100.98
 20
72.1
 30
0.0
 40
0.45
  0
HATCH
  5
23F
100
AcDbEntity
  8
PART_HOLES_LAYER_TOP
100
AcDbHatch
 10
0.0
 20
0.0
 30
0.0
210
0.0
220
0.0
230
1.0
  2
SOLID
 70
         1
 71
         1
 91
        1
 92
        1
 93
        1
 72
         2
 10
100.98
 20
72.099999999999994
 40
0.45
 50
0.0
 51
360.0
 73
         1
 97
        1
330
23E
 75
         0
 76
         1
 98
        1
 10
0.0
 20
0.0
  0
CIRCLE
  5
240
100
AcDbEntity
  8
PART_HOLES_LAYER_TOP
100
AcDbCircle
 10
111.14
 20
72.1
 30
0.0
 40
0.45
  0
HATCH
  5
241
100
AcDbEntity
  8
PART_HOLES_LAYER_TOP
100
AcDbHatch
 10
0.0
 20
0.0
 30
0.0
210
0.0
220
0.0
230
1.0
  2
SOLID
 70
         1
 71
         1
 91
        1
 92
        1
 93
        1
 72
         2
 10
111.14
 20
72.099999999999994
 40
0.45
 50
0.0
 51
360.0
 73
         1
 97
        1
330
240
 75
         0
 76
         1
 98
        1
 10
0.0
 20
0.0
  0
CIRCLE
  5
242
100
AcDbEntity
  8
PART_HOLES_LAYER_TOP
100
AcDbCircle
 10
103.52
 20
72.1
 30
0.0
 40
0.45
  0
HATCH
  5
243
100
AcDbEntity
  8
PART_HOLES_LAYER_TOP
100
AcDbHatch
 10
0.0
 20
0.0
 30
0.0
210
0.0
220
0.0
230
1.0
  2
SOLID
 70
         1
 71
         1
 91
        1
 92
        1
 93
        1
 72
         2
 10
103.52
 20
72.099999999999994
 40
0.45
 50
0.0
 51
360.0
 73
         1
 97
        1
330
242
 75
         0
 76
         1
 98
        1
 10
0.0
 20
0.0
  0
CIRCLE
  5
244
100
AcDbEntity
  8
PART_HOLES_LAYER_TOP
100
AcDbCircle
 10
98.44
 20
72.1
 30
0.0
 40
0.45
  0
HATCH
  5
245
100
AcDbEntity
  8
PART_HOLES_LAYER_TOP
100
AcDbHatch
 10
0.0
 20
0.0
 30
0.0
210
0.0
220
0.0
230
1.0
  2
SOLID
 70
         1
 71
         1
 91
        1
 92
        1
 93
        1
 72
         2
 10
98.439999999999998
 20
72.099999999999994
 40
0.45
 50
0.0
 51
360.0
 73
         1
 97
        1
330
244
 75
         0
 76
         1
 98
        1
 10
0.0
 20
0.0
  0
CIRCLE
  5
246
100
AcDbEntity
  8
PART_HOLES_LAYER_TOP
100
AcDbCircle
 10
113.68
 20
72.1
 30
0.0
 40
0.45
  0
HATCH
  5
247
100
AcDbEntity
  8
PART_HOLES_LAYER_TOP
100
AcDbHatch
 10
0.0
 20
0.0
 30
0.0
210
0.0
220
0.0
230
1.0
  2
SOLID
 70
         1
 71
         1
 91
        1
 92
        1
 93
        1
 72
         2
 10
113.68000000000001
 20
72.099999999999994
 40
0.45
 50
0.0
 51
360.0
 73
         1
 97
        1
330
246
 75
         0
 76
         1
 98
        1
 10
0.0
 20
0.0
  0
CIRCLE
  5
248
100
AcDbEntity
  8
PART_HOLES_LAYER_TOP
100
AcDbCircle
 10
118.76
 20
72.1
 30
0.0
 40
0.45
  0
HATCH
  5
249
100
AcDbEntity
  8
PART_HOLES_LAYER_TOP
100
AcDbHatch
 10
0.0
 20
0.0
 30
0.0
210
0.0
220
0.0
230
1.0
  2
SOLID
 70
         1
 71
         1
 91
        1
 92
        1
 93
        1
 72
         2
 10
118.76000000000001
 20
72.099999999999994
 40
0.45
 50
0.0
 51
360.0
 73
         1
 97
        1
330
248
 75
         0
 76
         1
 98
        1
 10
0.0
 20
0.0
  0
CIRCLE
  5
24A
100
AcDbEntity
  8
PART_HOLES_LAYER_TOP
100
AcDbCircle
 10
116.22
 20
72.1
 30
0.0
 40
0.45
  0
HATCH
  5
24B
100
AcDbEntity
  8
PART_HOLES_LAYER_TOP
100
AcDbHatch
 10
0.0
 20
0.0
 30
0.0
210
0.0
220
0.0
230
1.0
  2
SOLID
 70
         1
 71
         1
 91
        1
 92
        1
 93
        1
 72
         2
 10
116.22
 20
72.099999999999994
 40
0.45
 50
0.0
 51
360.0
 73
         1
 97
        1
330
24A
 75
         0
 76
         1
 98
        1
 10
0.0
 20
0.0
  0
ENDSEC
  0
SECTION
  2
OBJECTS
  0
DICTIONARY
  5
19
100
AcDbDictionary
  3
ACAD_GROUP
350
1A
  3
ACAD_MLINESTYLE
350
1B
  0
DICTIONARY
  5
1A
102
{ACAD_REACTORS
330
19
102
}
100
AcDbDictionary
  0
DICTIONARY
  5
1B
102
{ACAD_REACTORS
330
19
102
}
100
AcDbDictionary
  3
STANDARD
350
1C
  0
MLINESTYLE
  5
1C
102
{ACAD_REACTORS
330
1B
102
}
100
AcDbMlineStyle
  2
STANDARD
 70
         0
  3

 62
         0
 51
90.0
 52
90.0
 71
         2
 49
0.5
 62
       256
  6
BYLAYER
 49
-0.5
 62
       256
  6
BYLAYER
  0
DICTIONARY
  5
22
102
{ACAD_REACTORS
330
19
102
}
100
AcDbDictionary
  0
ENDSEC
  0
EOF
