  0
SECTION
  2
HEADER
  9
$ACADVER
  1
AC1014
  9
$ACADMAINTVER
 70
         0
  9
$DWGCODEPAGE
  3
ANSI_1252
  9
$INSBASE
 10
0.0
 20
0.0
 30
0.0
  9
$EXTMIN
 10
-1.212391
 20
-18.6
 30
0.0
  9
$EXTMAX
 10
145.914684
 20
68.781324
 30
0.0
  9
$LIMMIN
 10
0.0
 20
0.0
  9
$LIMMAX
 10
0.0
 20
0.0
  9
$ORTHOMODE
 70
         0
  9
$REGENMODE
 70
         1
  9
$FILLMODE
 70
         1
  9
$QTEXTMODE
 70
         0
  9
$MIRRTEXT
 70
         1
  9
$DRAGMODE
 70
         2
  9
$LTSCALE
 40
1.0
  9
$OSMODE
 70
         0
  9
$ATTMODE
 70
         1
  9
$TEXTSIZE
 40
0.2
  9
$TRACEWID
 40
0.05
  9
$TEXTSTYLE
  7
STANDARD
  9
$CLAYER
  8
0
  9
$CELTYPE
  6
CONTINUOUS
  9
$CECOLOR
 62
       256
  9
$CELTSCALE
 40
1.0
  9
$DELOBJ
 70
         1
  9
$DISPSILH
 70
         0
  9
$DIMSCALE
 40
1.0
  9
$DIMASZ
 40
0.18
  9
$DIMEXO
 40
0.0625
  9
$DIMDLI
 40
0.38
  9
$DIMRND
 40
0.0
  9
$DIMDLE
 40
0.0
  9
$DIMEXE
 40
0.18
  9
$DIMTP
 40
0.0
  9
$DIMTM
 40
0.0
  9
$DIMTXT
 40
0.18
  9
$DIMCEN
 40
0.09
  9
$DIMTSZ
 40
0.0
  9
$DIMTOL
 70
         0
  9
$DIMLIM
 70
         0
  9
$DIMTIH
 70
         1
  9
$DIMTOH
 70
         1
  9
$DIMSE1
 70
         0
  9
$DIMSE2
 70
         0
  9
$DIMTAD
 70
         0
  9
$DIMZIN
 70
         0
  9
$DIMBLK
  1

  9
$DIMASO
 70
         1
  9
$DIMSHO
 70
         1
  9
$DIMPOST
  1

  9
$DIMAPOST
  1

  9
$DIMALT
 70
         0
  9
$DIMALTD
 70
         2
  9
$DIMALTF
 40
25.4
  9
$DIMLFAC
 40
1.0
  9
$DIMTOFL
 70
         0
  9
$DIMTVP
 40
0.0
  9
$DIMTIX
 70
         0
  9
$DIMSOXD
 70
         0
  9
$DIMSAH
 70
         0
  9
$DIMBLK1
  1

  9
$DIMBLK2
  1

  9
$DIMSTYLE
  2
STANDARD
  9
$DIMCLRD
 70
         0
  9
$DIMCLRE
 70
         0
  9
$DIMCLRT
 70
         0
  9
$DIMTFAC
 40
1.0
  9
$DIMGAP
 40
0.09
  9
$DIMJUST
 70
         0
  9
$DIMSD1
 70
         0
  9
$DIMSD2
 70
         0
  9
$DIMTOLJ
 70
         1
  9
$DIMTZIN
 70
         0
  9
$DIMALTZ
 70
         0
  9
$DIMALTTZ
 70
         0
  9
$DIMFIT
 70
         3
  9
$DIMUPT
 70
         0
  9
$DIMUNIT
 70
         2
  9
$DIMDEC
 70
         4
  9
$DIMTDEC
 70
         4
  9
$DIMALTU
 70
         2
  9
$DIMALTTD
 70
         2
  9
$DIMTXSTY
  7
STANDARD
  9
$DIMAUNIT
 70
         0
  9
$LUNITS
 70
         2
  9
$LUPREC
 70
         4
  9
$SKETCHINC
 40
0.1
  9
$FILLETRAD
 40
0.0
  9
$AUNITS
 70
         0
  9
$AUPREC
 70
         0
  9
$MENU
  1
acad
  9
$ELEVATION
 40
0.0
  9
$PELEVATION
 40
0.0
  9
$THICKNESS
 40
0.0
  9
$LIMCHECK
 70
         0
  9
$BLIPMODE
 70
         1
  9
$CHAMFERA
 40
0.0
  9
$CHAMFERB
 40
0.0
  9
$CHAMFERC
 40
0.0
  9
$CHAMFERD
 40
0.0
  9
$SKPOLY
 70
         0
  9
$TDCREATE
 40
2456014.591099537
  9
$TDUPDATE
 40
0.000000000
  9
$TDINDWG
 40
0.0000000000
  9
$TDUSRTIMER
 40
0.0000000000
  9
$USRTIMER
 70
         1
  9
$ANGBASE
 50
0.0
  9
$ANGDIR
 70
         0
  9
$PDMODE
 70
         0
  9
$PDSIZE
 40
0.0
  9
$PLINEWID
 40
0.0
  9
$COORDS
 70
         0
  9
$SPLFRAME
 70
         0
  9
$SPLINETYPE
 70
         6
  9
$SPLINESEGS
 70
         8
  9
$ATTDIA
 70
         0
  9
$ATTREQ
 70
         1
  9
$HANDLING
 70
         1
  9
$HANDSEED
  5
344
  9
$SURFTAB1
 70
         6
  9
$SURFTAB2
 70
         6
  9
$SURFTYPE
 70
         6
  9
$SURFU
 70
         6
  9
$SURFV
 70
         6
  9
$UCSNAME
  2

  9
$UCSORG
 10
0.0
 20
0.0
 30
0.0
  9
$UCSXDIR
 10
1.0
 20
0.0
 30
0.0
  9
$UCSYDIR
 10
0.0
 20
1.0
 30
0.0
  9
$PUCSNAME
  2

  9
$PUCSORG
 10
0.0
 20
0.0
 30
0.0
  9
$PUCSXDIR
 10
1.0
 20
0.0
 30
0.0
  9
$PUCSYDIR
 10
0.0
 20
1.0
 30
0.0
  9
$USERI1
 70
        -3
  9
$USERI2
 70
         0
  9
$USERI3
 70
         0
  9
$USERI4
 70
         0
  9
$USERI5
 70
         0
  9
$USERR1
 40
0.0
  9
$USERR2
 40
0.0
  9
$USERR3
 40
0.0
  9
$USERR4
 40
0.0
  9
$USERR5
 40
0.0
  9
$WORLDVIEW
 70
         1
  9
$SHADEDGE
 70
         3
  9
$SHADEDIF
 70
        70
  9
$TILEMODE
 70
         1
  9
$MAXACTVP
 70
        16
  9
$PINSBASE
 10
0.0
 20
0.0
 30
0.0
  9
$PLIMCHECK
 70
         0
  9
$PEXTMIN
 10
1.0000000000E+20
 20
1.0000000000E+20
 30
1.0000000000E+20
  9
$PEXTMAX
 10
-1.0000000000E+20
 20
-1.0000000000E+20
 30
-1.0000000000E+20
  9
$PLIMMIN
 10
0.0
 20
0.0
  9
$PLIMMAX
 10
12.0
 20
9.0
  9
$UNITMODE
 70
         0
  9
$VISRETAIN
 70
         0
  9
$PLINEGEN
 70
         1
  9
$PSLTSCALE
 70
         0
  9
$TREEDEPTH
 70
      3020
  9
$PICKSTYLE
 70
         1
  9
$CMLSTYLE
  2
STANDARD
  9
$CMLJUST
 70
         0
  9
$CMLSCALE
 40
1.0
  9
$PROXYGRAPHICS
 70
         0
  9
$MEASUREMENT
 70
         0
  0
ENDSEC
  0
SECTION
  2
CLASSES
  0
CLASS
  1
LWPOLYLINE
  2
AcDbPolyline
  3
"AutoCAD"
 90
        0
280
         0
281
         1
  0
CLASS
  1
IMAGE
  2
AcDbRasterImage
  3
ISM
 90
      127
280
         0
281
         1
  0
CLASS
  1
OLE2FRAME
  2
AcDbOle2Frame
  3
""
 90
        0
280
         0
281
         1
  0
CLASS
  1
HATCH
  2
AcDbHatch
  3
"ACAD_SEDONA"
 90
        0
280
         0
281
         1
  0
CLASS
  1
DICTIONARYVAR
  2
AcDbDictionaryVar
  3
"AutoCAD"
 90
        0
280
         0
281
         0
  0
CLASS
  1
RASTERVARIABLES
  2
AcDbRasterVariables
  3
ISM
 90
        0
280
         0
281
         0
  0
CLASS
  1
IMAGEDEF
  2
AcDbRasterImageDef
  3
ISM
 90
        0
280
         0
281
         0
  0
CLASS
  1
IMAGEDEF_REACTOR
  2
AcDbRasterImageDefReactor
  3
ISM
 90
        1
280
         0
281
         0
  0
CLASS
  1
IDBUFFER
  2
AcDbIdBuffer
  3
"Acad"
 90
        0
280
         0
281
         0
  0
CLASS
  1
SPATIAL_FILTER
  2
AcDbSpatialFilter
  3
"Acad"
 90
        0
280
         0
281
         0
  0
CLASS
  1
XRECORD
  2
AcDbXrecord
  3
"<Built In>"
 90
        0
280
         0
281
         0
  0
CLASS
  1
SORTENTSTABLE
  2
AcDbSortentsTable
  3
"AutoCAD"
 90
        0
280
         0
281
         0
  0
CLASS
  1
LAYER_INDEX
  2
AcDbLayerIndex
  3
"Acad"
 90
        0
280
         0
281
         0
  0
CLASS
  1
SPATIAL_INDEX
  2
AcDbSpatialIndex
  3
"Acad"
 90
        0
280
         0
281
         0
  0
CLASS
  1
OBJECT_PTR
  2
CAseDLPNTableRecord
  3
"ASE-LPNTableRecord"
 90
        1
280
         0
281
         0
  0
CLASS
  1
LAYOUT
  2
AcDbLayout
  3
"AutoCAD 2000"
 90
        0
280
         0
281
         0
  0
CLASS
  1
PLOTSETTINGS
  2
AcDbPlotSettings
  3
"AutoCAD 2000"
 90
        0
280
         0
281
         0
  0
CLASS
  1
ACDBDICTIONARYWDFLT
  2
AcDbDictionaryWithDefault
  3
"AutoCAD 2000"
 90
        0
280
         0
281
         0
  0
CLASS
  1
ACDBPLACEHOLDER
  2
AcDbPlaceHolder
  3
"AutoCAD 2000"
 90
        0
280
         0
281
         0
  0
CLASS
  1
VBA_PROJECT
  2
AcDbVbaProject
  3
"acadvba"
 90
        0
280
         0
281
         0
  0
CLASS
  1
WIPEOUT
  2
AcDbWipeout
  3
WipeOut|AutoCAD Express Tool|expresstools@autodesk.com
 90
      127
280
         0
281
         1
  0
CLASS
  1
WIPEOUTVARIABLES
  2
AcDbWipeoutVariables
  3
WipeOut|AutoCAD Express Tool|expresstools@autodesk.com
 90
        0
280
         0
281
         0
  0
CLASS
  1
RTEXT
  2
RText
  3
RText|AutoCAD Express Tool|expresstools@autodesk.com
 90
        0
280
         0
281
         1
  0
CLASS
  1
ARCALIGNEDTEXT
  2
AcDbArcAlignedText
  3
ATEXT|AutoCAD Express Tool|expresstools@autodesk.com
 90
        0
280
         0
281
         1
  0
ENDSEC
  0
SECTION
  2
TABLES
  0
TABLE
  2
VPORT
  5
7
100
AcDbSymbolTable
 70
         1
  0
VPORT
  5
15
100
AcDbSymbolTableRecord
100
AcDbViewportTableRecord
  2
*ACTIVE
 70
         0
 10
0.0
 20
0.0
 11
1.0
 21
1.0
 12
6.591288
 22
4.579184
 13
0.0
 23
0.0
 14
1.0
 24
1.0
 15
0.0
 25
0.0
 16
0.0
 26
0.0
 36
1.0
 17
0.0
 27
0.0
 37
0.0
 40
9.158369
 41
0.688564
 42
50.0
 43
0.0
 44
0.0
 50
0.0
 51
0.0
 71
         0
 72
       100
 73
         1
 74
         1
 75
         0
 76
         0
 77
         0
 78
         0
  0
ENDTAB
  0
TABLE
  2
LTYPE
  5
4
100
AcDbSymbolTable
 70
         3
  0
LTYPE
  5
11
100
AcDbSymbolTableRecord
100
AcDbLinetypeTableRecord
  2
BYBLOCK
 70
        64
  3

 72
        65
 73
         0
 40
0.0
  0
LTYPE
  5
12
100
AcDbSymbolTableRecord
100
AcDbLinetypeTableRecord
  2
BYLAYER
 70
        64
  3

 72
        65
 73
         0
 40
0.0
  0
LTYPE
  5
13
100
AcDbSymbolTableRecord
100
AcDbLinetypeTableRecord
  2
CONTINUOUS
 70
        64
  3
Solid line
 72
        65
 73
         0
 40
0.0
  0
ENDTAB
  0
TABLE
  2
LAYER
  5
2
100
AcDbSymbolTable
 70
         6
  0
LAYER
  5
14
100
AcDbSymbolTableRecord
100
AcDbLayerTableRecord
  2
0
 70
         0
 62
         7
  6
CONTINUOUS
  0
LAYER
  5
24
100
AcDbSymbolTableRecord
100
AcDbLayerTableRecord
  2
ASSEMBLY_OUTLINES_TOP
 70
         0
 62
       102
  6
CONTINUOUS
  0
LAYER
  5
25
100
AcDbSymbolTableRecord
100
AcDbLayerTableRecord
  2
ASSEMBLY_REF_DES_TOP
 70
         0
 62
       102
  6
CONTINUOUS
  0
LAYER
  5
26
100
AcDbSymbolTableRecord
100
AcDbLayerTableRecord
  2
BOARD_OUTLINE
 70
         0
 62
        10
  6
CONTINUOUS
  0
LAYER
  5
27
100
AcDbSymbolTableRecord
100
AcDbLayerTableRecord
  2
MOUNTING_HOLES_LAYER_TOP
 70
         0
 62
        42
  6
CONTINUOUS
  0
LAYER
  5
28
100
AcDbSymbolTableRecord
100
AcDbLayerTableRecord
  2
PART_HOLES_LAYER_TOP
 70
         0
 62
        30
  6
CONTINUOUS
  0
ENDTAB
  0
TABLE
  2
STYLE
  5
3
100
AcDbSymbolTable
 70
         3
  0
STYLE
  5
17
100
AcDbSymbolTableRecord
100
AcDbTextStyleTableRecord
  2
STANDARD
 70
         0
 40
0.0
 41
1.0
 50
0.0
 71
         0
 42
0.0
  3
txt
  4

  0
STYLE
  5
63
100
AcDbSymbolTableRecord
100
AcDbTextStyleTableRecord
  2
VERIBEST_GERBER_1
 70
         0
 40
0.0
 41
1.0
 50
0.0
 71
         0
 42
0.0
  3
C:\Windows\Fonts\VBest1.ttf
  4

  0
STYLE
  5
101
100
AcDbSymbolTableRecord
100
AcDbTextStyleTableRecord
  2
GOST_TYPE_B
 70
         0
 40
0.0
 41
1.0
 50
0.0
 71
         0
 42
0.0
  3
gost_2.ttf
  4

  0
ENDTAB
  0
TABLE
  2
VIEW
  5
5
100
AcDbSymbolTable
 70
         0
  0
ENDTAB
  0
TABLE
  2
UCS
  5
6
100
AcDbSymbolTable
 70
         0
  0
ENDTAB
  0
TABLE
  2
APPID
  5
8
100
AcDbSymbolTable
 70
         1
  0
APPID
  5
16
100
AcDbSymbolTableRecord
100
AcDbRegAppTableRecord
  2
ACAD
 70
         0
  0
ENDTAB
  0
TABLE
  2
DIMSTYLE
  5
9
100
AcDbSymbolTable
 70
         1
  0
DIMSTYLE
105
18
100
AcDbSymbolTableRecord
100
AcDbDimStyleTableRecord
  2
STANDARD
 70
         0
  3

  4

  5

  6

  7

 40
1.0
 41
0.18
 42
0.0625
 43
0.38
 44
0.18
 45
0.0
 46
0.0
 47
0.0
 48
0.0
 71
         0
 72
         0
 73
         1
 74
         1
 75
         0
 76
         0
 77
         0
 78
         0
140
0.18
141
0.09
142
0.0
143
25.4
144
1.0
145
0.0
146
1.0
147
0.09
170
         0
171
         2
172
         0
173
         0
174
         0
175
         0
176
         0
177
         0
178
         0
270
         2
271
         4
272
         4
273
         2
274
         2
275
         0
280
         0
281
         0
282
         0
283
         1
284
         0
285
         0
286
         0
287
         3
288
         0
340
17
  0
ENDTAB
  0
TABLE
  2
BLOCK_RECORD
  5
1
100
AcDbSymbolTable
 70
         0
  0
BLOCK_RECORD
  5
A
100
AcDbSymbolTableRecord
100
AcDbBlockTableRecord
  2
*MODEL_SPACE
  0
BLOCK_RECORD
  5
B
100
AcDbSymbolTableRecord
100
AcDbBlockTableRecord
  2
*PAPER_SPACE
  0
ENDTAB
  0
ENDSEC
  0
SECTION
  2
BLOCKS
  0
BLOCK
  5
D
100
AcDbEntity
  8
0
100
AcDbBlockBegin
  2
*MODEL_SPACE
 70
         0
 10
0.0
 20
0.0
 30
0.0
  3
*MODEL_SPACE
  1

  0
ENDBLK
  5
E
100
AcDbEntity
  8
0
100
AcDbBlockEnd
  0
BLOCK
  5
F
100
AcDbEntity
 67
         1
  8
0
100
AcDbBlockBegin
  2
*PAPER_SPACE
 70
         0
 10
0.0
 20
0.0
 30
0.0
  3
*PAPER_SPACE
  1

  0
ENDBLK
  5
10
100
AcDbEntity
 67
         1
  8
0
100
AcDbBlockEnd
  0
ENDSEC
  0
SECTION
  2
ENTITIES
  0
LWPOLYLINE
  5
29
100
AcDbEntity
  8
ASSEMBLY_OUTLINES_TOP
100
AcDbPolyline
 90
        3
 70
         1
 10
144.300157
 20
59.5
 10
144.871656
 20
58.357
 10
143.728657
 20
58.357001
  0
HATCH
  5
2A
100
AcDbEntity
  8
ASSEMBLY_OUTLINES_TOP
100
AcDbHatch
 10
0.0
 20
0.0
 30
0.0
210
0.0
220
0.0
230
1.0
  2
SOLID
 70
         1
 71
         1
 91
        1
 92
        2
 72
         0
 73
         1
 93
        3
 10
144.30015700000001
 20
59.5
 10
144.871656
 20
58.356999999999999
 10
143.728657
 20
58.357000999999997
 97
        1
330
29
 75
         0
 76
         1
 98
        1
 10
0.0
 20
0.0
  0
LWPOLYLINE
  5
2B
100
AcDbEntity
  8
ASSEMBLY_OUTLINES_TOP
100
AcDbPolyline
 90
        3
 70
         1
 10
144.300157
 20
63.5
 10
143.728657
 20
64.643
 10
144.871657
 20
64.643
  0
HATCH
  5
2C
100
AcDbEntity
  8
ASSEMBLY_OUTLINES_TOP
100
AcDbHatch
 10
0.0
 20
0.0
 30
0.0
210
0.0
220
0.0
230
1.0
  2
SOLID
 70
         1
 71
         1
 91
        1
 92
        2
 72
         0
 73
         1
 93
        3
 10
144.30015700000001
 20
63.5
 10
143.728657
 20
64.643000000000001
 10
144.871657
 20
64.643000000000001
 97
        1
330
2B
 75
         0
 76
         1
 98
        1
 10
0.0
 20
0.0
  0
LWPOLYLINE
  5
2D
100
AcDbEntity
  8
ASSEMBLY_OUTLINES_TOP
100
AcDbPolyline
 90
        2
 70
         0
 43
0.2032
 10
144.300157
 20
58.9285
 10
144.300157
 20
56.6425
  0
LWPOLYLINE
  5
2E
100
AcDbEntity
  8
ASSEMBLY_OUTLINES_TOP
100
AcDbPolyline
 90
        2
 70
         0
 43
0.2032
 10
144.300157
 20
64.0715
 10
144.300157
 20
66.3575
  0
LWPOLYLINE
  5
2F
100
AcDbEntity
  8
ASSEMBLY_OUTLINES_TOP
100
AcDbPolyline
 90
        2
 70
         0
 43
0.2032
 10
136.008
 20
59.5
 10
144.808157
 20
59.5
  0
LWPOLYLINE
  5
30
100
AcDbEntity
  8
ASSEMBLY_OUTLINES_TOP
100
AcDbPolyline
 90
        2
 70
         0
 43
0.2032
 10
140.008
 20
63.5
 10
144.808157
 20
63.5
  0
LWPOLYLINE
  5
31
100
AcDbEntity
  8
ASSEMBLY_OUTLINES_TOP
100
AcDbPolyline
 90
        3
 70
         1
 10
139.5
 20
66.65963
 10
140.643
 20
67.23113
 10
140.643
 20
66.08813
  0
HATCH
  5
32
100
AcDbEntity
  8
ASSEMBLY_OUTLINES_TOP
100
AcDbHatch
 10
0.0
 20
0.0
 30
0.0
210
0.0
220
0.0
230
1.0
  2
SOLID
 70
         1
 71
         1
 91
        1
 92
        2
 72
         0
 73
         1
 93
        3
 10
139.5
 20
66.659630000000007
 10
140.643
 20
67.231129999999993
 10
140.643
 20
66.088130000000007
 97
        1
330
31
 75
         0
 76
         1
 98
        1
 10
0.0
 20
0.0
  0
LWPOLYLINE
  5
33
100
AcDbEntity
  8
ASSEMBLY_OUTLINES_TOP
100
AcDbPolyline
 90
        3
 70
         1
 10
135.5
 20
66.65963
 10
134.357
 20
66.088131
 10
134.357001
 20
67.23113
  0
HATCH
  5
34
100
AcDbEntity
  8
ASSEMBLY_OUTLINES_TOP
100
AcDbHatch
 10
0.0
 20
0.0
 30
0.0
210
0.0
220
0.0
230
1.0
  2
SOLID
 70
         1
 71
         1
 91
        1
 92
        2
 72
         0
 73
         1
 93
        3
 10
135.5
 20
66.659630000000007
 10
134.357
 20
66.088131000000004
 10
134.357001
 20
67.231129999999993
 97
        1
330
33
 75
         0
 76
         1
 98
        1
 10
0.0
 20
0.0
  0
LWPOLYLINE
  5
35
100
AcDbEntity
  8
ASSEMBLY_OUTLINES_TOP
100
AcDbPolyline
 90
        2
 70
         0
 43
0.2032
 10
140.0715
 20
66.65963
 10
142.3575
 20
66.65963
  0
LWPOLYLINE
  5
36
100
AcDbEntity
  8
ASSEMBLY_OUTLINES_TOP
100
AcDbPolyline
 90
        2
 70
         0
 43
0.2032
 10
134.9285
 20
66.65963
 10
132.6425
 20
66.65963
  0
LWPOLYLINE
  5
37
100
AcDbEntity
  8
ASSEMBLY_OUTLINES_TOP
100
AcDbPolyline
 90
        2
 70
         0
 43
0.2032
 10
139.5
 20
64.008
 10
139.5
 20
67.16763
  0
LWPOLYLINE
  5
38
100
AcDbEntity
  8
ASSEMBLY_OUTLINES_TOP
100
AcDbPolyline
 90
        2
 70
         0
 43
0.2032
 10
135.5
 20
60.008
 10
135.5
 20
67.16763
  0
LWPOLYLINE
  5
39
100
AcDbEntity
  8
ASSEMBLY_OUTLINES_TOP
100
AcDbPolyline
 90
        3
 70
         1
 10
139.5
 20
68.171724
 10
138.357
 20
67.600225
 10
138.357001
 20
68.743224
  0
HATCH
  5
3A
100
AcDbEntity
  8
ASSEMBLY_OUTLINES_TOP
100
AcDbHatch
 10
0.0
 20
0.0
 30
0.0
210
0.0
220
0.0
230
1.0
  2
SOLID
 70
         1
 71
         1
 91
        1
 92
        2
 72
         0
 73
         1
 93
        3
 10
139.5
 20
68.171723999999998
 10
138.357
 20
67.600224999999995
 10
138.357001
 20
68.743223999999998
 97
        1
330
39
 75
         0
 76
         1
 98
        1
 10
0.0
 20
0.0
  0
LWPOLYLINE
  5
3B
100
AcDbEntity
  8
ASSEMBLY_OUTLINES_TOP
100
AcDbPolyline
 90
        3
 70
         1
 10
2.0
 20
68.171724
 10
3.143
 20
68.743224
 10
3.143
 20
67.600224
  0
HATCH
  5
3C
100
AcDbEntity
  8
ASSEMBLY_OUTLINES_TOP
100
AcDbHatch
 10
0.0
 20
0.0
 30
0.0
210
0.0
220
0.0
230
1.0
  2
SOLID
 70
         1
 71
         1
 91
        1
 92
        2
 72
         0
 73
         1
 93
        3
 10
2.0
 20
68.171723999999998
 10
3.1429999999999998
 20
68.743223999999998
 10
3.1429999999999998
 20
67.600223999999997
 97
        1
330
3B
 75
         0
 76
         1
 98
        1
 10
0.0
 20
0.0
  0
LWPOLYLINE
  5
3D
100
AcDbEntity
  8
ASSEMBLY_OUTLINES_TOP
100
AcDbPolyline
 90
        2
 70
         0
 43
0.2032
 10
75.166139
 20
68.171724
 10
138.9285
 20
68.171724
  0
LWPOLYLINE
  5
3E
100
AcDbEntity
  8
ASSEMBLY_OUTLINES_TOP
100
AcDbPolyline
 90
        2
 70
         0
 43
0.2032
 10
2.5715
 20
68.171724
 10
66.333861
 20
68.171724
  0
LWPOLYLINE
  5
3F
100
AcDbEntity
  8
ASSEMBLY_OUTLINES_TOP
100
AcDbPolyline
 90
        2
 70
         0
 43
0.2032
 10
139.5
 20
64.008
 10
139.5
 20
68.679724
  0
LWPOLYLINE
  5
40
100
AcDbEntity
  8
ASSEMBLY_OUTLINES_TOP
100
AcDbPolyline
 90
        2
 70
         0
 43
0.2032
 10
2.0
 20
64.008
 10
2.0
 20
68.679724
  0
LWPOLYLINE
  5
41
100
AcDbEntity
  8
ASSEMBLY_OUTLINES_TOP
100
AcDbPolyline
 90
        3
 70
         1
 10
145.305084
 20
0.0
 10
144.733584
 20
1.143
 10
145.876584
 20
1.143
  0
HATCH
  5
42
100
AcDbEntity
  8
ASSEMBLY_OUTLINES_TOP
100
AcDbHatch
 10
0.0
 20
0.0
 30
0.0
210
0.0
220
0.0
230
1.0
  2
SOLID
 70
         1
 71
         1
 91
        1
 92
        2
 72
         0
 73
         1
 93
        3
 10
145.30508399999999
 20
0.0
 10
144.73358400000001
 20
1.143
 10
145.87658400000001
 20
1.143
 97
        1
330
41
 75
         0
 76
         1
 98
        1
 10
0.0
 20
0.0
  0
LWPOLYLINE
  5
43
100
AcDbEntity
  8
ASSEMBLY_OUTLINES_TOP
100
AcDbPolyline
 90
        3
 70
         1
 10
145.305084
 20
63.5
 10
145.876583
 20
62.357
 10
144.733584
 20
62.357001
  0
HATCH
  5
44
100
AcDbEntity
  8
ASSEMBLY_OUTLINES_TOP
100
AcDbHatch
 10
0.0
 20
0.0
 30
0.0
210
0.0
220
0.0
230
1.0
  2
SOLID
 70
         1
 71
         1
 91
        1
 92
        2
 72
         0
 73
         1
 93
        3
 10
145.30508399999999
 20
63.5
 10
145.87658300000001
 20
62.356999999999999
 10
144.73358400000001
 20
62.357000999999997
 97
        1
330
43
 75
         0
 76
         1
 98
        1
 10
0.0
 20
0.0
  0
LWPOLYLINE
  5
45
100
AcDbEntity
  8
ASSEMBLY_OUTLINES_TOP
100
AcDbPolyline
 90
        2
 70
         0
 43
0.2032
 10
145.305084
 20
27.890597
 10
145.305084
 20
0.5715
  0
LWPOLYLINE
  5
46
100
AcDbEntity
  8
ASSEMBLY_OUTLINES_TOP
100
AcDbPolyline
 90
        2
 70
         0
 43
0.2032
 10
145.305084
 20
62.9285
 10
145.305084
 20
35.609402
  0
LWPOLYLINE
  5
47
100
AcDbEntity
  8
ASSEMBLY_OUTLINES_TOP
100
AcDbPolyline
 90
        2
 70
         0
 43
0.2032
 10
140.008
 20
0.0
 10
145.813084
 20
0.0
  0
LWPOLYLINE
  5
48
100
AcDbEntity
  8
ASSEMBLY_OUTLINES_TOP
100
AcDbPolyline
 90
        2
 70
         0
 43
0.2032
 10
140.008
 20
63.5
 10
145.813084
 20
63.5
  0
LWPOLYLINE
  5
49
100
AcDbEntity
  8
ASSEMBLY_OUTLINES_TOP
100
AcDbPolyline
 90
        2
 70
         0
 43
0.2032
 10
2.0
 20
64.008
 10
2.0
 20
67.021696
  0
LWPOLYLINE
  5
4A
100
AcDbEntity
  8
ASSEMBLY_OUTLINES_TOP
100
AcDbPolyline
 90
        2
 70
         0
 43
0.2032
 10
63.5
 20
60.008
 10
63.5
 20
67.021696
  0
LWPOLYLINE
  5
4B
100
AcDbEntity
  8
ASSEMBLY_OUTLINES_TOP
100
AcDbPolyline
 90
        2
 70
         0
 43
0.2032
 10
2.5715
 20
66.513696
 10
28.96394
 20
66.513696
  0
LWPOLYLINE
  5
4C
100
AcDbEntity
  8
ASSEMBLY_OUTLINES_TOP
100
AcDbPolyline
 90
        2
 70
         0
 43
0.2032
 10
36.536061
 20
66.513696
 10
62.9285
 20
66.513696
  0
LWPOLYLINE
  5
4D
100
AcDbEntity
  8
ASSEMBLY_OUTLINES_TOP
100
AcDbPolyline
 90
        3
 70
         1
 10
2.0
 20
66.513696
 10
3.143
 20
67.085196
 10
3.143
 20
65.942196
  0
HATCH
  5
4E
100
AcDbEntity
  8
ASSEMBLY_OUTLINES_TOP
100
AcDbHatch
 10
0.0
 20
0.0
 30
0.0
210
0.0
220
0.0
230
1.0
  2
SOLID
 70
         1
 71
         1
 91
        1
 92
        2
 72
         0
 73
         1
 93
        3
 10
2.0
 20
66.513695999999996
 10
3.1429999999999998
 20
67.085195999999996
 10
3.1429999999999998
 20
65.942195999999996
 97
        1
330
4D
 75
         0
 76
         1
 98
        1
 10
0.0
 20
0.0
  0
LWPOLYLINE
  5
4F
100
AcDbEntity
  8
ASSEMBLY_OUTLINES_TOP
100
AcDbPolyline
 90
        3
 70
         1
 10
63.5
 20
66.513696
 10
62.357
 20
65.942197
 10
62.357001
 20
67.085196
  0
HATCH
  5
50
100
AcDbEntity
  8
ASSEMBLY_OUTLINES_TOP
100
AcDbHatch
 10
0.0
 20
0.0
 30
0.0
210
0.0
220
0.0
230
1.0
  2
SOLID
 70
         1
 71
         1
 91
        1
 92
        2
 72
         0
 73
         1
 93
        3
 10
63.5
 20
66.513695999999996
 10
62.356999999999999
 20
65.942196999999993
 10
62.357000999999997
 20
67.085195999999996
 97
        1
330
4F
 75
         0
 76
         1
 98
        1
 10
0.0
 20
0.0
  0
LWPOLYLINE
  5
51
100
AcDbEntity
  8
ASSEMBLY_OUTLINES_TOP
100
AcDbPolyline
 90
        4
 70
         1
 10
42.5
 20
-18.6
 10
42.5
 20
-1.0
 10
67.5
 20
-1.0
 10
67.5
 20
-18.6
  0
LWPOLYLINE
  5
52
100
AcDbEntity
  8
ASSEMBLY_OUTLINES_TOP
100
AcDbPolyline
 90
        4
 70
         1
 10
67.5
 20
-18.6
 10
67.5
 20
-1.0
 10
92.5
 20
-1.0
 10
92.5
 20
-18.6
  0
LWPOLYLINE
  5
53
100
AcDbEntity
  8
ASSEMBLY_OUTLINES_TOP
100
AcDbPolyline
 90
        2
 70
         0
 43
0.2032
 10
1.492
 20
0.0
 10
-1.110791
 20
0.0
  0
LWPOLYLINE
  5
54
100
AcDbEntity
  8
ASSEMBLY_OUTLINES_TOP
100
AcDbPolyline
 90
        2
 70
         0
 43
0.2032
 10
1.862002
 20
-3.000002
 10
-1.110791
 20
-3.000002
  0
LWPOLYLINE
  5
55
100
AcDbEntity
  8
ASSEMBLY_OUTLINES_TOP
100
AcDbPolyline
 90
        2
 70
         0
 43
0.2032
 10
-0.602791
 20
0.5715
 10
-0.602791
 20
2.8575
  0
LWPOLYLINE
  5
56
100
AcDbEntity
  8
ASSEMBLY_OUTLINES_TOP
100
AcDbPolyline
 90
        2
 70
         0
 43
0.2032
 10
-0.602791
 20
-3.571502
 10
-0.602791
 20
-5.857502
  0
LWPOLYLINE
  5
57
100
AcDbEntity
  8
ASSEMBLY_OUTLINES_TOP
100
AcDbPolyline
 90
        3
 70
         1
 10
-0.602791
 20
0.0
 10
-1.174291
 20
1.143
 10
-0.031291
 20
1.143
  0
HATCH
  5
58
100
AcDbEntity
  8
ASSEMBLY_OUTLINES_TOP
100
AcDbHatch
 10
0.0
 20
0.0
 30
0.0
210
0.0
220
0.0
230
1.0
  2
SOLID
 70
         1
 71
         1
 91
        1
 92
        2
 72
         0
 73
         1
 93
        3
 10
-0.602791
 20
0.0
 10
-1.174291
 20
1.143
 10
-0.031291
 20
1.143
 97
        1
330
57
 75
         0
 76
         1
 98
        1
 10
0.0
 20
0.0
  0
LWPOLYLINE
  5
59
100
AcDbEntity
  8
ASSEMBLY_OUTLINES_TOP
100
AcDbPolyline
 90
        3
 70
         1
 10
-0.602791
 20
-3.000002
 10
-0.031292
 20
-4.143002
 10
-1.174291
 20
-4.143001
  0
HATCH
  5
5A
100
AcDbEntity
  8
ASSEMBLY_OUTLINES_TOP
100
AcDbHatch
 10
0.0
 20
0.0
 30
0.0
210
0.0
220
0.0
230
1.0
  2
SOLID
 70
         1
 71
         1
 91
        1
 92
        2
 72
         0
 73
         1
 93
        3
 10
-0.602791
 20
-3.0000019999999998
 10
-0.031292
 20
-4.1430020000000001
 10
-1.174291
 20
-4.1430009999999999
 97
        1
330
59
 75
         0
 76
         1
 98
        1
 10
0.0
 20
0.0
  0
LWPOLYLINE
  5
5B
100
AcDbEntity
  8
ASSEMBLY_OUTLINES_TOP
100
AcDbPolyline
 90
        2
 70
         0
 43
0.2032
 10
14.3
 20
-0.608
 10
14.3
 20
-3.771904
  0
LWPOLYLINE
  5
5C
100
AcDbEntity
  8
ASSEMBLY_OUTLINES_TOP
100
AcDbPolyline
 90
        2
 70
         0
 43
0.2032
 10
23.6
 20
11.592
 10
23.6
 20
-3.771904
  0
LWPOLYLINE
  5
5D
100
AcDbEntity
  8
ASSEMBLY_OUTLINES_TOP
100
AcDbPolyline
 90
        2
 70
         0
 43
0.2032
 10
14.8715
 20
-3.263904
 10
15.720676
 20
-3.263904
  0
LWPOLYLINE
  5
5E
100
AcDbEntity
  8
ASSEMBLY_OUTLINES_TOP
100
AcDbPolyline
 90
        2
 70
         0
 43
0.2032
 10
22.179324
 20
-3.263904
 10
23.0285
 20
-3.263904
  0
LWPOLYLINE
  5
5F
100
AcDbEntity
  8
ASSEMBLY_OUTLINES_TOP
100
AcDbPolyline
 90
        3
 70
         1
 10
14.3
 20
-3.263904
 10
15.443
 20
-2.692404
 10
15.443
 20
-3.835404
  0
HATCH
  5
60
100
AcDbEntity
  8
ASSEMBLY_OUTLINES_TOP
100
AcDbHatch
 10
0.0
 20
0.0
 30
0.0
210
0.0
220
0.0
230
1.0
  2
SOLID
 70
         1
 71
         1
 91
        1
 92
        2
 72
         0
 73
         1
 93
        3
 10
14.300000000000001
 20
-3.2639040000000001
 10
15.443
 20
-2.6924039999999998
 10
15.443
 20
-3.835404
 97
        1
330
5F
 75
         0
 76
         1
 98
        1
 10
0.0
 20
0.0
  0
LWPOLYLINE
  5
61
100
AcDbEntity
  8
ASSEMBLY_OUTLINES_TOP
100
AcDbPolyline
 90
        3
 70
         1
 10
23.6
 20
-3.263904
 10
22.457
 20
-3.835403
 10
22.457001
 20
-2.692404
  0
HATCH
  5
62
100
AcDbEntity
  8
ASSEMBLY_OUTLINES_TOP
100
AcDbHatch
 10
0.0
 20
0.0
 30
0.0
210
0.0
220
0.0
230
1.0
  2
SOLID
 70
         1
 71
         1
 91
        1
 92
        2
 72
         0
 73
         1
 93
        3
 10
23.600000000000001
 20
-3.2639040000000001
 10
22.457000000000001
 20
-3.8354029999999999
 10
22.457001000000002
 20
-2.6924039999999998
 97
        1
330
61
 75
         0
 76
         1
 98
        1
 10
0.0
 20
0.0
  0
TEXT
  5
64
100
AcDbEntity
  8
ASSEMBLY_OUTLINES_TOP
100
AcDbText
 10
144.935157
 20
66.580734
 30
0.0
 40
1.27
  1
4mm
 50
90.0
  7
VERIBEST_GERBER_1
 72
         1
 11
144.300157
 21
68.378419
 31
0.0
100
AcDbText
 73
         2
  0
TEXT
  5
65
100
AcDbEntity
  8
ASSEMBLY_OUTLINES_TOP
100
AcDbText
 10
128.823896
 20
66.02463
 30
0.0
 40
1.27
  1
4mm
  7
VERIBEST_GERBER_1
 72
         1
 11
130.621581
 21
66.65963
 31
0.0
100
AcDbText
 73
         2
  0
TEXT
  5
66
100
AcDbEntity
  8
ASSEMBLY_OUTLINES_TOP
100
AcDbText
 10
66.767915
 20
67.536724
 30
0.0
 40
1.27
  1
137.5mm
  7
VERIBEST_GERBER_1
 72
         1
 11
70.75
 21
68.171724
 31
0.0
100
AcDbText
 73
         2
  0
TEXT
  5
67
100
AcDbEntity
  8
ASSEMBLY_OUTLINES_TOP
100
AcDbText
 10
145.940084
 20
28.298141
 30
0.0
 40
1.27
  1
63.5mm
 50
90.0
  7
VERIBEST_GERBER_1
 72
         1
 11
145.305084
 21
31.750001
 31
0.0
100
AcDbText
 73
         2
  0
TEXT
  5
68
100
AcDbEntity
  8
ASSEMBLY_OUTLINES_TOP
100
AcDbText
 10
29.36799
 20
65.878696
 30
0.0
 40
1.27
  1
61.5mm
  7
VERIBEST_GERBER_1
 72
         1
 11
32.75
 21
66.513696
 31
0.0
100
AcDbText
 73
         2
  0
TEXT
  5
69
100
AcDbEntity
  8
ASSEMBLY_OUTLINES_TOP
100
AcDbText
 10
0.032209
 20
3.080734
 30
0.0
 40
1.27
  1
3mm
 50
90.0
  7
VERIBEST_GERBER_1
 72
         1
 11
-0.602791
 21
4.878419
 31
0.0
100
AcDbText
 73
         2
  0
TEXT
  5
6A
100
AcDbEntity
  8
ASSEMBLY_OUTLINES_TOP
100
AcDbText
 10
16.098215
 20
-3.898904
 30
0.0
 40
1.27
  1
9.3mm
  7
VERIBEST_GERBER_1
 72
         1
 11
18.95
 21
-3.263904
 31
0.0
100
AcDbText
 73
         2
  0
LWPOLYLINE
  5
6B
100
AcDbEntity
  8
ASSEMBLY_OUTLINES_TOP
100
AcDbPolyline
 90
        2
 70
         0
 43
0.1
 10
11.165
 20
38.205
 10
11.265
 20
38.105
  0
LWPOLYLINE
  5
6C
100
AcDbEntity
  8
ASSEMBLY_OUTLINES_TOP
100
AcDbPolyline
 90
        2
 70
         0
 43
0.1
 10
11.065
 20
38.205
 10
11.265
 20
38.005
  0
LWPOLYLINE
  5
6D
100
AcDbEntity
  8
ASSEMBLY_OUTLINES_TOP
100
AcDbPolyline
 90
        2
 70
         0
 43
0.1
 10
10.965
 20
38.205
 10
11.265
 20
37.905
  0
LWPOLYLINE
  5
6E
100
AcDbEntity
  8
ASSEMBLY_OUTLINES_TOP
100
AcDbPolyline
 90
        2
 70
         0
 43
0.1
 10
10.865
 20
38.205
 10
11.265
 20
37.805
  0
LWPOLYLINE
  5
6F
100
AcDbEntity
  8
ASSEMBLY_OUTLINES_TOP
100
AcDbPolyline
 90
        2
 70
         0
 43
0.1
 10
10.765
 20
38.205
 10
11.265
 20
37.705
  0
LWPOLYLINE
  5
70
100
AcDbEntity
  8
ASSEMBLY_OUTLINES_TOP
100
AcDbPolyline
 90
        2
 70
         0
 43
0.1
 10
10.665
 20
38.205
 10
11.265
 20
37.605
  0
LWPOLYLINE
  5
71
100
AcDbEntity
  8
ASSEMBLY_OUTLINES_TOP
100
AcDbPolyline
 90
        4
 70
         1
 43
0.1
 10
8.215
 20
36.455
 10
8.215
 20
38.205
 10
11.265
 20
38.205
 10
11.265
 20
36.455
  0
LWPOLYLINE
  5
72
100
AcDbEntity
  8
ASSEMBLY_OUTLINES_TOP
100
AcDbPolyline
 90
        4
 70
         1
 43
0.1
 10
111.47
 20
14.95
 10
111.47
 20
18.95
 10
121.47
 20
18.95
 10
121.47
 20
14.95
  0
LWPOLYLINE
  5
73
100
AcDbEntity
  8
ASSEMBLY_OUTLINES_TOP
100
AcDbPolyline
 90
        2
 70
         1
 43
0.1
 10
119.97
 20
17.95
 42
-1.0
 10
120.97
 20
17.95
 42
-1.0
  0
LWPOLYLINE
  5
74
100
AcDbEntity
  8
ASSEMBLY_OUTLINES_TOP
100
AcDbPolyline
 90
        2
 70
         0
 43
0.1
 10
14.825
 20
36.275
 10
14.925
 20
36.175
  0
LWPOLYLINE
  5
75
100
AcDbEntity
  8
ASSEMBLY_OUTLINES_TOP
100
AcDbPolyline
 90
        2
 70
         0
 43
0.1
 10
14.725
 20
36.275
 10
14.925
 20
36.075
  0
LWPOLYLINE
  5
76
100
AcDbEntity
  8
ASSEMBLY_OUTLINES_TOP
100
AcDbPolyline
 90
        2
 70
         0
 43
0.1
 10
14.625
 20
36.275
 10
14.925
 20
35.975
  0
LWPOLYLINE
  5
77
100
AcDbEntity
  8
ASSEMBLY_OUTLINES_TOP
100
AcDbPolyline
 90
        2
 70
         0
 43
0.1
 10
14.525
 20
36.275
 10
14.925
 20
35.875
  0
LWPOLYLINE
  5
78
100
AcDbEntity
  8
ASSEMBLY_OUTLINES_TOP
100
AcDbPolyline
 90
        2
 70
         0
 43
0.1
 10
14.425
 20
36.275
 10
14.925
 20
35.775
  0
LWPOLYLINE
  5
79
100
AcDbEntity
  8
ASSEMBLY_OUTLINES_TOP
100
AcDbPolyline
 90
        2
 70
         0
 43
0.1
 10
14.325
 20
36.275
 10
14.925
 20
35.675
  0
LWPOLYLINE
  5
7A
100
AcDbEntity
  8
ASSEMBLY_OUTLINES_TOP
100
AcDbPolyline
 90
        4
 70
         1
 43
0.1
 10
11.875
 20
34.525
 10
11.875
 20
36.275
 10
14.925
 20
36.275
 10
14.925
 20
34.525
  0
LWPOLYLINE
  5
7B
100
AcDbEntity
  8
ASSEMBLY_OUTLINES_TOP
100
AcDbPolyline
 90
        4
 70
         1
 43
0.1
 10
2.370002
 20
-3.000002
 10
2.370002
 20
11.499998
 10
11.370002
 20
11.499998
 10
11.370002
 20
-3.000002
  0
LWPOLYLINE
  5
7C
100
AcDbEntity
  8
ASSEMBLY_OUTLINES_TOP
100
AcDbPolyline
 90
        4
 70
         1
 43
0.1
 10
85.06
 20
32.53
 10
85.06
 20
35.43
 10
86.36
 20
35.43
 10
86.36
 20
32.53
  0
LWPOLYLINE
  5
7D
100
AcDbEntity
  8
ASSEMBLY_OUTLINES_TOP
100
AcDbPolyline
 90
        4
 70
         1
 10
23.6
 20
0.0
 10
23.6
 20
12.1
 10
37.0
 20
12.1
 10
37.0
 20
0.0
  0
LWPOLYLINE
  5
7E
100
AcDbEntity
  8
ASSEMBLY_OUTLINES_TOP
100
AcDbPolyline
 90
        4
 70
         1
 10
24.3
 20
-7.0
 10
24.3
 20
0.0
 10
35.3
 20
0.0
 10
35.3
 20
-7.0
  0
LWPOLYLINE
  5
7F
100
AcDbEntity
  8
ASSEMBLY_OUTLINES_TOP
100
AcDbPolyline
 90
        2
 70
         1
 43
0.1
 10
56.86
 20
40.81
 42
-1.0
 10
60.86
 20
40.81
 42
-1.0
  0
LWPOLYLINE
  5
80
100
AcDbEntity
  8
ASSEMBLY_OUTLINES_TOP
100
AcDbPolyline
 90
        4
 70
         1
 43
0.1
 10
130.62
 20
17.38
 10
130.62
 20
50.38
 10
139.32
 20
50.38
 10
139.32
 20
17.38
  0
LWPOLYLINE
  5
81
100
AcDbEntity
  8
ASSEMBLY_OUTLINES_TOP
100
AcDbPolyline
 90
        4
 70
         1
 43
0.1
 10
130.62
 20
30.81
 10
130.62
 20
37.31
 10
131.2
 20
37.31
 10
131.2
 20
30.81
  0
LWPOLYLINE
  5
82
100
AcDbEntity
  8
ASSEMBLY_OUTLINES_TOP
100
AcDbPolyline
 90
        4
 70
         1
 43
0.1
 10
131.39
 20
53.23
 10
131.39
 20
55.77
 10
138.89
 20
55.77
 10
138.89
 20
53.23
  0
LWPOLYLINE
  5
83
100
AcDbEntity
  8
ASSEMBLY_OUTLINES_TOP
100
AcDbPolyline
 90
        5
 70
         1
 43
0.1
 10
24.8
 20
47.3
 10
24.8
 20
31.3
 10
46.8
 20
31.3
 10
46.8
 20
44.05
 10
43.55
 20
47.3
  0
LWPOLYLINE
  5
84
100
AcDbEntity
  8
ASSEMBLY_OUTLINES_TOP
100
AcDbPolyline
 90
        4
 70
         1
 43
0.1
 10
46.8
 20
36.05
 10
46.8
 20
42.55
 10
50.3
 20
42.55
 10
50.3
 20
36.05
  0
LWPOLYLINE
  5
85
100
AcDbEntity
  8
ASSEMBLY_OUTLINES_TOP
100
AcDbPolyline
 90
        4
 70
         1
 43
0.1
 10
21.3
 20
35.8
 10
21.3
 20
42.55
 10
24.8
 20
42.55
 10
24.8
 20
35.8
  0
LWPOLYLINE
  5
86
100
AcDbEntity
  8
ASSEMBLY_OUTLINES_TOP
100
AcDbPolyline
 90
        2
 70
         1
 43
0.1
 10
25.8
 20
39.3
 42
-1.0
 10
45.8
 20
39.3
 42
-1.0
  0
LWPOLYLINE
  5
87
100
AcDbEntity
  8
ASSEMBLY_OUTLINES_TOP
100
AcDbPolyline
 90
        4
 70
         1
 43
0.1
 10
12.45
 20
51.26
 10
12.45
 20
64.63
 10
63.75
 20
64.63
 10
63.75
 20
51.26
  0
LWPOLYLINE
  5
88
100
AcDbEntity
  8
ASSEMBLY_OUTLINES_TOP
100
AcDbPolyline
 90
        4
 70
         1
 43
0.1
 10
56.42
 20
46.66
 10
56.42
 20
49.2
 10
58.96
 20
49.2
 10
58.96
 20
46.66
  0
LWPOLYLINE
  5
89
100
AcDbEntity
  8
ASSEMBLY_OUTLINES_TOP
100
AcDbPolyline
 90
        4
 70
         1
 43
0.1
 10
42.93
 20
3.63
 10
42.93
 20
6.17
 10
48.01
 20
6.17
 10
48.01
 20
3.63
  0
LWPOLYLINE
  5
8A
100
AcDbEntity
  8
ASSEMBLY_OUTLINES_TOP
100
AcDbPolyline
 90
        4
 70
         1
 43
0.1
 10
84.02
 20
42.11
 10
84.02
 20
52.37
 10
106.32
 20
52.37
 10
106.32
 20
42.11
  0
LWPOLYLINE
  5
8B
100
AcDbEntity
  8
ASSEMBLY_OUTLINES_TOP
100
AcDbPolyline
 90
        2
 70
         1
 43
0.1
 10
104.82
 20
51.37
 42
-1.0
 10
105.82
 20
51.37
 42
-1.0
  0
LWPOLYLINE
  5
8C
100
AcDbEntity
  8
ASSEMBLY_OUTLINES_TOP
100
AcDbPolyline
 90
        6
 70
         1
 43
0.1
 10
115.4
 20
31.55
 10
117.05
 20
33.2
 10
122.0
 20
33.2
 10
122.0
 20
26.6
 10
117.05
 20
26.6
 10
115.4
 20
28.25
  0
LWPOLYLINE
  5
8D
100
AcDbEntity
  8
ASSEMBLY_OUTLINES_TOP
100
AcDbPolyline
 90
        4
 70
         1
 43
0.1
 10
86.74
 20
26.77
 10
86.74
 20
39.27
 10
94.24
 20
39.27
 10
94.24
 20
26.77
  0
LWPOLYLINE
  5
8E
100
AcDbEntity
  8
ASSEMBLY_OUTLINES_TOP
100
AcDbPolyline
 90
        2
 70
         0
 43
0.1
 10
94.24
 20
26.87
 10
94.14
 20
26.77
  0
LWPOLYLINE
  5
8F
100
AcDbEntity
  8
ASSEMBLY_OUTLINES_TOP
100
AcDbPolyline
 90
        2
 70
         0
 43
0.1
 10
94.24
 20
26.97
 10
94.04
 20
26.77
  0
LWPOLYLINE
  5
90
100
AcDbEntity
  8
ASSEMBLY_OUTLINES_TOP
100
AcDbPolyline
 90
        2
 70
         0
 43
0.1
 10
94.24
 20
27.07
 10
93.94
 20
26.77
  0
LWPOLYLINE
  5
91
100
AcDbEntity
  8
ASSEMBLY_OUTLINES_TOP
100
AcDbPolyline
 90
        2
 70
         0
 43
0.1
 10
94.24
 20
27.17
 10
93.84
 20
26.77
  0
LWPOLYLINE
  5
92
100
AcDbEntity
  8
ASSEMBLY_OUTLINES_TOP
100
AcDbPolyline
 90
        2
 70
         0
 43
0.1
 10
94.24
 20
27.27
 10
93.74
 20
26.77
  0
LWPOLYLINE
  5
93
100
AcDbEntity
  8
ASSEMBLY_OUTLINES_TOP
100
AcDbPolyline
 90
        2
 70
         0
 43
0.1
 10
94.24
 20
27.37
 10
93.64
 20
26.77
  0
LWPOLYLINE
  5
94
100
AcDbEntity
  8
ASSEMBLY_OUTLINES_TOP
100
AcDbPolyline
 90
        8
 70
         0
 43
0.1
 10
38.5
 20
34.8
 42
-2.549150321
 10
38.5
 20
45.0
 10
38.5
 20
46.9
 10
40.5
 20
46.9
 10
40.5
 20
32.9
 10
38.5
 20
32.9
 10
38.5
 20
34.8
 10
38.5
 20
34.7
  0
LWPOLYLINE
  5
95
100
AcDbEntity
  8
ASSEMBLY_OUTLINES_TOP
100
AcDbPolyline
 90
        4
 70
         1
 43
0.1
 10
78.52
 20
58.34
 10
78.52
 20
63.34
 10
129.42
 20
63.34
 10
129.42
 20
58.34
  0
LWPOLYLINE
  5
96
100
AcDbEntity
  8
ASSEMBLY_OUTLINES_TOP
100
AcDbPolyline
 90
        6
 70
         1
 43
0.1
 10
3.89
 20
54.67
 10
5.54
 20
56.32
 10
10.49
 20
56.32
 10
10.49
 20
49.72
 10
5.54
 20
49.72
 10
3.89
 20
51.37
  0
LWPOLYLINE
  5
97
100
AcDbEntity
  8
ASSEMBLY_OUTLINES_TOP
100
AcDbPolyline
 90
        2
 70
         0
 43
0.1
 10
16.35
 20
33.5
 10
16.35
 20
36.5
  0
LWPOLYLINE
  5
98
100
AcDbEntity
  8
ASSEMBLY_OUTLINES_TOP
100
AcDbPolyline
 90
        2
 70
         0
 43
0.1
 10
16.45
 20
33.5
 10
16.45
 20
36.5
  0
LWPOLYLINE
  5
99
100
AcDbEntity
  8
ASSEMBLY_OUTLINES_TOP
100
AcDbPolyline
 90
        2
 70
         0
 43
0.1
 10
16.55
 20
33.5
 10
16.55
 20
36.5
  0
LWPOLYLINE
  5
9A
100
AcDbEntity
  8
ASSEMBLY_OUTLINES_TOP
100
AcDbPolyline
 90
        2
 70
         0
 43
0.1
 10
16.65
 20
33.5
 10
16.65
 20
36.5
  0
LWPOLYLINE
  5
9B
100
AcDbEntity
  8
ASSEMBLY_OUTLINES_TOP
100
AcDbPolyline
 90
        2
 70
         0
 43
0.1
 10
16.75
 20
33.5
 10
16.75
 20
36.5
  0
LWPOLYLINE
  5
9C
100
AcDbEntity
  8
ASSEMBLY_OUTLINES_TOP
100
AcDbPolyline
 90
        2
 70
         0
 43
0.1
 10
16.85
 20
33.5
 10
16.85
 20
36.5
  0
LWPOLYLINE
  5
9D
100
AcDbEntity
  8
ASSEMBLY_OUTLINES_TOP
100
AcDbPolyline
 90
        2
 70
         0
 43
0.1
 10
16.95
 20
33.5
 10
16.95
 20
36.5
  0
LWPOLYLINE
  5
9E
100
AcDbEntity
  8
ASSEMBLY_OUTLINES_TOP
100
AcDbPolyline
 90
        2
 70
         0
 43
0.1
 10
17.05
 20
33.5
 10
17.05
 20
36.5
  0
LWPOLYLINE
  5
9F
100
AcDbEntity
  8
ASSEMBLY_OUTLINES_TOP
100
AcDbPolyline
 90
        4
 70
         1
 43
0.1
 10
16.25
 20
33.5
 10
16.25
 20
36.5
 10
19.95
 20
36.5
 10
19.95
 20
33.5
  0
LWPOLYLINE
  5
A0
100
AcDbEntity
  8
ASSEMBLY_OUTLINES_TOP
100
AcDbPolyline
 90
        4
 70
         1
 43
0.1
 10
23.6
 20
34.95
 10
23.6
 20
42.95
 10
46.6
 20
42.95
 10
46.6
 20
34.95
  0
LWPOLYLINE
  5
A1
100
AcDbEntity
  8
ASSEMBLY_OUTLINES_TOP
100
AcDbPolyline
 90
        2
 70
         0
 43
0.1
 10
107.35
 20
26.7
 10
99.85
 20
26.7
  0
LWPOLYLINE
  5
A2
100
AcDbEntity
  8
ASSEMBLY_OUTLINES_TOP
100
AcDbPolyline
 90
        2
 70
         0
 43
0.1
 10
107.35
 20
22.7
 10
99.85
 20
22.7
  0
LWPOLYLINE
  5
A3
100
AcDbEntity
  8
ASSEMBLY_OUTLINES_TOP
100
AcDbPolyline
 90
        2
 70
         0
 43
0.1
 10
99.85
 20
26.7
 42
1.0
 10
99.85
 20
22.7
  0
LWPOLYLINE
  5
A4
100
AcDbEntity
  8
ASSEMBLY_OUTLINES_TOP
100
AcDbPolyline
 90
        2
 70
         0
 43
0.1
 10
107.35
 20
22.7
 42
1.0
 10
107.35
 20
26.7
  0
LWPOLYLINE
  5
A5
100
AcDbEntity
  8
ASSEMBLY_OUTLINES_TOP
100
AcDbPolyline
 90
        4
 70
         1
 43
0.1
 10
4.182
 20
41.925
 10
4.182
 20
48.655
 10
10.402
 20
48.655
 10
10.402
 20
41.925
  0
LWPOLYLINE
  5
A6
100
AcDbEntity
  8
ASSEMBLY_OUTLINES_TOP
100
AcDbPolyline
 90
        4
 70
         1
 43
0.1
 10
46.39
 20
46.73
 10
46.39
 20
49.27
 10
51.47
 20
49.27
 10
51.47
 20
46.73
  0
LWPOLYLINE
  5
A7
100
AcDbEntity
  8
ASSEMBLY_OUTLINES_TOP
100
AcDbPolyline
 90
        2
 70
         0
 43
0.1
 10
79.51
 20
22.94
 10
72.01
 20
22.94
  0
LWPOLYLINE
  5
A8
100
AcDbEntity
  8
ASSEMBLY_OUTLINES_TOP
100
AcDbPolyline
 90
        2
 70
         0
 43
0.1
 10
79.51
 20
18.94
 10
72.01
 20
18.94
  0
LWPOLYLINE
  5
A9
100
AcDbEntity
  8
ASSEMBLY_OUTLINES_TOP
100
AcDbPolyline
 90
        2
 70
         0
 43
0.1
 10
72.01
 20
22.94
 42
1.0
 10
72.01
 20
18.94
  0
LWPOLYLINE
  5
AA
100
AcDbEntity
  8
ASSEMBLY_OUTLINES_TOP
100
AcDbPolyline
 90
        2
 70
         0
 43
0.1
 10
79.51
 20
18.94
 42
1.0
 10
79.51
 20
22.94
  0
LWPOLYLINE
  5
AB
100
AcDbEntity
  8
ASSEMBLY_OUTLINES_TOP
100
AcDbPolyline
 90
        4
 70
         1
 43
0.1
 10
51.71
 20
21.76
 10
51.71
 20
28.76
 10
58.71
 20
28.76
 10
58.71
 20
21.76
  0
LWPOLYLINE
  5
AC
100
AcDbEntity
  8
ASSEMBLY_OUTLINES_TOP
100
AcDbPolyline
 90
        2
 70
         1
 43
0.1
 10
57.21
 20
27.76
 42
-1.0
 10
58.21
 20
27.76
 42
-1.0
  0
LWPOLYLINE
  5
AD
100
AcDbEntity
  8
ASSEMBLY_OUTLINES_TOP
100
AcDbPolyline
 90
        2
 70
         0
 43
0.1
 10
21.05
 20
32.15
 10
21.05
 20
33.85
  0
LWPOLYLINE
  5
AE
100
AcDbEntity
  8
ASSEMBLY_OUTLINES_TOP
100
AcDbPolyline
 90
        2
 70
         0
 43
0.1
 10
21.15
 20
32.15
 10
21.15
 20
33.85
  0
LWPOLYLINE
  5
AF
100
AcDbEntity
  8
ASSEMBLY_OUTLINES_TOP
100
AcDbPolyline
 90
        2
 70
         0
 43
0.1
 10
21.25
 20
32.15
 10
21.25
 20
33.85
  0
LWPOLYLINE
  5
B0
100
AcDbEntity
  8
ASSEMBLY_OUTLINES_TOP
100
AcDbPolyline
 90
        2
 70
         0
 43
0.1
 10
21.35
 20
32.15
 10
21.35
 20
33.85
  0
LWPOLYLINE
  5
B1
100
AcDbEntity
  8
ASSEMBLY_OUTLINES_TOP
100
AcDbPolyline
 90
        2
 70
         0
 43
0.1
 10
21.45
 20
32.15
 10
21.45
 20
33.85
  0
LWPOLYLINE
  5
B2
100
AcDbEntity
  8
ASSEMBLY_OUTLINES_TOP
100
AcDbPolyline
 90
        2
 70
         0
 43
0.1
 10
21.55
 20
32.15
 10
21.55
 20
33.85
  0
LWPOLYLINE
  5
B3
100
AcDbEntity
  8
ASSEMBLY_OUTLINES_TOP
100
AcDbPolyline
 90
        4
 70
         1
 43
0.1
 10
20.95
 20
32.15
 10
20.95
 20
33.85
 10
24.05
 20
33.85
 10
24.05
 20
32.15
  0
LWPOLYLINE
  5
B4
100
AcDbEntity
  8
ASSEMBLY_OUTLINES_TOP
100
AcDbPolyline
 90
        4
 70
         1
 43
0.1
 10
64.79
 20
2.23
 10
64.79
 20
4.77
 10
69.87
 20
4.77
 10
69.87
 20
2.23
  0
LWPOLYLINE
  5
B5
100
AcDbEntity
  8
ASSEMBLY_OUTLINES_TOP
100
AcDbPolyline
 90
        4
 70
         1
 43
0.1
 10
84.2
 20
13.95
 10
84.2
 20
20.25
 10
89.2
 20
20.25
 10
89.2
 20
13.95
  0
LWPOLYLINE
  5
B6
100
AcDbEntity
  8
ASSEMBLY_OUTLINES_TOP
100
AcDbPolyline
 90
        2
 70
         0
 43
0.1
 10
96.2
 20
38.85
 10
99.2
 20
38.85
  0
LWPOLYLINE
  5
B7
100
AcDbEntity
  8
ASSEMBLY_OUTLINES_TOP
100
AcDbPolyline
 90
        2
 70
         0
 43
0.1
 10
96.2
 20
38.75
 10
99.2
 20
38.75
  0
LWPOLYLINE
  5
B8
100
AcDbEntity
  8
ASSEMBLY_OUTLINES_TOP
100
AcDbPolyline
 90
        2
 70
         0
 43
0.1
 10
96.2
 20
38.65
 10
99.2
 20
38.65
  0
LWPOLYLINE
  5
B9
100
AcDbEntity
  8
ASSEMBLY_OUTLINES_TOP
100
AcDbPolyline
 90
        2
 70
         0
 43
0.1
 10
96.2
 20
38.55
 10
99.2
 20
38.55
  0
LWPOLYLINE
  5
BA
100
AcDbEntity
  8
ASSEMBLY_OUTLINES_TOP
100
AcDbPolyline
 90
        2
 70
         0
 43
0.1
 10
96.2
 20
38.45
 10
99.2
 20
38.45
  0
LWPOLYLINE
  5
BB
100
AcDbEntity
  8
ASSEMBLY_OUTLINES_TOP
100
AcDbPolyline
 90
        2
 70
         0
 43
0.1
 10
96.2
 20
38.35
 10
99.2
 20
38.35
  0
LWPOLYLINE
  5
BC
100
AcDbEntity
  8
ASSEMBLY_OUTLINES_TOP
100
AcDbPolyline
 90
        2
 70
         0
 43
0.1
 10
96.2
 20
38.25
 10
99.2
 20
38.25
  0
LWPOLYLINE
  5
BD
100
AcDbEntity
  8
ASSEMBLY_OUTLINES_TOP
100
AcDbPolyline
 90
        2
 70
         0
 43
0.1
 10
96.2
 20
38.15
 10
99.2
 20
38.15
  0
LWPOLYLINE
  5
BE
100
AcDbEntity
  8
ASSEMBLY_OUTLINES_TOP
100
AcDbPolyline
 90
        4
 70
         1
 43
0.1
 10
96.2
 20
35.25
 10
96.2
 20
38.95
 10
99.2
 20
38.95
 10
99.2
 20
35.25
  0
LWPOLYLINE
  5
BF
100
AcDbEntity
  8
ASSEMBLY_OUTLINES_TOP
100
AcDbPolyline
 90
        4
 70
         1
 43
0.1
 10
43.33
 20
8.23
 10
43.33
 20
10.77
 10
48.41
 20
10.77
 10
48.41
 20
8.23
  0
LWPOLYLINE
  5
C0
100
AcDbEntity
  8
ASSEMBLY_OUTLINES_TOP
100
AcDbPolyline
 90
        2
 70
         1
 43
0.1
 10
12.6
 20
39.8
 42
-1.0
 10
17.6
 20
39.8
 42
-1.0
  0
LWPOLYLINE
  5
C1
100
AcDbEntity
  8
ASSEMBLY_OUTLINES_TOP
100
AcDbPolyline
 90
        4
 70
         1
 43
0.1
 10
75.39
 20
11.03
 10
75.39
 20
13.57
 10
85.39
 20
13.57
 10
85.39
 20
11.03
  0
LWPOLYLINE
  5
C2
100
AcDbEntity
  8
ASSEMBLY_OUTLINES_TOP
100
AcDbPolyline
 90
        4
 70
         1
 43
0.1
 10
4.248
 20
22.33
 10
4.248
 20
32.73
 10
13.898
 20
32.73
 10
13.898
 20
22.33
  0
LWPOLYLINE
  5
C3
100
AcDbEntity
  8
ASSEMBLY_OUTLINES_TOP
100
AcDbPolyline
 90
        4
 70
         1
 43
0.1
 10
73.62
 20
-3.0
 10
73.62
 20
11.0
 10
86.82
 20
11.0
 10
86.82
 20
-3.0
  0
LWPOLYLINE
  5
C4
100
AcDbEntity
  8
ASSEMBLY_OUTLINES_TOP
100
AcDbPolyline
 90
        2
 70
         0
 43
0.1
 10
108.95
 20
37.9
 10
108.95
 20
40.9
  0
LWPOLYLINE
  5
C5
100
AcDbEntity
  8
ASSEMBLY_OUTLINES_TOP
100
AcDbPolyline
 90
        2
 70
         0
 43
0.1
 10
109.05
 20
37.9
 10
109.05
 20
40.9
  0
LWPOLYLINE
  5
C6
100
AcDbEntity
  8
ASSEMBLY_OUTLINES_TOP
100
AcDbPolyline
 90
        2
 70
         0
 43
0.1
 10
109.15
 20
37.9
 10
109.15
 20
40.9
  0
LWPOLYLINE
  5
C7
100
AcDbEntity
  8
ASSEMBLY_OUTLINES_TOP
100
AcDbPolyline
 90
        2
 70
         0
 43
0.1
 10
109.25
 20
37.9
 10
109.25
 20
40.9
  0
LWPOLYLINE
  5
C8
100
AcDbEntity
  8
ASSEMBLY_OUTLINES_TOP
100
AcDbPolyline
 90
        2
 70
         0
 43
0.1
 10
109.35
 20
37.9
 10
109.35
 20
40.9
  0
LWPOLYLINE
  5
C9
100
AcDbEntity
  8
ASSEMBLY_OUTLINES_TOP
100
AcDbPolyline
 90
        2
 70
         0
 43
0.1
 10
109.45
 20
37.9
 10
109.45
 20
40.9
  0
LWPOLYLINE
  5
CA
100
AcDbEntity
  8
ASSEMBLY_OUTLINES_TOP
100
AcDbPolyline
 90
        2
 70
         0
 43
0.1
 10
109.55
 20
37.9
 10
109.55
 20
40.9
  0
LWPOLYLINE
  5
CB
100
AcDbEntity
  8
ASSEMBLY_OUTLINES_TOP
100
AcDbPolyline
 90
        2
 70
         0
 43
0.1
 10
109.65
 20
37.9
 10
109.65
 20
40.9
  0
LWPOLYLINE
  5
CC
100
AcDbEntity
  8
ASSEMBLY_OUTLINES_TOP
100
AcDbPolyline
 90
        4
 70
         1
 43
0.1
 10
108.85
 20
37.9
 10
108.85
 20
40.9
 10
112.55
 20
40.9
 10
112.55
 20
37.9
  0
LWPOLYLINE
  5
CD
100
AcDbEntity
  8
ASSEMBLY_OUTLINES_TOP
100
AcDbPolyline
 90
        6
 70
         1
 43
0.1
 10
15.71
 20
47.82
 10
17.36
 20
49.47
 10
22.31
 20
49.47
 10
22.31
 20
42.87
 10
17.36
 20
42.87
 10
15.71
 20
44.52
  0
LWPOLYLINE
  5
CE
100
AcDbEntity
  8
ASSEMBLY_OUTLINES_TOP
100
AcDbPolyline
 90
        4
 70
         1
 43
0.1
 10
63.79
 20
8.43
 10
63.79
 20
10.97
 10
68.87
 20
10.97
 10
68.87
 20
8.43
  0
LWPOLYLINE
  5
CF
100
AcDbEntity
  8
ASSEMBLY_OUTLINES_TOP
100
AcDbPolyline
 90
        5
 70
         1
 43
0.1
 10
17.4
 20
14.4
 10
17.4
 20
-18.6
 10
41.4
 20
-18.6
 10
41.4
 20
10.15
 10
36.9
 20
14.4
  0
LWPOLYLINE
  5
D0
100
AcDbEntity
  8
ASSEMBLY_OUTLINES_TOP
100
AcDbPolyline
 90
        4
 70
         1
 43
0.1
 10
14.3
 20
-0.1
 10
14.3
 20
16.45
 10
42.9
 20
16.45
 10
42.9
 20
-0.1
  0
LWPOLYLINE
  5
D1
100
AcDbEntity
  8
ASSEMBLY_OUTLINES_TOP
100
AcDbPolyline
 90
        4
 70
         1
 43
0.1
 10
120.65
 20
54.22
 10
120.65
 20
56.76
 10
125.73
 20
56.76
 10
125.73
 20
54.22
  0
LWPOLYLINE
  5
D2
100
AcDbEntity
  8
ASSEMBLY_OUTLINES_TOP
100
AcDbPolyline
 90
        4
 70
         1
 10
116.11
 20
-5.94
 10
116.11
 20
-0.04
 10
132.11
 20
-0.04
 10
132.11
 20
-5.94
  0
LWPOLYLINE
  5
D3
100
AcDbEntity
  8
ASSEMBLY_OUTLINES_TOP
100
AcDbPolyline
 90
        4
 70
         1
 43
0.1
 10
108.71
 20
-0.04
 10
108.71
 20
12.36
 10
139.51
 20
12.36
 10
139.51
 20
-0.04
  0
LWPOLYLINE
  5
D4
100
AcDbEntity
  8
ASSEMBLY_OUTLINES_TOP
100
AcDbPolyline
 90
        4
 70
         1
 43
0.1
 10
109.49
 20
41.55
 10
109.49
 20
53.65
 10
127.99
 20
53.65
 10
127.99
 20
41.55
  0
LWPOLYLINE
  5
D5
100
AcDbEntity
  8
ASSEMBLY_OUTLINES_TOP
100
AcDbPolyline
 90
        2
 70
         1
 43
0.1
 10
126.49
 20
42.55
 42
-1.0
 10
127.49
 20
42.55
 42
-1.0
  0
LWPOLYLINE
  5
D6
100
AcDbEntity
  8
ASSEMBLY_OUTLINES_TOP
100
AcDbPolyline
 90
        6
 70
         1
 43
0.1
 10
115.4
 20
39.15
 10
117.05
 20
40.8
 10
122.0
 20
40.8
 10
122.0
 20
34.2
 10
117.05
 20
34.2
 10
115.4
 20
35.85
  0
LWPOLYLINE
  5
D7
100
AcDbEntity
  8
ASSEMBLY_OUTLINES_TOP
100
AcDbPolyline
 90
        2
 70
         0
 10
73.8
 20
63.0
 10
67.8
 20
63.0
  0
LWPOLYLINE
  5
D8
100
AcDbEntity
  8
ASSEMBLY_OUTLINES_TOP
100
AcDbPolyline
 90
        2
 70
         0
 10
74.2
 20
63.0
 10
68.2
 20
63.0
  0
LWPOLYLINE
  5
D9
100
AcDbEntity
  8
ASSEMBLY_OUTLINES_TOP
100
AcDbPolyline
 90
        6
 70
         1
 43
0.1
 10
74.7
 20
66.8
 10
68.7
 20
66.8
 10
68.7
 20
63.0
 10
66.6
 20
63.0
 10
66.6
 20
48.8
 10
74.7
 20
48.8
  0
LWPOLYLINE
  5
DA
100
AcDbEntity
  8
ASSEMBLY_OUTLINES_TOP
100
AcDbPolyline
 90
        2
 70
         0
 43
0.1
 10
58.65
 20
37.7
 10
58.65
 20
34.7
  0
LWPOLYLINE
  5
DB
100
AcDbEntity
  8
ASSEMBLY_OUTLINES_TOP
100
AcDbPolyline
 90
        2
 70
         0
 43
0.1
 10
58.55
 20
37.7
 10
58.55
 20
34.7
  0
LWPOLYLINE
  5
DC
100
AcDbEntity
  8
ASSEMBLY_OUTLINES_TOP
100
AcDbPolyline
 90
        2
 70
         0
 43
0.1
 10
58.45
 20
37.7
 10
58.45
 20
34.7
  0
LWPOLYLINE
  5
DD
100
AcDbEntity
  8
ASSEMBLY_OUTLINES_TOP
100
AcDbPolyline
 90
        2
 70
         0
 43
0.1
 10
58.35
 20
37.7
 10
58.35
 20
34.7
  0
LWPOLYLINE
  5
DE
100
AcDbEntity
  8
ASSEMBLY_OUTLINES_TOP
100
AcDbPolyline
 90
        2
 70
         0
 43
0.1
 10
58.25
 20
37.7
 10
58.25
 20
34.7
  0
LWPOLYLINE
  5
DF
100
AcDbEntity
  8
ASSEMBLY_OUTLINES_TOP
100
AcDbPolyline
 90
        2
 70
         0
 43
0.1
 10
58.15
 20
37.7
 10
58.15
 20
34.7
  0
LWPOLYLINE
  5
E0
100
AcDbEntity
  8
ASSEMBLY_OUTLINES_TOP
100
AcDbPolyline
 90
        2
 70
         0
 43
0.1
 10
58.05
 20
37.7
 10
58.05
 20
34.7
  0
LWPOLYLINE
  5
E1
100
AcDbEntity
  8
ASSEMBLY_OUTLINES_TOP
100
AcDbPolyline
 90
        2
 70
         0
 43
0.1
 10
57.95
 20
37.7
 10
57.95
 20
34.7
  0
LWPOLYLINE
  5
E2
100
AcDbEntity
  8
ASSEMBLY_OUTLINES_TOP
100
AcDbPolyline
 90
        4
 70
         1
 43
0.1
 10
55.05
 20
34.7
 10
55.05
 20
37.7
 10
58.75
 20
37.7
 10
58.75
 20
34.7
  0
LWPOLYLINE
  5
E3
100
AcDbEntity
  8
ASSEMBLY_OUTLINES_TOP
100
AcDbPolyline
 90
        2
 70
         0
 43
0.1
 10
61.11
 20
28.77
 10
61.11
 20
21.27
  0
LWPOLYLINE
  5
E4
100
AcDbEntity
  8
ASSEMBLY_OUTLINES_TOP
100
AcDbPolyline
 90
        2
 70
         0
 43
0.1
 10
65.11
 20
28.77
 10
65.11
 20
21.27
  0
LWPOLYLINE
  5
E5
100
AcDbEntity
  8
ASSEMBLY_OUTLINES_TOP
100
AcDbPolyline
 90
        2
 70
         0
 43
0.1
 10
61.11
 20
21.27
 42
1.0
 10
65.11
 20
21.27
  0
LWPOLYLINE
  5
E6
100
AcDbEntity
  8
ASSEMBLY_OUTLINES_TOP
100
AcDbPolyline
 90
        2
 70
         0
 43
0.1
 10
65.11
 20
28.77
 42
1.0
 10
61.11
 20
28.77
  0
LWPOLYLINE
  5
E7
100
AcDbEntity
  8
ASSEMBLY_OUTLINES_TOP
100
AcDbPolyline
 90
        6
 70
         1
 43
0.1
 10
25.12
 20
28.47
 10
26.77
 20
26.82
 10
26.77
 20
21.87
 10
20.17
 20
21.87
 10
20.17
 20
26.82
 10
21.82
 20
28.47
  0
LWPOLYLINE
  5
E8
100
AcDbEntity
  8
ASSEMBLY_OUTLINES_TOP
100
AcDbPolyline
 90
        4
 70
         1
 43
0.1
 10
22.89
 20
47.63
 10
22.89
 20
50.17
 10
30.39
 20
50.17
 10
30.39
 20
47.63
  0
LWPOLYLINE
  5
E9
100
AcDbEntity
  8
ASSEMBLY_OUTLINES_TOP
100
AcDbPolyline
 90
        4
 70
         1
 43
0.1
 10
124.25
 20
14.1
 10
124.25
 20
39.6
 10
129.25
 20
39.6
 10
129.25
 20
14.1
  0
LWPOLYLINE
  5
EA
100
AcDbEntity
  8
ASSEMBLY_OUTLINES_TOP
100
AcDbPolyline
 90
        2
 70
         0
 43
0.1
 10
67.7
 20
41.63
 10
67.8
 20
41.73
  0
LWPOLYLINE
  5
EB
100
AcDbEntity
  8
ASSEMBLY_OUTLINES_TOP
100
AcDbPolyline
 90
        2
 70
         0
 43
0.1
 10
67.7
 20
41.53
 10
67.9
 20
41.73
  0
LWPOLYLINE
  5
EC
100
AcDbEntity
  8
ASSEMBLY_OUTLINES_TOP
100
AcDbPolyline
 90
        2
 70
         0
 43
0.1
 10
67.7
 20
41.43
 10
68.0
 20
41.73
  0
LWPOLYLINE
  5
ED
100
AcDbEntity
  8
ASSEMBLY_OUTLINES_TOP
100
AcDbPolyline
 90
        2
 70
         0
 43
0.1
 10
67.7
 20
41.33
 10
68.1
 20
41.73
  0
LWPOLYLINE
  5
EE
100
AcDbEntity
  8
ASSEMBLY_OUTLINES_TOP
100
AcDbPolyline
 90
        2
 70
         0
 43
0.1
 10
67.7
 20
41.23
 10
68.2
 20
41.73
  0
LWPOLYLINE
  5
EF
100
AcDbEntity
  8
ASSEMBLY_OUTLINES_TOP
100
AcDbPolyline
 90
        2
 70
         0
 43
0.1
 10
67.7
 20
41.13
 10
68.3
 20
41.73
  0
LWPOLYLINE
  5
F0
100
AcDbEntity
  8
ASSEMBLY_OUTLINES_TOP
100
AcDbPolyline
 90
        4
 70
         1
 43
0.1
 10
67.7
 20
26.73
 10
67.7
 20
41.73
 10
82.7
 20
41.73
 10
82.7
 20
26.73
  0
LWPOLYLINE
  5
F1
100
AcDbEntity
  8
ASSEMBLY_OUTLINES_TOP
100
AcDbPolyline
 90
        4
 70
         1
 43
0.1
 10
131.39
 20
50.63
 10
131.39
 20
53.17
 10
138.89
 20
53.17
 10
138.89
 20
50.63
  0
LWPOLYLINE
  5
F2
100
AcDbEntity
  8
ASSEMBLY_OUTLINES_TOP
100
AcDbPolyline
 90
        2
 70
         1
 43
0.1
 10
104.5
 20
29.7
 42
-1.0
 10
105.5
 20
29.7
 42
-1.0
  0
LWPOLYLINE
  5
F3
100
AcDbEntity
  8
ASSEMBLY_OUTLINES_TOP
100
AcDbPolyline
 90
        4
 70
         1
 43
0.1
 10
104.0
 20
28.7
 10
104.0
 20
35.7
 10
111.0
 20
35.7
 10
111.0
 20
28.7
  0
LWPOLYLINE
  5
F4
100
AcDbEntity
  8
ASSEMBLY_OUTLINES_TOP
100
AcDbPolyline
 90
        4
 70
         1
 43
0.1
 10
48.81
 20
-3.0
 10
48.81
 20
11.0
 10
62.01
 20
11.0
 10
62.01
 20
-3.0
  0
LWPOLYLINE
  5
F5
100
AcDbEntity
  8
ASSEMBLY_OUTLINES_TOP
100
AcDbPolyline
 90
        4
 70
         1
 43
0.1
 10
9.28
 20
57.82
 10
9.28
 20
62.82
 10
60.18
 20
62.82
 10
60.18
 20
57.82
  0
LWPOLYLINE
  5
F6
100
AcDbEntity
  8
ASSEMBLY_OUTLINES_TOP
100
AcDbPolyline
 90
        2
 70
         0
 43
0.1
 10
8.82
 20
20.16
 10
8.82
 20
16.36
  0
LWPOLYLINE
  5
F7
100
AcDbEntity
  8
ASSEMBLY_OUTLINES_TOP
100
AcDbPolyline
 90
        2
 70
         0
 43
0.1
 10
8.72
 20
20.16
 10
8.72
 20
16.36
  0
LWPOLYLINE
  5
F8
100
AcDbEntity
  8
ASSEMBLY_OUTLINES_TOP
100
AcDbPolyline
 90
        2
 70
         0
 43
0.1
 10
8.62
 20
20.16
 10
8.62
 20
16.36
  0
LWPOLYLINE
  5
F9
100
AcDbEntity
  8
ASSEMBLY_OUTLINES_TOP
100
AcDbPolyline
 90
        2
 70
         0
 43
0.1
 10
8.52
 20
20.16
 10
8.52
 20
16.36
  0
LWPOLYLINE
  5
FA
100
AcDbEntity
  8
ASSEMBLY_OUTLINES_TOP
100
AcDbPolyline
 90
        2
 70
         0
 43
0.1
 10
8.42
 20
20.16
 10
8.42
 20
16.36
  0
LWPOLYLINE
  5
FB
100
AcDbEntity
  8
ASSEMBLY_OUTLINES_TOP
100
AcDbPolyline
 90
        2
 70
         0
 43
0.1
 10
8.32
 20
20.16
 10
8.32
 20
16.36
  0
LWPOLYLINE
  5
FC
100
AcDbEntity
  8
ASSEMBLY_OUTLINES_TOP
100
AcDbPolyline
 90
        2
 70
         0
 43
0.1
 10
8.22
 20
20.16
 10
8.22
 20
16.36
  0
LWPOLYLINE
  5
FD
100
AcDbEntity
  8
ASSEMBLY_OUTLINES_TOP
100
AcDbPolyline
 90
        2
 70
         0
 43
0.1
 10
8.12
 20
20.16
 10
8.12
 20
16.36
  0
LWPOLYLINE
  5
FE
100
AcDbEntity
  8
ASSEMBLY_OUTLINES_TOP
100
AcDbPolyline
 90
        4
 70
         1
 43
0.1
 10
3.32
 20
16.36
 10
3.32
 20
20.16
 10
8.92
 20
20.16
 10
8.92
 20
16.36
  0
LWPOLYLINE
  5
FF
100
AcDbEntity
  8
ASSEMBLY_OUTLINES_TOP
100
AcDbPolyline
 90
        6
 70
         1
 43
0.1
 10
32.38
 20
28.5
 10
34.03
 20
26.85
 10
34.03
 20
21.9
 10
27.43
 20
21.9
 10
27.43
 20
26.85
 10
29.08
 20
28.5
  0
LWPOLYLINE
  5
100
100
AcDbEntity
  8
ASSEMBLY_OUTLINES_TOP
100
AcDbPolyline
 90
        4
 70
         1
 43
0.1
 10
92.38
 20
-3.0
 10
92.38
 20
22.4
 10
108.38
 20
22.4
 10
108.38
 20
-3.0
  0
TEXT
  5
102
100
AcDbEntity
  8
ASSEMBLY_REF_DES_TOP
100
AcDbText
 10
8.568
 20
36.8365
 30
0.0
 40
1.0
  1
DA2
  7
GOST_TYPE_B
 72
         1
 11
9.74
 21
37.33
 31
0.0
100
AcDbText
 73
         2
  0
TEXT
  5
103
100
AcDbEntity
  8
ASSEMBLY_REF_DES_TOP
100
AcDbText
 10
115.2495
 20
16.4565
 30
0.0
 40
1.0
  1
DA4
  7
GOST_TYPE_B
 72
         1
 11
116.47
 21
16.95
 31
0.0
100
AcDbText
 73
         2
  0
TEXT
  5
104
100
AcDbEntity
  8
ASSEMBLY_REF_DES_TOP
100
AcDbText
 10
12.228
 20
34.9065
 30
0.0
 40
1.0
  1
DA5
  7
GOST_TYPE_B
 72
         1
 11
13.4
 21
35.4
 31
0.0
100
AcDbText
 73
         2
  0
TEXT
  5
105
100
AcDbEntity
  8
ASSEMBLY_REF_DES_TOP
100
AcDbText
 10
5.265002
 20
7.999998
 30
0.0
 40
1.0
  1
X11
  7
GOST_TYPE_B
 72
         2
 11
7.120002
 21
7.999998
 31
0.0
100
AcDbText
 73
         1
  0
TEXT
  5
106
100
AcDbEntity
  8
ASSEMBLY_REF_DES_TOP
100
AcDbText
 10
85.0755
 20
33.4865
 30
0.0
 40
1.0
  1
R1
  7
GOST_TYPE_B
 72
         1
 11
85.71
 21
33.98
 31
0.0
100
AcDbText
 73
         2
  0
TEXT
  5
107
100
AcDbEntity
  8
ASSEMBLY_REF_DES_TOP
100
AcDbText
 10
29.2745
 20
6.7565
 30
0.0
 40
1.0
  1
X15
  7
GOST_TYPE_B
 72
         1
 11
30.3
 21
7.25
 31
0.0
100
AcDbText
 73
         2
  0
TEXT
  5
108
100
AcDbEntity
  8
ASSEMBLY_REF_DES_TOP
100
AcDbText
 10
57.744
 20
40.38
 30
0.0
 40
1.0
  1
ZQ1
  7
GOST_TYPE_B
 72
         2
 11
59.99
 21
40.38
 31
0.0
100
AcDbText
 73
         1
  0
TEXT
  5
109
100
AcDbEntity
  8
ASSEMBLY_REF_DES_TOP
100
AcDbText
 10
134.517
 20
33.97
 30
0.0
 40
1.0
  1
X7
  7
GOST_TYPE_B
 72
         2
 11
136.08
 21
33.97
 31
0.0
100
AcDbText
 73
         1
  0
TEXT
  5
10A
100
AcDbEntity
  8
ASSEMBLY_REF_DES_TOP
100
AcDbText
 10
133.656
 20
54.03
 30
0.0
 40
1.0
  1
J1
  7
GOST_TYPE_B
 72
         2
 11
134.73
 21
54.03
 31
0.0
100
AcDbText
 73
         1
  0
TEXT
  5
10B
100
AcDbEntity
  8
ASSEMBLY_REF_DES_TOP
100
AcDbText
 10
31.05
 20
39.063
 30
0.0
 40
1.0
  1
Bat1
  7
GOST_TYPE_B
 11
31.05
 21
40.05
 31
0.0
100
AcDbText
 73
         3
  0
TEXT
  5
10C
100
AcDbEntity
  8
ASSEMBLY_REF_DES_TOP
100
AcDbText
 10
34.957645
 20
52.714144
 30
0.0
 40
1.0
  1
X4
  7
GOST_TYPE_B
 72
         1
 11
35.787645
 21
53.207644
 31
0.0
100
AcDbText
 73
         2
  0
TEXT
  5
10D
100
AcDbEntity
  8
ASSEMBLY_REF_DES_TOP
100
AcDbText
 10
57.037
 20
47.45
 30
0.0
 40
1.0
  1
X5
  7
GOST_TYPE_B
 72
         2
 11
58.6
 21
47.45
 31
0.0
100
AcDbText
 73
         1
  0
TEXT
  5
10E
100
AcDbEntity
  8
ASSEMBLY_REF_DES_TOP
100
AcDbText
 10
44.93
 20
4.4
 30
0.0
 40
1.0
  1
J9
  7
GOST_TYPE_B
 72
         2
 11
46.2
 21
4.4
 31
0.0
100
AcDbText
 73
         1
  0
TEXT
  5
10F
100
AcDbEntity
  8
ASSEMBLY_REF_DES_TOP
100
AcDbText
 10
94.145
 20
46.7465
 30
0.0
 40
1.0
  1
DD1
  7
GOST_TYPE_B
 72
         1
 11
95.17
 21
47.24
 31
0.0
100
AcDbText
 73
         2
  0
TEXT
  5
110
100
AcDbEntity
  8
ASSEMBLY_REF_DES_TOP
100
AcDbText
 10
118.016
 20
29.4065
 30
0.0
 40
1.0
  1
C7
  7
GOST_TYPE_B
 72
         1
 11
118.7
 21
29.9
 31
0.0
100
AcDbText
 73
         2
  0
TEXT
  5
111
100
AcDbEntity
  8
ASSEMBLY_REF_DES_TOP
100
AcDbText
 10
89.3185
 20
32.5265
 30
0.0
 40
1.0
  1
DD4
  7
GOST_TYPE_B
 72
         1
 11
90.49
 21
33.02
 31
0.0
100
AcDbText
 73
         2
  0
TEXT
  5
112
100
AcDbEntity
  8
ASSEMBLY_REF_DES_TOP
100
AcDbText
 10
31.621235
 20
36.517765
 30
0.0
 40
1.0
  1
Bat2
  7
GOST_TYPE_B
 72
         1
 11
32.988735
 21
37.011265
 31
0.0
100
AcDbText
 73
         2
  0
TEXT
  5
113
100
AcDbEntity
  8
ASSEMBLY_REF_DES_TOP
100
AcDbText
 10
103.396145
 20
60.344144
 30
0.0
 40
1.0
  1
X2
  7
GOST_TYPE_B
 72
         1
 11
104.177645
 21
60.837644
 31
0.0
100
AcDbText
 73
         2
  0
TEXT
  5
114
100
AcDbEntity
  8
ASSEMBLY_REF_DES_TOP
100
AcDbText
 10
6.604
 20
52.5265
 30
0.0
 40
1.0
  1
C1
  7
GOST_TYPE_B
 72
         1
 11
7.19
 21
53.02
 31
0.0
100
AcDbText
 73
         2
  0
TEXT
  5
115
100
AcDbEntity
  8
ASSEMBLY_REF_DES_TOP
100
AcDbText
 10
17.4255
 20
34.5065
 30
0.0
 40
1.0
  1
C74
  7
GOST_TYPE_B
 72
         1
 11
18.5
 21
35.0
 31
0.0
100
AcDbText
 73
         2
  0
TEXT
  5
116
100
AcDbEntity
  8
ASSEMBLY_REF_DES_TOP
100
AcDbText
 10
36.787
 20
39.2
 30
0.0
 40
1.0
  1
X6
  7
GOST_TYPE_B
 72
         2
 11
38.35
 21
39.2
 31
0.0
100
AcDbText
 73
         1
  0
TEXT
  5
117
100
AcDbEntity
  8
ASSEMBLY_REF_DES_TOP
100
AcDbText
 10
102.379
 20
23.9565
 30
0.0
 40
1.0
  1
ZQ3
  7
GOST_TYPE_B
 72
         1
 11
103.6
 21
24.45
 31
0.0
100
AcDbText
 73
         2
  0
TEXT
  5
118
100
AcDbEntity
  8
ASSEMBLY_REF_DES_TOP
100
AcDbText
 10
7.226
 20
44.7965
 30
0.0
 40
1.0
  1
DA1
  7
GOST_TYPE_B
 72
         1
 11
8.3
 21
45.29
 31
0.0
100
AcDbText
 73
         2
  0
TEXT
  5
119
100
AcDbEntity
  8
ASSEMBLY_REF_DES_TOP
100
AcDbText
 10
48.24
 20
47.56
 30
0.0
 40
1.0
  1
J5
  7
GOST_TYPE_B
 72
         2
 11
49.51
 21
47.56
 31
0.0
100
AcDbText
 73
         1
  0
TEXT
  5
11A
100
AcDbEntity
  8
ASSEMBLY_REF_DES_TOP
100
AcDbText
 10
74.4905
 20
20.1965
 30
0.0
 40
1.0
  1
ZQ4
  7
GOST_TYPE_B
 72
         1
 11
75.76
 21
20.69
 31
0.0
100
AcDbText
 73
         2
  0
TEXT
  5
11B
100
AcDbEntity
  8
ASSEMBLY_REF_DES_TOP
100
AcDbText
 10
54.087
 20
24.7665
 30
0.0
 40
1.0
  1
DD6
  7
GOST_TYPE_B
 72
         1
 11
55.21
 21
25.26
 31
0.0
100
AcDbText
 73
         2
  0
TEXT
  5
11C
100
AcDbEntity
  8
ASSEMBLY_REF_DES_TOP
100
AcDbText
 10
21.8135
 20
32.5065
 30
0.0
 40
1.0
  1
HL1
  7
GOST_TYPE_B
 72
         1
 11
22.79
 21
33.0
 31
0.0
100
AcDbText
 73
         2
  0
TEXT
  5
11D
100
AcDbEntity
  8
ASSEMBLY_REF_DES_TOP
100
AcDbText
 10
66.75
 20
2.95
 30
0.0
 40
1.0
  1
J7
  7
GOST_TYPE_B
 72
         2
 11
68.02
 21
2.95
 31
0.0
100
AcDbText
 73
         1
  0
TEXT
  5
11E
100
AcDbEntity
  8
ASSEMBLY_REF_DES_TOP
100
AcDbText
 10
85.696
 20
16.47
 30
0.0
 40
1.0
  1
SW1
  7
GOST_TYPE_B
 72
         2
 11
88.04
 21
16.47
 31
0.0
100
AcDbText
 73
         1
  0
TEXT
  5
11F
100
AcDbEntity
  8
ASSEMBLY_REF_DES_TOP
100
AcDbText
 10
96.9675
 20
36.6065
 30
0.0
 40
1.0
  1
C4
  7
GOST_TYPE_B
 72
         1
 11
97.7
 21
37.1
 31
0.0
100
AcDbText
 73
         2
  0
TEXT
  5
120
100
AcDbEntity
  8
ASSEMBLY_REF_DES_TOP
100
AcDbText
 10
45.233
 20
9.0
 30
0.0
 40
1.0
  1
J8
  7
GOST_TYPE_B
 72
         2
 11
46.6
 21
9.0
 31
0.0
100
AcDbText
 73
         1
  0
TEXT
  5
121
100
AcDbEntity
  8
ASSEMBLY_REF_DES_TOP
100
AcDbText
 10
14.528
 20
39.3
 30
0.0
 40
1.0
  1
L1
  7
GOST_TYPE_B
 72
         2
 11
15.7
 21
39.3
 31
0.0
100
AcDbText
 73
         1
  0
TEXT
  5
122
100
AcDbEntity
  8
ASSEMBLY_REF_DES_TOP
100
AcDbText
 10
79.202
 20
11.85
 30
0.0
 40
1.0
  1
X14
  7
GOST_TYPE_B
 72
         2
 11
81.35
 21
11.85
 31
0.0
100
AcDbText
 73
         1
  0
TEXT
  5
123
100
AcDbEntity
  8
ASSEMBLY_REF_DES_TOP
100
AcDbText
 10
9.858
 20
27.0365
 30
0.0
 40
1.0
  1
DA3
  7
GOST_TYPE_B
 72
         1
 11
11.03
 21
27.53
 31
0.0
100
AcDbText
 73
         2
  0
TEXT
  5
124
100
AcDbEntity
  8
ASSEMBLY_REF_DES_TOP
100
AcDbText
 10
78.879
 20
6.96
 30
0.0
 40
1.0
  1
X13
  7
GOST_TYPE_B
 72
         2
 11
80.93
 21
6.96
 31
0.0
100
AcDbText
 73
         1
  0
TEXT
  5
125
100
AcDbEntity
  8
ASSEMBLY_REF_DES_TOP
100
AcDbText
 10
110.016
 20
38.9065
 30
0.0
 40
1.0
  1
C3
  7
GOST_TYPE_B
 72
         1
 11
110.7
 21
39.4
 31
0.0
100
AcDbText
 73
         2
  0
TEXT
  5
126
100
AcDbEntity
  8
ASSEMBLY_REF_DES_TOP
100
AcDbText
 10
18.326
 20
45.6765
 30
0.0
 40
1.0
  1
C2
  7
GOST_TYPE_B
 72
         1
 11
19.01
 21
46.17
 31
0.0
100
AcDbText
 73
         2
  0
TEXT
  5
127
100
AcDbEntity
  8
ASSEMBLY_REF_DES_TOP
100
AcDbText
 10
65.75
 20
9.15
 30
0.0
 40
1.0
  1
J6
  7
GOST_TYPE_B
 72
         2
 11
67.02
 21
9.15
 31
0.0
100
AcDbText
 73
         1
  0
TEXT
  5
128
100
AcDbEntity
  8
ASSEMBLY_REF_DES_TOP
100
AcDbText
 10
26.642
 20
9.45
 30
0.0
 40
1.0
  1
X9
  7
GOST_TYPE_B
 72
         2
 11
28.205
 21
9.45
 31
0.0
100
AcDbText
 73
         1
  0
TEXT
  5
129
100
AcDbEntity
  8
ASSEMBLY_REF_DES_TOP
100
AcDbText
 10
122.55
 20
55.0
 30
0.0
 40
1.0
  1
J2
  7
GOST_TYPE_B
 72
         2
 11
123.82
 21
55.0
 31
0.0
100
AcDbText
 73
         1
  0
TEXT
  5
12A
100
AcDbEntity
  8
ASSEMBLY_REF_DES_TOP
100
AcDbText
 10
122.989
 20
5.91
 30
0.0
 40
1.0
  1
X10
  7
GOST_TYPE_B
 72
         2
 11
125.04
 21
5.91
 31
0.0
100
AcDbText
 73
         1
  0
TEXT
  5
12B
100
AcDbEntity
  8
ASSEMBLY_REF_DES_TOP
100
AcDbText
 10
117.617
 20
47.1065
 30
0.0
 40
1.0
  1
DD2
  7
GOST_TYPE_B
 72
         1
 11
118.74
 21
47.6
 31
0.0
100
AcDbText
 73
         2
  0
TEXT
  5
12C
100
AcDbEntity
  8
ASSEMBLY_REF_DES_TOP
100
AcDbText
 10
118.016
 20
37.0065
 30
0.0
 40
1.0
  1
C5
  7
GOST_TYPE_B
 72
         1
 11
118.7
 21
37.5
 31
0.0
100
AcDbText
 73
         2
  0
TEXT
  5
12D
100
AcDbEntity
  8
ASSEMBLY_REF_DES_TOP
100
AcDbText
 10
67.937
 20
52.5
 30
0.0
 40
1.0
  1
X3
  7
GOST_TYPE_B
 72
         2
 11
69.5
 21
52.5
 31
0.0
100
AcDbText
 73
         1
  0
TEXT
  5
12E
100
AcDbEntity
  8
ASSEMBLY_REF_DES_TOP
100
AcDbText
 10
56.216
 20
35.7065
 30
0.0
 40
1.0
  1
C6
  7
GOST_TYPE_B
 72
         1
 11
56.9
 21
36.2
 31
0.0
100
AcDbText
 73
         2
  0
TEXT
  5
12F
100
AcDbEntity
  8
ASSEMBLY_REF_DES_TOP
100
AcDbText
 10
62.139
 20
24.5265
 30
0.0
 40
1.0
  1
ZQ2
  7
GOST_TYPE_B
 72
         1
 11
63.36
 21
25.02
 31
0.0
100
AcDbText
 73
         2
  0
TEXT
  5
130
100
AcDbEntity
  8
ASSEMBLY_REF_DES_TOP
100
AcDbText
 10
22.7375
 20
24.6765
 30
0.0
 40
1.0
  1
C8
  7
GOST_TYPE_B
 72
         1
 11
23.47
 21
25.17
 31
0.0
100
AcDbText
 73
         2
  0
TEXT
  5
131
100
AcDbEntity
  8
ASSEMBLY_REF_DES_TOP
100
AcDbText
 10
25.963
 20
48.45
 30
0.0
 40
1.0
  1
J4
  7
GOST_TYPE_B
 72
         2
 11
27.33
 21
48.45
 31
0.0
100
AcDbText
 73
         1
  0
TEXT
  5
132
100
AcDbEntity
  8
ASSEMBLY_REF_DES_TOP
100
AcDbText
 10
126.017644
 20
26.248855
 30
0.0
 40
1.0
  1
X8
  7
GOST_TYPE_B
 72
         1
 11
126.847644
 21
26.742355
 31
0.0
100
AcDbText
 73
         2
  0
TEXT
  5
133
100
AcDbEntity
  8
ASSEMBLY_REF_DES_TOP
100
AcDbText
 10
74.077
 20
33.7365
 30
0.0
 40
1.0
  1
DD3
  7
GOST_TYPE_B
 72
         1
 11
75.2
 21
34.23
 31
0.0
100
AcDbText
 73
         2
  0
TEXT
  5
134
100
AcDbEntity
  8
ASSEMBLY_REF_DES_TOP
100
AcDbText
 10
134.31
 20
51.4
 30
0.0
 40
1.0
  1
J3
  7
GOST_TYPE_B
 72
         2
 11
135.58
 21
51.4
 31
0.0
100
AcDbText
 73
         1
  0
TEXT
  5
135
100
AcDbEntity
  8
ASSEMBLY_REF_DES_TOP
100
AcDbText
 10
106.377
 20
31.7065
 30
0.0
 40
1.0
  1
DD5
  7
GOST_TYPE_B
 72
         1
 11
107.5
 21
32.2
 31
0.0
100
AcDbText
 73
         2
  0
TEXT
  5
136
100
AcDbEntity
  8
ASSEMBLY_REF_DES_TOP
100
AcDbText
 10
53.869
 20
6.47
 30
0.0
 40
1.0
  1
X12
  7
GOST_TYPE_B
 72
         2
 11
55.92
 21
6.47
 31
0.0
100
AcDbText
 73
         1
  0
TEXT
  5
137
100
AcDbEntity
  8
ASSEMBLY_REF_DES_TOP
100
AcDbText
 10
34.254145
 20
59.824144
 30
0.0
 40
1.0
  1
X1
  7
GOST_TYPE_B
 72
         1
 11
34.937645
 21
60.317644
 31
0.0
100
AcDbText
 73
         2
  0
TEXT
  5
138
100
AcDbEntity
  8
ASSEMBLY_REF_DES_TOP
100
AcDbText
 10
5.046
 20
17.7665
 30
0.0
 40
1.0
  1
VD1
  7
GOST_TYPE_B
 72
         1
 11
6.12
 21
18.26
 31
0.0
100
AcDbText
 73
         2
  0
TEXT
  5
139
100
AcDbEntity
  8
ASSEMBLY_REF_DES_TOP
100
AcDbText
 10
30.046
 20
24.7065
 30
0.0
 40
1.0
  1
C9
  7
GOST_TYPE_B
 72
         1
 11
30.73
 21
25.2
 31
0.0
100
AcDbText
 73
         2
  0
TEXT
  5
13A
100
AcDbEntity
  8
ASSEMBLY_REF_DES_TOP
100
AcDbText
 10
99.4955
 20
11.1565
 30
0.0
 40
1.0
  1
T1
  7
GOST_TYPE_B
 72
         1
 11
100.13
 21
11.65
 31
0.0
100
AcDbText
 73
         2
  0
LWPOLYLINE
  5
13B
100
AcDbEntity
  8
BOARD_OUTLINE
100
AcDbPolyline
 90
        4
 70
         1
 43
0.25
 10
2.0
 20
0.0
 10
2.0
 20
63.5
 10
139.5
 20
63.5
 10
139.5
 20
0.0
  0
CIRCLE
  5
13C
100
AcDbEntity
  8
MOUNTING_HOLES_LAYER_TOP
100
AcDbCircle
 10
135.5
 20
59.5
 30
0.0
 40
2.25
  0
HATCH
  5
13D
100
AcDbEntity
  8
MOUNTING_HOLES_LAYER_TOP
100
AcDbHatch
 10
0.0
 20
0.0
 30
0.0
210
0.0
220
0.0
230
1.0
  2
SOLID
 70
         1
 71
         1
 91
        1
 92
        1
 93
        1
 72
         2
 10
135.5
 20
59.5
 40
2.25
 50
0.0
 51
360.0
 73
         1
 97
        1
330
13C
 75
         0
 76
         1
 98
        1
 10
0.0
 20
0.0
  0
CIRCLE
  5
13E
100
AcDbEntity
  8
MOUNTING_HOLES_LAYER_TOP
100
AcDbCircle
 10
6.0
 20
59.5
 30
0.0
 40
2.25
  0
HATCH
  5
13F
100
AcDbEntity
  8
MOUNTING_HOLES_LAYER_TOP
100
AcDbHatch
 10
0.0
 20
0.0
 30
0.0
210
0.0
220
0.0
230
1.0
  2
SOLID
 70
         1
 71
         1
 91
        1
 92
        1
 93
        1
 72
         2
 10
6.0
 20
59.5
 40
2.25
 50
0.0
 51
360.0
 73
         1
 97
        1
330
13E
 75
         0
 76
         1
 98
        1
 10
0.0
 20
0.0
  0
CIRCLE
  5
140
100
AcDbEntity
  8
MOUNTING_HOLES_LAYER_TOP
100
AcDbCircle
 10
11.0
 20
15.0
 30
0.0
 40
2.25
  0
HATCH
  5
141
100
AcDbEntity
  8
MOUNTING_HOLES_LAYER_TOP
100
AcDbHatch
 10
0.0
 20
0.0
 30
0.0
210
0.0
220
0.0
230
1.0
  2
SOLID
 70
         1
 71
         1
 91
        1
 92
        1
 93
        1
 72
         2
 10
11.0
 20
15.0
 40
2.25
 50
0.0
 51
360.0
 73
         1
 97
        1
330
140
 75
         0
 76
         1
 98
        1
 10
0.0
 20
0.0
  0
CIRCLE
  5
142
100
AcDbEntity
  8
MOUNTING_HOLES_LAYER_TOP
100
AcDbCircle
 10
135.5
 20
15.0
 30
0.0
 40
2.25
  0
HATCH
  5
143
100
AcDbEntity
  8
MOUNTING_HOLES_LAYER_TOP
100
AcDbHatch
 10
0.0
 20
0.0
 30
0.0
210
0.0
220
0.0
230
1.0
  2
SOLID
 70
         1
 71
         1
 91
        1
 92
        1
 93
        1
 72
         2
 10
135.5
 20
15.0
 40
2.25
 50
0.0
 51
360.0
 73
         1
 97
        1
330
142
 75
         0
 76
         1
 98
        1
 10
0.0
 20
0.0
  0
CIRCLE
  5
144
100
AcDbEntity
  8
MOUNTING_HOLES_LAYER_TOP
100
AcDbCircle
 10
5.0
 20
37.3
 30
0.0
 40
1.25
  0
HATCH
  5
145
100
AcDbEntity
  8
MOUNTING_HOLES_LAYER_TOP
100
AcDbHatch
 10
0.0
 20
0.0
 30
0.0
210
0.0
220
0.0
230
1.0
  2
SOLID
 70
         1
 71
         1
 91
        1
 92
        1
 93
        1
 72
         2
 10
5.0
 20
37.299999999999997
 40
1.25
 50
0.0
 51
360.0
 73
         1
 97
        1
330
144
 75
         0
 76
         1
 98
        1
 10
0.0
 20
0.0
  0
CIRCLE
  5
146
100
AcDbEntity
  8
MOUNTING_HOLES_LAYER_TOP
100
AcDbCircle
 10
63.5
 20
59.5
 30
0.0
 40
2.25
  0
HATCH
  5
147
100
AcDbEntity
  8
MOUNTING_HOLES_LAYER_TOP
100
AcDbHatch
 10
0.0
 20
0.0
 30
0.0
210
0.0
220
0.0
230
1.0
  2
SOLID
 70
         1
 71
         1
 91
        1
 92
        1
 93
        1
 72
         2
 10
63.5
 20
59.5
 40
2.25
 50
0.0
 51
360.0
 73
         1
 97
        1
330
146
 75
         0
 76
         1
 98
        1
 10
0.0
 20
0.0
  0
CIRCLE
  5
148
100
AcDbEntity
  8
MOUNTING_HOLES_LAYER_TOP
100
AcDbCircle
 10
25.3
 20
9.5
 30
0.0
 40
0.75
  0
HATCH
  5
149
100
AcDbEntity
  8
MOUNTING_HOLES_LAYER_TOP
100
AcDbHatch
 10
0.0
 20
0.0
 30
0.0
210
0.0
220
0.0
230
1.0
  2
SOLID
 70
         1
 71
         1
 91
        1
 92
        1
 93
        1
 72
         2
 10
25.300000000000001
 20
9.5
 40
0.75
 50
0.0
 51
360.0
 73
         1
 97
        1
330
148
 75
         0
 76
         1
 98
        1
 10
0.0
 20
0.0
  0
CIRCLE
  5
14A
100
AcDbEntity
  8
MOUNTING_HOLES_LAYER_TOP
100
AcDbCircle
 10
35.3
 20
9.5
 30
0.0
 40
0.75
  0
HATCH
  5
14B
100
AcDbEntity
  8
MOUNTING_HOLES_LAYER_TOP
100
AcDbHatch
 10
0.0
 20
0.0
 30
0.0
210
0.0
220
0.0
230
1.0
  2
SOLID
 70
         1
 71
         1
 91
        1
 92
        1
 93
        1
 72
         2
 10
35.299999999999997
 20
9.5
 40
0.75
 50
0.0
 51
360.0
 73
         1
 97
        1
330
14A
 75
         0
 76
         1
 98
        1
 10
0.0
 20
0.0
  0
CIRCLE
  5
14C
100
AcDbEntity
  8
MOUNTING_HOLES_LAYER_TOP
100
AcDbCircle
 10
29.75
 20
39.9
 30
0.0
 40
0.75
  0
HATCH
  5
14D
100
AcDbEntity
  8
MOUNTING_HOLES_LAYER_TOP
100
AcDbHatch
 10
0.0
 20
0.0
 30
0.0
210
0.0
220
0.0
230
1.0
  2
SOLID
 70
         1
 71
         1
 91
        1
 92
        1
 93
        1
 72
         2
 10
29.75
 20
39.899999999999999
 40
0.75
 50
0.0
 51
360.0
 73
         1
 97
        1
330
14C
 75
         0
 76
         1
 98
        1
 10
0.0
 20
0.0
  0
CIRCLE
  5
14E
100
AcDbEntity
  8
MOUNTING_HOLES_LAYER_TOP
100
AcDbCircle
 10
37.25
 20
39.9
 30
0.0
 40
0.75
  0
HATCH
  5
14F
100
AcDbEntity
  8
MOUNTING_HOLES_LAYER_TOP
100
AcDbHatch
 10
0.0
 20
0.0
 30
0.0
210
0.0
220
0.0
230
1.0
  2
SOLID
 70
         1
 71
         1
 91
        1
 92
        1
 93
        1
 72
         2
 10
37.25
 20
39.899999999999999
 40
0.75
 50
0.0
 51
360.0
 73
         1
 97
        1
330
14E
 75
         0
 76
         1
 98
        1
 10
0.0
 20
0.0
  0
CIRCLE
  5
150
100
AcDbEntity
  8
MOUNTING_HOLES_LAYER_TOP
100
AcDbCircle
 10
41.35
 20
14.8
 30
0.0
 40
0.85
  0
HATCH
  5
151
100
AcDbEntity
  8
MOUNTING_HOLES_LAYER_TOP
100
AcDbHatch
 10
0.0
 20
0.0
 30
0.0
210
0.0
220
0.0
230
1.0
  2
SOLID
 70
         1
 71
         1
 91
        1
 92
        1
 93
        1
 72
         2
 10
41.350000000000001
 20
14.800000000000001
 40
0.85
 50
0.0
 51
360.0
 73
         1
 97
        1
330
150
 75
         0
 76
         1
 98
        1
 10
0.0
 20
0.0
  0
CIRCLE
  5
152
100
AcDbEntity
  8
MOUNTING_HOLES_LAYER_TOP
100
AcDbCircle
 10
16.05
 20
14.8
 30
0.0
 40
0.85
  0
HATCH
  5
153
100
AcDbEntity
  8
MOUNTING_HOLES_LAYER_TOP
100
AcDbHatch
 10
0.0
 20
0.0
 30
0.0
210
0.0
220
0.0
230
1.0
  2
SOLID
 70
         1
 71
         1
 91
        1
 92
        1
 93
        1
 72
         2
 10
16.050000000000001
 20
14.800000000000001
 40
0.85
 50
0.0
 51
360.0
 73
         1
 97
        1
330
152
 75
         0
 76
         1
 98
        1
 10
0.0
 20
0.0
  0
CIRCLE
  5
154
100
AcDbEntity
  8
PART_HOLES_LAYER_TOP
100
AcDbCircle
 10
6.670002
 20
4.7
 30
0.0
 40
1.4
  0
HATCH
  5
155
100
AcDbEntity
  8
PART_HOLES_LAYER_TOP
100
AcDbHatch
 10
0.0
 20
0.0
 30
0.0
210
0.0
220
0.0
230
1.0
  2
SOLID
 70
         1
 71
         1
 91
        1
 92
        1
 93
        1
 72
         2
 10
6.6700020000000002
 20
4.7000000000000002
 40
1.3999999999999999
 50
0.0
 51
360.0
 73
         1
 97
        1
330
154
 75
         0
 76
         1
 98
        1
 10
0.0
 20
0.0
  0
CIRCLE
  5
156
100
AcDbEntity
  8
PART_HOLES_LAYER_TOP
100
AcDbCircle
 10
11.370002
 20
7.699998
 30
0.0
 40
1.4
  0
HATCH
  5
157
100
AcDbEntity
  8
PART_HOLES_LAYER_TOP
100
AcDbHatch
 10
0.0
 20
0.0
 30
0.0
210
0.0
220
0.0
230
1.0
  2
SOLID
 70
         1
 71
         1
 91
        1
 92
        1
 93
        1
 72
         2
 10
11.370001999999999
 20
7.6999979999999999
 40
1.3999999999999999
 50
0.0
 51
360.0
 73
         1
 97
        1
330
156
 75
         0
 76
         1
 98
        1
 10
0.0
 20
0.0
  0
CIRCLE
  5
158
100
AcDbEntity
  8
PART_HOLES_LAYER_TOP
100
AcDbCircle
 10
6.670002
 20
10.9
 30
0.0
 40
1.4
  0
HATCH
  5
159
100
AcDbEntity
  8
PART_HOLES_LAYER_TOP
100
AcDbHatch
 10
0.0
 20
0.0
 30
0.0
210
0.0
220
0.0
230
1.0
  2
SOLID
 70
         1
 71
         1
 91
        1
 92
        1
 93
        1
 72
         2
 10
6.6700020000000002
 20
10.9
 40
1.3999999999999999
 50
0.0
 51
360.0
 73
         1
 97
        1
330
158
 75
         0
 76
         1
 98
        1
 10
0.0
 20
0.0
  0
CIRCLE
  5
15A
100
AcDbEntity
  8
PART_HOLES_LAYER_TOP
100
AcDbCircle
 10
58.86
 20
39.539998
 30
0.0
 40
0.45
  0
HATCH
  5
15B
100
AcDbEntity
  8
PART_HOLES_LAYER_TOP
100
AcDbHatch
 10
0.0
 20
0.0
 30
0.0
210
0.0
220
0.0
230
1.0
  2
SOLID
 70
         1
 71
         1
 91
        1
 92
        1
 93
        1
 72
         2
 10
58.859999999999999
 20
39.539997999999997
 40
0.45
 50
0.0
 51
360.0
 73
         1
 97
        1
330
15A
 75
         0
 76
         1
 98
        1
 10
0.0
 20
0.0
  0
CIRCLE
  5
15C
100
AcDbEntity
  8
PART_HOLES_LAYER_TOP
100
AcDbCircle
 10
58.86
 20
42.08
 30
0.0
 40
0.45
  0
HATCH
  5
15D
100
AcDbEntity
  8
PART_HOLES_LAYER_TOP
100
AcDbHatch
 10
0.0
 20
0.0
 30
0.0
210
0.0
220
0.0
230
1.0
  2
SOLID
 70
         1
 71
         1
 91
        1
 92
        1
 93
        1
 72
         2
 10
58.859999999999999
 20
42.079999999999998
 40
0.45
 50
0.0
 51
360.0
 73
         1
 97
        1
330
15C
 75
         0
 76
         1
 98
        1
 10
0.0
 20
0.0
  0
CIRCLE
  5
15E
100
AcDbEntity
  8
PART_HOLES_LAYER_TOP
100
AcDbCircle
 10
133.7
 20
45.31
 30
0.0
 40
0.45
  0
HATCH
  5
15F
100
AcDbEntity
  8
PART_HOLES_LAYER_TOP
100
AcDbHatch
 10
0.0
 20
0.0
 30
0.0
210
0.0
220
0.0
230
1.0
  2
SOLID
 70
         1
 71
         1
 91
        1
 92
        1
 93
        1
 72
         2
 10
133.69999999999999
 20
45.310000000000002
 40
0.45
 50
0.0
 51
360.0
 73
         1
 97
        1
330
15E
 75
         0
 76
         1
 98
        1
 10
0.0
 20
0.0
  0
CIRCLE
  5
160
100
AcDbEntity
  8
PART_HOLES_LAYER_TOP
100
AcDbCircle
 10
136.24
 20
45.31
 30
0.0
 40
0.45
  0
HATCH
  5
161
100
AcDbEntity
  8
PART_HOLES_LAYER_TOP
100
AcDbHatch
 10
0.0
 20
0.0
 30
0.0
210
0.0
220
0.0
230
1.0
  2
SOLID
 70
         1
 71
         1
 91
        1
 92
        1
 93
        1
 72
         2
 10
136.24000000000001
 20
45.310000000000002
 40
0.45
 50
0.0
 51
360.0
 73
         1
 97
        1
330
160
 75
         0
 76
         1
 98
        1
 10
0.0
 20
0.0
  0
CIRCLE
  5
162
100
AcDbEntity
  8
PART_HOLES_LAYER_TOP
100
AcDbCircle
 10
136.24
 20
42.77
 30
0.0
 40
0.45
  0
HATCH
  5
163
100
AcDbEntity
  8
PART_HOLES_LAYER_TOP
100
AcDbHatch
 10
0.0
 20
0.0
 30
0.0
210
0.0
220
0.0
230
1.0
  2
SOLID
 70
         1
 71
         1
 91
        1
 92
        1
 93
        1
 72
         2
 10
136.24000000000001
 20
42.770000000000003
 40
0.45
 50
0.0
 51
360.0
 73
         1
 97
        1
330
162
 75
         0
 76
         1
 98
        1
 10
0.0
 20
0.0
  0
CIRCLE
  5
164
100
AcDbEntity
  8
PART_HOLES_LAYER_TOP
100
AcDbCircle
 10
136.24
 20
35.15
 30
0.0
 40
0.45
  0
HATCH
  5
165
100
AcDbEntity
  8
PART_HOLES_LAYER_TOP
100
AcDbHatch
 10
0.0
 20
0.0
 30
0.0
210
0.0
220
0.0
230
1.0
  2
SOLID
 70
         1
 71
         1
 91
        1
 92
        1
 93
        1
 72
         2
 10
136.24000000000001
 20
35.149999999999999
 40
0.45
 50
0.0
 51
360.0
 73
         1
 97
        1
330
164
 75
         0
 76
         1
 98
        1
 10
0.0
 20
0.0
  0
CIRCLE
  5
166
100
AcDbEntity
  8
PART_HOLES_LAYER_TOP
100
AcDbCircle
 10
136.24
 20
32.61
 30
0.0
 40
0.45
  0
HATCH
  5
167
100
AcDbEntity
  8
PART_HOLES_LAYER_TOP
100
AcDbHatch
 10
0.0
 20
0.0
 30
0.0
210
0.0
220
0.0
230
1.0
  2
SOLID
 70
         1
 71
         1
 91
        1
 92
        1
 93
        1
 72
         2
 10
136.24000000000001
 20
32.609999999999999
 40
0.45
 50
0.0
 51
360.0
 73
         1
 97
        1
330
166
 75
         0
 76
         1
 98
        1
 10
0.0
 20
0.0
  0
CIRCLE
  5
168
100
AcDbEntity
  8
PART_HOLES_LAYER_TOP
100
AcDbCircle
 10
136.24
 20
30.07
 30
0.0
 40
0.45
  0
HATCH
  5
169
100
AcDbEntity
  8
PART_HOLES_LAYER_TOP
100
AcDbHatch
 10
0.0
 20
0.0
 30
0.0
210
0.0
220
0.0
230
1.0
  2
SOLID
 70
         1
 71
         1
 91
        1
 92
        1
 93
        1
 72
         2
 10
136.24000000000001
 20
30.07
 40
0.45
 50
0.0
 51
360.0
 73
         1
 97
        1
330
168
 75
         0
 76
         1
 98
        1
 10
0.0
 20
0.0
  0
CIRCLE
  5
16A
100
AcDbEntity
  8
PART_HOLES_LAYER_TOP
100
AcDbCircle
 10
136.24
 20
27.53
 30
0.0
 40
0.45
  0
HATCH
  5
16B
100
AcDbEntity
  8
PART_HOLES_LAYER_TOP
100
AcDbHatch
 10
0.0
 20
0.0
 30
0.0
210
0.0
220
0.0
230
1.0
  2
SOLID
 70
         1
 71
         1
 91
        1
 92
        1
 93
        1
 72
         2
 10
136.24000000000001
 20
27.530000000000001
 40
0.45
 50
0.0
 51
360.0
 73
         1
 97
        1
330
16A
 75
         0
 76
         1
 98
        1
 10
0.0
 20
0.0
  0
CIRCLE
  5
16C
100
AcDbEntity
  8
PART_HOLES_LAYER_TOP
100
AcDbCircle
 10
133.7
 20
24.99
 30
0.0
 40
0.45
  0
HATCH
  5
16D
100
AcDbEntity
  8
PART_HOLES_LAYER_TOP
100
AcDbHatch
 10
0.0
 20
0.0
 30
0.0
210
0.0
220
0.0
230
1.0
  2
SOLID
 70
         1
 71
         1
 91
        1
 92
        1
 93
        1
 72
         2
 10
133.69999999999999
 20
24.989999999999998
 40
0.45
 50
0.0
 51
360.0
 73
         1
 97
        1
330
16C
 75
         0
 76
         1
 98
        1
 10
0.0
 20
0.0
  0
CIRCLE
  5
16E
100
AcDbEntity
  8
PART_HOLES_LAYER_TOP
100
AcDbCircle
 10
136.24
 20
24.99
 30
0.0
 40
0.45
  0
HATCH
  5
16F
100
AcDbEntity
  8
PART_HOLES_LAYER_TOP
100
AcDbHatch
 10
0.0
 20
0.0
 30
0.0
210
0.0
220
0.0
230
1.0
  2
SOLID
 70
         1
 71
         1
 91
        1
 92
        1
 93
        1
 72
         2
 10
136.24000000000001
 20
24.989999999999998
 40
0.45
 50
0.0
 51
360.0
 73
         1
 97
        1
330
16E
 75
         0
 76
         1
 98
        1
 10
0.0
 20
0.0
  0
CIRCLE
  5
170
100
AcDbEntity
  8
PART_HOLES_LAYER_TOP
100
AcDbCircle
 10
133.7
 20
22.45
 30
0.0
 40
0.45
  0
HATCH
  5
171
100
AcDbEntity
  8
PART_HOLES_LAYER_TOP
100
AcDbHatch
 10
0.0
 20
0.0
 30
0.0
210
0.0
220
0.0
230
1.0
  2
SOLID
 70
         1
 71
         1
 91
        1
 92
        1
 93
        1
 72
         2
 10
133.69999999999999
 20
22.449999999999999
 40
0.45
 50
0.0
 51
360.0
 73
         1
 97
        1
330
170
 75
         0
 76
         1
 98
        1
 10
0.0
 20
0.0
  0
CIRCLE
  5
172
100
AcDbEntity
  8
PART_HOLES_LAYER_TOP
100
AcDbCircle
 10
136.24
 20
22.45
 30
0.0
 40
0.45
  0
HATCH
  5
173
100
AcDbEntity
  8
PART_HOLES_LAYER_TOP
100
AcDbHatch
 10
0.0
 20
0.0
 30
0.0
210
0.0
220
0.0
230
1.0
  2
SOLID
 70
         1
 71
         1
 91
        1
 92
        1
 93
        1
 72
         2
 10
136.24000000000001
 20
22.449999999999999
 40
0.45
 50
0.0
 51
360.0
 73
         1
 97
        1
330
172
 75
         0
 76
         1
 98
        1
 10
0.0
 20
0.0
  0
CIRCLE
  5
174
100
AcDbEntity
  8
PART_HOLES_LAYER_TOP
100
AcDbCircle
 10
136.24
 20
37.69
 30
0.0
 40
0.45
  0
HATCH
  5
175
100
AcDbEntity
  8
PART_HOLES_LAYER_TOP
100
AcDbHatch
 10
0.0
 20
0.0
 30
0.0
210
0.0
220
0.0
230
1.0
  2
SOLID
 70
         1
 71
         1
 91
        1
 92
        1
 93
        1
 72
         2
 10
136.24000000000001
 20
37.689999999999998
 40
0.45
 50
0.0
 51
360.0
 73
         1
 97
        1
330
174
 75
         0
 76
         1
 98
        1
 10
0.0
 20
0.0
  0
CIRCLE
  5
176
100
AcDbEntity
  8
PART_HOLES_LAYER_TOP
100
AcDbCircle
 10
136.24
 20
40.23
 30
0.0
 40
0.45
  0
HATCH
  5
177
100
AcDbEntity
  8
PART_HOLES_LAYER_TOP
100
AcDbHatch
 10
0.0
 20
0.0
 30
0.0
210
0.0
220
0.0
230
1.0
  2
SOLID
 70
         1
 71
         1
 91
        1
 92
        1
 93
        1
 72
         2
 10
136.24000000000001
 20
40.229999999999997
 40
0.45
 50
0.0
 51
360.0
 73
         1
 97
        1
330
176
 75
         0
 76
         1
 98
        1
 10
0.0
 20
0.0
  0
CIRCLE
  5
178
100
AcDbEntity
  8
PART_HOLES_LAYER_TOP
100
AcDbCircle
 10
133.7
 20
27.53
 30
0.0
 40
0.45
  0
HATCH
  5
179
100
AcDbEntity
  8
PART_HOLES_LAYER_TOP
100
AcDbHatch
 10
0.0
 20
0.0
 30
0.0
210
0.0
220
0.0
230
1.0
  2
SOLID
 70
         1
 71
         1
 91
        1
 92
        1
 93
        1
 72
         2
 10
133.69999999999999
 20
27.530000000000001
 40
0.45
 50
0.0
 51
360.0
 73
         1
 97
        1
330
178
 75
         0
 76
         1
 98
        1
 10
0.0
 20
0.0
  0
CIRCLE
  5
17A
100
AcDbEntity
  8
PART_HOLES_LAYER_TOP
100
AcDbCircle
 10
133.7
 20
32.61
 30
0.0
 40
0.45
  0
HATCH
  5
17B
100
AcDbEntity
  8
PART_HOLES_LAYER_TOP
100
AcDbHatch
 10
0.0
 20
0.0
 30
0.0
210
0.0
220
0.0
230
1.0
  2
SOLID
 70
         1
 71
         1
 91
        1
 92
        1
 93
        1
 72
         2
 10
133.69999999999999
 20
32.609999999999999
 40
0.45
 50
0.0
 51
360.0
 73
         1
 97
        1
330
17A
 75
         0
 76
         1
 98
        1
 10
0.0
 20
0.0
  0
CIRCLE
  5
17C
100
AcDbEntity
  8
PART_HOLES_LAYER_TOP
100
AcDbCircle
 10
133.7
 20
35.15
 30
0.0
 40
0.45
  0
HATCH
  5
17D
100
AcDbEntity
  8
PART_HOLES_LAYER_TOP
100
AcDbHatch
 10
0.0
 20
0.0
 30
0.0
210
0.0
220
0.0
230
1.0
  2
SOLID
 70
         1
 71
         1
 91
        1
 92
        1
 93
        1
 72
         2
 10
133.69999999999999
 20
35.149999999999999
 40
0.45
 50
0.0
 51
360.0
 73
         1
 97
        1
330
17C
 75
         0
 76
         1
 98
        1
 10
0.0
 20
0.0
  0
CIRCLE
  5
17E
100
AcDbEntity
  8
PART_HOLES_LAYER_TOP
100
AcDbCircle
 10
133.7
 20
40.23
 30
0.0
 40
0.45
  0
HATCH
  5
17F
100
AcDbEntity
  8
PART_HOLES_LAYER_TOP
100
AcDbHatch
 10
0.0
 20
0.0
 30
0.0
210
0.0
220
0.0
230
1.0
  2
SOLID
 70
         1
 71
         1
 91
        1
 92
        1
 93
        1
 72
         2
 10
133.69999999999999
 20
40.229999999999997
 40
0.45
 50
0.0
 51
360.0
 73
         1
 97
        1
330
17E
 75
         0
 76
         1
 98
        1
 10
0.0
 20
0.0
  0
CIRCLE
  5
180
100
AcDbEntity
  8
PART_HOLES_LAYER_TOP
100
AcDbCircle
 10
133.7
 20
30.07
 30
0.0
 40
0.45
  0
HATCH
  5
181
100
AcDbEntity
  8
PART_HOLES_LAYER_TOP
100
AcDbHatch
 10
0.0
 20
0.0
 30
0.0
210
0.0
220
0.0
230
1.0
  2
SOLID
 70
         1
 71
         1
 91
        1
 92
        1
 93
        1
 72
         2
 10
133.69999999999999
 20
30.07
 40
0.45
 50
0.0
 51
360.0
 73
         1
 97
        1
330
180
 75
         0
 76
         1
 98
        1
 10
0.0
 20
0.0
  0
CIRCLE
  5
182
100
AcDbEntity
  8
PART_HOLES_LAYER_TOP
100
AcDbCircle
 10
133.7
 20
37.69
 30
0.0
 40
0.45
  0
HATCH
  5
183
100
AcDbEntity
  8
PART_HOLES_LAYER_TOP
100
AcDbHatch
 10
0.0
 20
0.0
 30
0.0
210
0.0
220
0.0
230
1.0
  2
SOLID
 70
         1
 71
         1
 91
        1
 92
        1
 93
        1
 72
         2
 10
133.69999999999999
 20
37.689999999999998
 40
0.45
 50
0.0
 51
360.0
 73
         1
 97
        1
330
182
 75
         0
 76
         1
 98
        1
 10
0.0
 20
0.0
  0
CIRCLE
  5
184
100
AcDbEntity
  8
PART_HOLES_LAYER_TOP
100
AcDbCircle
 10
133.7
 20
42.77
 30
0.0
 40
0.45
  0
HATCH
  5
185
100
AcDbEntity
  8
PART_HOLES_LAYER_TOP
100
AcDbHatch
 10
0.0
 20
0.0
 30
0.0
210
0.0
220
0.0
230
1.0
  2
SOLID
 70
         1
 71
         1
 91
        1
 92
        1
 93
        1
 72
         2
 10
133.69999999999999
 20
42.770000000000003
 40
0.45
 50
0.0
 51
360.0
 73
         1
 97
        1
330
184
 75
         0
 76
         1
 98
        1
 10
0.0
 20
0.0
  0
CIRCLE
  5
186
100
AcDbEntity
  8
PART_HOLES_LAYER_TOP
100
AcDbCircle
 10
132.6
 20
54.5
 30
0.0
 40
0.45
  0
HATCH
  5
187
100
AcDbEntity
  8
PART_HOLES_LAYER_TOP
100
AcDbHatch
 10
0.0
 20
0.0
 30
0.0
210
0.0
220
0.0
230
1.0
  2
SOLID
 70
         1
 71
         1
 91
        1
 92
        1
 93
        1
 72
         2
 10
132.59999999999999
 20
54.5
 40
0.45
 50
0.0
 51
360.0
 73
         1
 97
        1
330
186
 75
         0
 76
         1
 98
        1
 10
0.0
 20
0.0
  0
CIRCLE
  5
188
100
AcDbEntity
  8
PART_HOLES_LAYER_TOP
100
AcDbCircle
 10
135.14
 20
54.5
 30
0.0
 40
0.45
  0
HATCH
  5
189
100
AcDbEntity
  8
PART_HOLES_LAYER_TOP
100
AcDbHatch
 10
0.0
 20
0.0
 30
0.0
210
0.0
220
0.0
230
1.0
  2
SOLID
 70
         1
 71
         1
 91
        1
 92
        1
 93
        1
 72
         2
 10
135.13999999999999
 20
54.5
 40
0.45
 50
0.0
 51
360.0
 73
         1
 97
        1
330
188
 75
         0
 76
         1
 98
        1
 10
0.0
 20
0.0
  0
CIRCLE
  5
18A
100
AcDbEntity
  8
PART_HOLES_LAYER_TOP
100
AcDbCircle
 10
137.68
 20
54.5
 30
0.0
 40
0.45
  0
HATCH
  5
18B
100
AcDbEntity
  8
PART_HOLES_LAYER_TOP
100
AcDbHatch
 10
0.0
 20
0.0
 30
0.0
210
0.0
220
0.0
230
1.0
  2
SOLID
 70
         1
 71
         1
 91
        1
 92
        1
 93
        1
 72
         2
 10
137.68000000000001
 20
54.5
 40
0.45
 50
0.0
 51
360.0
 73
         1
 97
        1
330
18A
 75
         0
 76
         1
 98
        1
 10
0.0
 20
0.0
  0
CIRCLE
  5
18C
100
AcDbEntity
  8
PART_HOLES_LAYER_TOP
100
AcDbCircle
 10
16.49
 20
54.6
 30
0.0
 40
0.45
  0
HATCH
  5
18D
100
AcDbEntity
  8
PART_HOLES_LAYER_TOP
100
AcDbHatch
 10
0.0
 20
0.0
 30
0.0
210
0.0
220
0.0
230
1.0
  2
SOLID
 70
         1
 71
         1
 91
        1
 92
        1
 93
        1
 72
         2
 10
16.489999999999998
 20
54.600000000000001
 40
0.45
 50
0.0
 51
360.0
 73
         1
 97
        1
330
18C
 75
         0
 76
         1
 98
        1
 10
0.0
 20
0.0
  0
CIRCLE
  5
18E
100
AcDbEntity
  8
PART_HOLES_LAYER_TOP
100
AcDbCircle
 10
13.95
 20
52.06
 30
0.0
 40
0.45
  0
HATCH
  5
18F
100
AcDbEntity
  8
PART_HOLES_LAYER_TOP
100
AcDbHatch
 10
0.0
 20
0.0
 30
0.0
210
0.0
220
0.0
230
1.0
  2
SOLID
 70
         1
 71
         1
 91
        1
 92
        1
 93
        1
 72
         2
 10
13.949999999999999
 20
52.060000000000002
 40
0.45
 50
0.0
 51
360.0
 73
         1
 97
        1
330
18E
 75
         0
 76
         1
 98
        1
 10
0.0
 20
0.0
  0
CIRCLE
  5
190
100
AcDbEntity
  8
PART_HOLES_LAYER_TOP
100
AcDbCircle
 10
36.81
 20
52.06
 30
0.0
 40
0.45
  0
HATCH
  5
191
100
AcDbEntity
  8
PART_HOLES_LAYER_TOP
100
AcDbHatch
 10
0.0
 20
0.0
 30
0.0
210
0.0
220
0.0
230
1.0
  2
SOLID
 70
         1
 71
         1
 91
        1
 92
        1
 93
        1
 72
         2
 10
36.810000000000002
 20
52.060000000000002
 40
0.45
 50
0.0
 51
360.0
 73
         1
 97
        1
330
190
 75
         0
 76
         1
 98
        1
 10
0.0
 20
0.0
  0
CIRCLE
  5
192
100
AcDbEntity
  8
PART_HOLES_LAYER_TOP
100
AcDbCircle
 10
41.89
 20
52.06
 30
0.0
 40
0.45
  0
HATCH
  5
193
100
AcDbEntity
  8
PART_HOLES_LAYER_TOP
100
AcDbHatch
 10
0.0
 20
0.0
 30
0.0
210
0.0
220
0.0
230
1.0
  2
SOLID
 70
         1
 71
         1
 91
        1
 92
        1
 93
        1
 72
         2
 10
41.890000000000001
 20
52.060000000000002
 40
0.45
 50
0.0
 51
360.0
 73
         1
 97
        1
330
192
 75
         0
 76
         1
 98
        1
 10
0.0
 20
0.0
  0
CIRCLE
  5
194
100
AcDbEntity
  8
PART_HOLES_LAYER_TOP
100
AcDbCircle
 10
44.43
 20
52.06
 30
0.0
 40
0.45
  0
HATCH
  5
195
100
AcDbEntity
  8
PART_HOLES_LAYER_TOP
100
AcDbHatch
 10
0.0
 20
0.0
 30
0.0
210
0.0
220
0.0
230
1.0
  2
SOLID
 70
         1
 71
         1
 91
        1
 92
        1
 93
        1
 72
         2
 10
44.43
 20
52.060000000000002
 40
0.45
 50
0.0
 51
360.0
 73
         1
 97
        1
330
194
 75
         0
 76
         1
 98
        1
 10
0.0
 20
0.0
  0
CIRCLE
  5
196
100
AcDbEntity
  8
PART_HOLES_LAYER_TOP
100
AcDbCircle
 10
46.97
 20
52.06
 30
0.0
 40
0.45
  0
HATCH
  5
197
100
AcDbEntity
  8
PART_HOLES_LAYER_TOP
100
AcDbHatch
 10
0.0
 20
0.0
 30
0.0
210
0.0
220
0.0
230
1.0
  2
SOLID
 70
         1
 71
         1
 91
        1
 92
        1
 93
        1
 72
         2
 10
46.969999999999999
 20
52.060000000000002
 40
0.45
 50
0.0
 51
360.0
 73
         1
 97
        1
330
196
 75
         0
 76
         1
 98
        1
 10
0.0
 20
0.0
  0
CIRCLE
  5
198
100
AcDbEntity
  8
PART_HOLES_LAYER_TOP
100
AcDbCircle
 10
49.51
 20
52.06
 30
0.0
 40
0.45
  0
HATCH
  5
199
100
AcDbEntity
  8
PART_HOLES_LAYER_TOP
100
AcDbHatch
 10
0.0
 20
0.0
 30
0.0
210
0.0
220
0.0
230
1.0
  2
SOLID
 70
         1
 71
         1
 91
        1
 92
        1
 93
        1
 72
         2
 10
49.509999999999998
 20
52.060000000000002
 40
0.45
 50
0.0
 51
360.0
 73
         1
 97
        1
330
198
 75
         0
 76
         1
 98
        1
 10
0.0
 20
0.0
  0
CIRCLE
  5
19A
100
AcDbEntity
  8
PART_HOLES_LAYER_TOP
100
AcDbCircle
 10
52.05
 20
52.06
 30
0.0
 40
0.45
  0
HATCH
  5
19B
100
AcDbEntity
  8
PART_HOLES_LAYER_TOP
100
AcDbHatch
 10
0.0
 20
0.0
 30
0.0
210
0.0
220
0.0
230
1.0
  2
SOLID
 70
         1
 71
         1
 91
        1
 92
        1
 93
        1
 72
         2
 10
52.049999999999997
 20
52.060000000000002
 40
0.45
 50
0.0
 51
360.0
 73
         1
 97
        1
330
19A
 75
         0
 76
         1
 98
        1
 10
0.0
 20
0.0
  0
CIRCLE
  5
19C
100
AcDbEntity
  8
PART_HOLES_LAYER_TOP
100
AcDbCircle
 10
19.03
 20
54.6
 30
0.0
 40
0.45
  0
HATCH
  5
19D
100
AcDbEntity
  8
PART_HOLES_LAYER_TOP
100
AcDbHatch
 10
0.0
 20
0.0
 30
0.0
210
0.0
220
0.0
230
1.0
  2
SOLID
 70
         1
 71
         1
 91
        1
 92
        1
 93
        1
 72
         2
 10
19.030000000000001
 20
54.600000000000001
 40
0.45
 50
0.0
 51
360.0
 73
         1
 97
        1
330
19C
 75
         0
 76
         1
 98
        1
 10
0.0
 20
0.0
  0
CIRCLE
  5
19E
100
AcDbEntity
  8
PART_HOLES_LAYER_TOP
100
AcDbCircle
 10
19.03
 20
52.06
 30
0.0
 40
0.45
  0
HATCH
  5
19F
100
AcDbEntity
  8
PART_HOLES_LAYER_TOP
100
AcDbHatch
 10
0.0
 20
0.0
 30
0.0
210
0.0
220
0.0
230
1.0
  2
SOLID
 70
         1
 71
         1
 91
        1
 92
        1
 93
        1
 72
         2
 10
19.030000000000001
 20
52.060000000000002
 40
0.45
 50
0.0
 51
360.0
 73
         1
 97
        1
330
19E
 75
         0
 76
         1
 98
        1
 10
0.0
 20
0.0
  0
CIRCLE
  5
1A0
100
AcDbEntity
  8
PART_HOLES_LAYER_TOP
100
AcDbCircle
 10
46.97
 20
54.6
 30
0.0
 40
0.45
  0
HATCH
  5
1A1
100
AcDbEntity
  8
PART_HOLES_LAYER_TOP
100
AcDbHatch
 10
0.0
 20
0.0
 30
0.0
210
0.0
220
0.0
230
1.0
  2
SOLID
 70
         1
 71
         1
 91
        1
 92
        1
 93
        1
 72
         2
 10
46.969999999999999
 20
54.600000000000001
 40
0.45
 50
0.0
 51
360.0
 73
         1
 97
        1
330
1A0
 75
         0
 76
         1
 98
        1
 10
0.0
 20
0.0
  0
CIRCLE
  5
1A2
100
AcDbEntity
  8
PART_HOLES_LAYER_TOP
100
AcDbCircle
 10
44.43
 20
54.6
 30
0.0
 40
0.45
  0
HATCH
  5
1A3
100
AcDbEntity
  8
PART_HOLES_LAYER_TOP
100
AcDbHatch
 10
0.0
 20
0.0
 30
0.0
210
0.0
220
0.0
230
1.0
  2
SOLID
 70
         1
 71
         1
 91
        1
 92
        1
 93
        1
 72
         2
 10
44.43
 20
54.600000000000001
 40
0.45
 50
0.0
 51
360.0
 73
         1
 97
        1
330
1A2
 75
         0
 76
         1
 98
        1
 10
0.0
 20
0.0
  0
CIRCLE
  5
1A4
100
AcDbEntity
  8
PART_HOLES_LAYER_TOP
100
AcDbCircle
 10
41.89
 20
54.6
 30
0.0
 40
0.45
  0
HATCH
  5
1A5
100
AcDbEntity
  8
PART_HOLES_LAYER_TOP
100
AcDbHatch
 10
0.0
 20
0.0
 30
0.0
210
0.0
220
0.0
230
1.0
  2
SOLID
 70
         1
 71
         1
 91
        1
 92
        1
 93
        1
 72
         2
 10
41.890000000000001
 20
54.600000000000001
 40
0.45
 50
0.0
 51
360.0
 73
         1
 97
        1
330
1A4
 75
         0
 76
         1
 98
        1
 10
0.0
 20
0.0
  0
CIRCLE
  5
1A6
100
AcDbEntity
  8
PART_HOLES_LAYER_TOP
100
AcDbCircle
 10
31.73
 20
52.06
 30
0.0
 40
0.45
  0
HATCH
  5
1A7
100
AcDbEntity
  8
PART_HOLES_LAYER_TOP
100
AcDbHatch
 10
0.0
 20
0.0
 30
0.0
210
0.0
220
0.0
230
1.0
  2
SOLID
 70
         1
 71
         1
 91
        1
 92
        1
 93
        1
 72
         2
 10
31.73
 20
52.060000000000002
 40
0.45
 50
0.0
 51
360.0
 73
         1
 97
        1
330
1A6
 75
         0
 76
         1
 98
        1
 10
0.0
 20
0.0
  0
CIRCLE
  5
1A8
100
AcDbEntity
  8
PART_HOLES_LAYER_TOP
100
AcDbCircle
 10
13.95
 20
54.6
 30
0.0
 40
0.45
  0
HATCH
  5
1A9
100
AcDbEntity
  8
PART_HOLES_LAYER_TOP
100
AcDbHatch
 10
0.0
 20
0.0
 30
0.0
210
0.0
220
0.0
230
1.0
  2
SOLID
 70
         1
 71
         1
 91
        1
 92
        1
 93
        1
 72
         2
 10
13.949999999999999
 20
54.600000000000001
 40
0.45
 50
0.0
 51
360.0
 73
         1
 97
        1
330
1A8
 75
         0
 76
         1
 98
        1
 10
0.0
 20
0.0
  0
CIRCLE
  5
1AA
100
AcDbEntity
  8
PART_HOLES_LAYER_TOP
100
AcDbCircle
 10
34.27
 20
54.6
 30
0.0
 40
0.45
  0
HATCH
  5
1AB
100
AcDbEntity
  8
PART_HOLES_LAYER_TOP
100
AcDbHatch
 10
0.0
 20
0.0
 30
0.0
210
0.0
220
0.0
230
1.0
  2
SOLID
 70
         1
 71
         1
 91
        1
 92
        1
 93
        1
 72
         2
 10
34.270000000000003
 20
54.600000000000001
 40
0.45
 50
0.0
 51
360.0
 73
         1
 97
        1
330
1AA
 75
         0
 76
         1
 98
        1
 10
0.0
 20
0.0
  0
CIRCLE
  5
1AC
100
AcDbEntity
  8
PART_HOLES_LAYER_TOP
100
AcDbCircle
 10
62.21
 20
54.6
 30
0.0
 40
0.45
  0
HATCH
  5
1AD
100
AcDbEntity
  8
PART_HOLES_LAYER_TOP
100
AcDbHatch
 10
0.0
 20
0.0
 30
0.0
210
0.0
220
0.0
230
1.0
  2
SOLID
 70
         1
 71
         1
 91
        1
 92
        1
 93
        1
 72
         2
 10
62.210000000000001
 20
54.600000000000001
 40
0.45
 50
0.0
 51
360.0
 73
         1
 97
        1
330
1AC
 75
         0
 76
         1
 98
        1
 10
0.0
 20
0.0
  0
CIRCLE
  5
1AE
100
AcDbEntity
  8
PART_HOLES_LAYER_TOP
100
AcDbCircle
 10
62.21
 20
52.06
 30
0.0
 40
0.45
  0
HATCH
  5
1AF
100
AcDbEntity
  8
PART_HOLES_LAYER_TOP
100
AcDbHatch
 10
0.0
 20
0.0
 30
0.0
210
0.0
220
0.0
230
1.0
  2
SOLID
 70
         1
 71
         1
 91
        1
 92
        1
 93
        1
 72
         2
 10
62.210000000000001
 20
52.060000000000002
 40
0.45
 50
0.0
 51
360.0
 73
         1
 97
        1
330
1AE
 75
         0
 76
         1
 98
        1
 10
0.0
 20
0.0
  0
CIRCLE
  5
1B0
100
AcDbEntity
  8
PART_HOLES_LAYER_TOP
100
AcDbCircle
 10
59.67
 20
52.06
 30
0.0
 40
0.45
  0
HATCH
  5
1B1
100
AcDbEntity
  8
PART_HOLES_LAYER_TOP
100
AcDbHatch
 10
0.0
 20
0.0
 30
0.0
210
0.0
220
0.0
230
1.0
  2
SOLID
 70
         1
 71
         1
 91
        1
 92
        1
 93
        1
 72
         2
 10
59.670000000000002
 20
52.060000000000002
 40
0.45
 50
0.0
 51
360.0
 73
         1
 97
        1
330
1B0
 75
         0
 76
         1
 98
        1
 10
0.0
 20
0.0
  0
CIRCLE
  5
1B2
100
AcDbEntity
  8
PART_HOLES_LAYER_TOP
100
AcDbCircle
 10
24.11
 20
54.6
 30
0.0
 40
0.45
  0
HATCH
  5
1B3
100
AcDbEntity
  8
PART_HOLES_LAYER_TOP
100
AcDbHatch
 10
0.0
 20
0.0
 30
0.0
210
0.0
220
0.0
230
1.0
  2
SOLID
 70
         1
 71
         1
 91
        1
 92
        1
 93
        1
 72
         2
 10
24.109999999999999
 20
54.600000000000001
 40
0.45
 50
0.0
 51
360.0
 73
         1
 97
        1
330
1B2
 75
         0
 76
         1
 98
        1
 10
0.0
 20
0.0
  0
CIRCLE
  5
1B4
100
AcDbEntity
  8
PART_HOLES_LAYER_TOP
100
AcDbCircle
 10
29.19
 20
54.6
 30
0.0
 40
0.45
  0
HATCH
  5
1B5
100
AcDbEntity
  8
PART_HOLES_LAYER_TOP
100
AcDbHatch
 10
0.0
 20
0.0
 30
0.0
210
0.0
220
0.0
230
1.0
  2
SOLID
 70
         1
 71
         1
 91
        1
 92
        1
 93
        1
 72
         2
 10
29.190000000000001
 20
54.600000000000001
 40
0.45
 50
0.0
 51
360.0
 73
         1
 97
        1
330
1B4
 75
         0
 76
         1
 98
        1
 10
0.0
 20
0.0
  0
CIRCLE
  5
1B6
100
AcDbEntity
  8
PART_HOLES_LAYER_TOP
100
AcDbCircle
 10
29.19
 20
52.06
 30
0.0
 40
0.45
  0
HATCH
  5
1B7
100
AcDbEntity
  8
PART_HOLES_LAYER_TOP
100
AcDbHatch
 10
0.0
 20
0.0
 30
0.0
210
0.0
220
0.0
230
1.0
  2
SOLID
 70
         1
 71
         1
 91
        1
 92
        1
 93
        1
 72
         2
 10
29.190000000000001
 20
52.060000000000002
 40
0.45
 50
0.0
 51
360.0
 73
         1
 97
        1
330
1B6
 75
         0
 76
         1
 98
        1
 10
0.0
 20
0.0
  0
CIRCLE
  5
1B8
100
AcDbEntity
  8
PART_HOLES_LAYER_TOP
100
AcDbCircle
 10
21.57
 20
54.6
 30
0.0
 40
0.45
  0
HATCH
  5
1B9
100
AcDbEntity
  8
PART_HOLES_LAYER_TOP
100
AcDbHatch
 10
0.0
 20
0.0
 30
0.0
210
0.0
220
0.0
230
1.0
  2
SOLID
 70
         1
 71
         1
 91
        1
 92
        1
 93
        1
 72
         2
 10
21.57
 20
54.600000000000001
 40
0.45
 50
0.0
 51
360.0
 73
         1
 97
        1
330
1B8
 75
         0
 76
         1
 98
        1
 10
0.0
 20
0.0
  0
CIRCLE
  5
1BA
100
AcDbEntity
  8
PART_HOLES_LAYER_TOP
100
AcDbCircle
 10
21.57
 20
52.06
 30
0.0
 40
0.45
  0
HATCH
  5
1BB
100
AcDbEntity
  8
PART_HOLES_LAYER_TOP
100
AcDbHatch
 10
0.0
 20
0.0
 30
0.0
210
0.0
220
0.0
230
1.0
  2
SOLID
 70
         1
 71
         1
 91
        1
 92
        1
 93
        1
 72
         2
 10
21.57
 20
52.060000000000002
 40
0.45
 50
0.0
 51
360.0
 73
         1
 97
        1
330
1BA
 75
         0
 76
         1
 98
        1
 10
0.0
 20
0.0
  0
CIRCLE
  5
1BC
100
AcDbEntity
  8
PART_HOLES_LAYER_TOP
100
AcDbCircle
 10
52.05
 20
54.6
 30
0.0
 40
0.45
  0
HATCH
  5
1BD
100
AcDbEntity
  8
PART_HOLES_LAYER_TOP
100
AcDbHatch
 10
0.0
 20
0.0
 30
0.0
210
0.0
220
0.0
230
1.0
  2
SOLID
 70
         1
 71
         1
 91
        1
 92
        1
 93
        1
 72
         2
 10
52.049999999999997
 20
54.600000000000001
 40
0.45
 50
0.0
 51
360.0
 73
         1
 97
        1
330
1BC
 75
         0
 76
         1
 98
        1
 10
0.0
 20
0.0
  0
CIRCLE
  5
1BE
100
AcDbEntity
  8
PART_HOLES_LAYER_TOP
100
AcDbCircle
 10
16.49
 20
52.06
 30
0.0
 40
0.45
  0
HATCH
  5
1BF
100
AcDbEntity
  8
PART_HOLES_LAYER_TOP
100
AcDbHatch
 10
0.0
 20
0.0
 30
0.0
210
0.0
220
0.0
230
1.0
  2
SOLID
 70
         1
 71
         1
 91
        1
 92
        1
 93
        1
 72
         2
 10
16.489999999999998
 20
52.060000000000002
 40
0.45
 50
0.0
 51
360.0
 73
         1
 97
        1
330
1BE
 75
         0
 76
         1
 98
        1
 10
0.0
 20
0.0
  0
CIRCLE
  5
1C0
100
AcDbEntity
  8
PART_HOLES_LAYER_TOP
100
AcDbCircle
 10
57.13
 20
54.6
 30
0.0
 40
0.45
  0
HATCH
  5
1C1
100
AcDbEntity
  8
PART_HOLES_LAYER_TOP
100
AcDbHatch
 10
0.0
 20
0.0
 30
0.0
210
0.0
220
0.0
230
1.0
  2
SOLID
 70
         1
 71
         1
 91
        1
 92
        1
 93
        1
 72
         2
 10
57.130000000000003
 20
54.600000000000001
 40
0.45
 50
0.0
 51
360.0
 73
         1
 97
        1
330
1C0
 75
         0
 76
         1
 98
        1
 10
0.0
 20
0.0
  0
CIRCLE
  5
1C2
100
AcDbEntity
  8
PART_HOLES_LAYER_TOP
100
AcDbCircle
 10
57.13
 20
52.06
 30
0.0
 40
0.45
  0
HATCH
  5
1C3
100
AcDbEntity
  8
PART_HOLES_LAYER_TOP
100
AcDbHatch
 10
0.0
 20
0.0
 30
0.0
210
0.0
220
0.0
230
1.0
  2
SOLID
 70
         1
 71
         1
 91
        1
 92
        1
 93
        1
 72
         2
 10
57.130000000000003
 20
52.060000000000002
 40
0.45
 50
0.0
 51
360.0
 73
         1
 97
        1
330
1C2
 75
         0
 76
         1
 98
        1
 10
0.0
 20
0.0
  0
CIRCLE
  5
1C4
100
AcDbEntity
  8
PART_HOLES_LAYER_TOP
100
AcDbCircle
 10
54.59
 20
52.06
 30
0.0
 40
0.45
  0
HATCH
  5
1C5
100
AcDbEntity
  8
PART_HOLES_LAYER_TOP
100
AcDbHatch
 10
0.0
 20
0.0
 30
0.0
210
0.0
220
0.0
230
1.0
  2
SOLID
 70
         1
 71
         1
 91
        1
 92
        1
 93
        1
 72
         2
 10
54.590000000000003
 20
52.060000000000002
 40
0.45
 50
0.0
 51
360.0
 73
         1
 97
        1
330
1C4
 75
         0
 76
         1
 98
        1
 10
0.0
 20
0.0
  0
CIRCLE
  5
1C6
100
AcDbEntity
  8
PART_HOLES_LAYER_TOP
100
AcDbCircle
 10
54.59
 20
54.6
 30
0.0
 40
0.45
  0
HATCH
  5
1C7
100
AcDbEntity
  8
PART_HOLES_LAYER_TOP
100
AcDbHatch
 10
0.0
 20
0.0
 30
0.0
210
0.0
220
0.0
230
1.0
  2
SOLID
 70
         1
 71
         1
 91
        1
 92
        1
 93
        1
 72
         2
 10
54.590000000000003
 20
54.600000000000001
 40
0.45
 50
0.0
 51
360.0
 73
         1
 97
        1
330
1C6
 75
         0
 76
         1
 98
        1
 10
0.0
 20
0.0
  0
CIRCLE
  5
1C8
100
AcDbEntity
  8
PART_HOLES_LAYER_TOP
100
AcDbCircle
 10
26.65
 20
52.06
 30
0.0
 40
0.45
  0
HATCH
  5
1C9
100
AcDbEntity
  8
PART_HOLES_LAYER_TOP
100
AcDbHatch
 10
0.0
 20
0.0
 30
0.0
210
0.0
220
0.0
230
1.0
  2
SOLID
 70
         1
 71
         1
 91
        1
 92
        1
 93
        1
 72
         2
 10
26.649999999999999
 20
52.060000000000002
 40
0.45
 50
0.0
 51
360.0
 73
         1
 97
        1
330
1C8
 75
         0
 76
         1
 98
        1
 10
0.0
 20
0.0
  0
CIRCLE
  5
1CA
100
AcDbEntity
  8
PART_HOLES_LAYER_TOP
100
AcDbCircle
 10
26.65
 20
54.6
 30
0.0
 40
0.45
  0
HATCH
  5
1CB
100
AcDbEntity
  8
PART_HOLES_LAYER_TOP
100
AcDbHatch
 10
0.0
 20
0.0
 30
0.0
210
0.0
220
0.0
230
1.0
  2
SOLID
 70
         1
 71
         1
 91
        1
 92
        1
 93
        1
 72
         2
 10
26.649999999999999
 20
54.600000000000001
 40
0.45
 50
0.0
 51
360.0
 73
         1
 97
        1
330
1CA
 75
         0
 76
         1
 98
        1
 10
0.0
 20
0.0
  0
CIRCLE
  5
1CC
100
AcDbEntity
  8
PART_HOLES_LAYER_TOP
100
AcDbCircle
 10
34.27
 20
52.06
 30
0.0
 40
0.45
  0
HATCH
  5
1CD
100
AcDbEntity
  8
PART_HOLES_LAYER_TOP
100
AcDbHatch
 10
0.0
 20
0.0
 30
0.0
210
0.0
220
0.0
230
1.0
  2
SOLID
 70
         1
 71
         1
 91
        1
 92
        1
 93
        1
 72
         2
 10
34.270000000000003
 20
52.060000000000002
 40
0.45
 50
0.0
 51
360.0
 73
         1
 97
        1
330
1CC
 75
         0
 76
         1
 98
        1
 10
0.0
 20
0.0
  0
CIRCLE
  5
1CE
100
AcDbEntity
  8
PART_HOLES_LAYER_TOP
100
AcDbCircle
 10
31.73
 20
54.6
 30
0.0
 40
0.45
  0
HATCH
  5
1CF
100
AcDbEntity
  8
PART_HOLES_LAYER_TOP
100
AcDbHatch
 10
0.0
 20
0.0
 30
0.0
210
0.0
220
0.0
230
1.0
  2
SOLID
 70
         1
 71
         1
 91
        1
 92
        1
 93
        1
 72
         2
 10
31.73
 20
54.600000000000001
 40
0.45
 50
0.0
 51
360.0
 73
         1
 97
        1
330
1CE
 75
         0
 76
         1
 98
        1
 10
0.0
 20
0.0
  0
CIRCLE
  5
1D0
100
AcDbEntity
  8
PART_HOLES_LAYER_TOP
100
AcDbCircle
 10
24.11
 20
52.06
 30
0.0
 40
0.45
  0
HATCH
  5
1D1
100
AcDbEntity
  8
PART_HOLES_LAYER_TOP
100
AcDbHatch
 10
0.0
 20
0.0
 30
0.0
210
0.0
220
0.0
230
1.0
  2
SOLID
 70
         1
 71
         1
 91
        1
 92
        1
 93
        1
 72
         2
 10
24.109999999999999
 20
52.060000000000002
 40
0.45
 50
0.0
 51
360.0
 73
         1
 97
        1
330
1D0
 75
         0
 76
         1
 98
        1
 10
0.0
 20
0.0
  0
CIRCLE
  5
1D2
100
AcDbEntity
  8
PART_HOLES_LAYER_TOP
100
AcDbCircle
 10
39.35
 20
54.6
 30
0.0
 40
0.45
  0
HATCH
  5
1D3
100
AcDbEntity
  8
PART_HOLES_LAYER_TOP
100
AcDbHatch
 10
0.0
 20
0.0
 30
0.0
210
0.0
220
0.0
230
1.0
  2
SOLID
 70
         1
 71
         1
 91
        1
 92
        1
 93
        1
 72
         2
 10
39.350000000000001
 20
54.600000000000001
 40
0.45
 50
0.0
 51
360.0
 73
         1
 97
        1
330
1D2
 75
         0
 76
         1
 98
        1
 10
0.0
 20
0.0
  0
CIRCLE
  5
1D4
100
AcDbEntity
  8
PART_HOLES_LAYER_TOP
100
AcDbCircle
 10
36.81
 20
54.6
 30
0.0
 40
0.45
  0
HATCH
  5
1D5
100
AcDbEntity
  8
PART_HOLES_LAYER_TOP
100
AcDbHatch
 10
0.0
 20
0.0
 30
0.0
210
0.0
220
0.0
230
1.0
  2
SOLID
 70
         1
 71
         1
 91
        1
 92
        1
 93
        1
 72
         2
 10
36.810000000000002
 20
54.600000000000001
 40
0.45
 50
0.0
 51
360.0
 73
         1
 97
        1
330
1D4
 75
         0
 76
         1
 98
        1
 10
0.0
 20
0.0
  0
CIRCLE
  5
1D6
100
AcDbEntity
  8
PART_HOLES_LAYER_TOP
100
AcDbCircle
 10
49.51
 20
54.6
 30
0.0
 40
0.45
  0
HATCH
  5
1D7
100
AcDbEntity
  8
PART_HOLES_LAYER_TOP
100
AcDbHatch
 10
0.0
 20
0.0
 30
0.0
210
0.0
220
0.0
230
1.0
  2
SOLID
 70
         1
 71
         1
 91
        1
 92
        1
 93
        1
 72
         2
 10
49.509999999999998
 20
54.600000000000001
 40
0.45
 50
0.0
 51
360.0
 73
         1
 97
        1
330
1D6
 75
         0
 76
         1
 98
        1
 10
0.0
 20
0.0
  0
CIRCLE
  5
1D8
100
AcDbEntity
  8
PART_HOLES_LAYER_TOP
100
AcDbCircle
 10
39.35
 20
52.06
 30
0.0
 40
0.45
  0
HATCH
  5
1D9
100
AcDbEntity
  8
PART_HOLES_LAYER_TOP
100
AcDbHatch
 10
0.0
 20
0.0
 30
0.0
210
0.0
220
0.0
230
1.0
  2
SOLID
 70
         1
 71
         1
 91
        1
 92
        1
 93
        1
 72
         2
 10
39.350000000000001
 20
52.060000000000002
 40
0.45
 50
0.0
 51
360.0
 73
         1
 97
        1
330
1D8
 75
         0
 76
         1
 98
        1
 10
0.0
 20
0.0
  0
CIRCLE
  5
1DA
100
AcDbEntity
  8
PART_HOLES_LAYER_TOP
100
AcDbCircle
 10
59.67
 20
54.6
 30
0.0
 40
0.45
  0
HATCH
  5
1DB
100
AcDbEntity
  8
PART_HOLES_LAYER_TOP
100
AcDbHatch
 10
0.0
 20
0.0
 30
0.0
210
0.0
220
0.0
230
1.0
  2
SOLID
 70
         1
 71
         1
 91
        1
 92
        1
 93
        1
 72
         2
 10
59.670000000000002
 20
54.600000000000001
 40
0.45
 50
0.0
 51
360.0
 73
         1
 97
        1
330
1DA
 75
         0
 76
         1
 98
        1
 10
0.0
 20
0.0
  0
CIRCLE
  5
1DC
100
AcDbEntity
  8
PART_HOLES_LAYER_TOP
100
AcDbCircle
 10
57.69
 20
47.93
 30
0.0
 40
0.45
  0
HATCH
  5
1DD
100
AcDbEntity
  8
PART_HOLES_LAYER_TOP
100
AcDbHatch
 10
0.0
 20
0.0
 30
0.0
210
0.0
220
0.0
230
1.0
  2
SOLID
 70
         1
 71
         1
 91
        1
 92
        1
 93
        1
 72
         2
 10
57.689999999999998
 20
47.93
 40
0.45
 50
0.0
 51
360.0
 73
         1
 97
        1
330
1DC
 75
         0
 76
         1
 98
        1
 10
0.0
 20
0.0
  0
CIRCLE
  5
1DE
100
AcDbEntity
  8
PART_HOLES_LAYER_TOP
100
AcDbCircle
 10
44.2
 20
4.9
 30
0.0
 40
0.45
  0
HATCH
  5
1DF
100
AcDbEntity
  8
PART_HOLES_LAYER_TOP
100
AcDbHatch
 10
0.0
 20
0.0
 30
0.0
210
0.0
220
0.0
230
1.0
  2
SOLID
 70
         1
 71
         1
 91
        1
 92
        1
 93
        1
 72
         2
 10
44.200000000000003
 20
4.9000000000000004
 40
0.45
 50
0.0
 51
360.0
 73
         1
 97
        1
330
1DE
 75
         0
 76
         1
 98
        1
 10
0.0
 20
0.0
  0
CIRCLE
  5
1E0
100
AcDbEntity
  8
PART_HOLES_LAYER_TOP
100
AcDbCircle
 10
46.74
 20
4.9
 30
0.0
 40
0.45
  0
HATCH
  5
1E1
100
AcDbEntity
  8
PART_HOLES_LAYER_TOP
100
AcDbHatch
 10
0.0
 20
0.0
 30
0.0
210
0.0
220
0.0
230
1.0
  2
SOLID
 70
         1
 71
         1
 91
        1
 92
        1
 93
        1
 72
         2
 10
46.740000000000002
 20
4.9000000000000004
 40
0.45
 50
0.0
 51
360.0
 73
         1
 97
        1
330
1E0
 75
         0
 76
         1
 98
        1
 10
0.0
 20
0.0
  0
CIRCLE
  5
1E2
100
AcDbEntity
  8
PART_HOLES_LAYER_TOP
100
AcDbCircle
 10
82.36
 20
62.13
 30
0.0
 40
0.45
  0
HATCH
  5
1E3
100
AcDbEntity
  8
PART_HOLES_LAYER_TOP
100
AcDbHatch
 10
0.0
 20
0.0
 30
0.0
210
0.0
220
0.0
230
1.0
  2
SOLID
 70
         1
 71
         1
 91
        1
 92
        1
 93
        1
 72
         2
 10
82.359999999999999
 20
62.130000000000003
 40
0.45
 50
0.0
 51
360.0
 73
         1
 97
        1
330
1E2
 75
         0
 76
         1
 98
        1
 10
0.0
 20
0.0
  0
CIRCLE
  5
1E4
100
AcDbEntity
  8
PART_HOLES_LAYER_TOP
100
AcDbCircle
 10
79.82
 20
59.59
 30
0.0
 40
0.45
  0
HATCH
  5
1E5
100
AcDbEntity
  8
PART_HOLES_LAYER_TOP
100
AcDbHatch
 10
0.0
 20
0.0
 30
0.0
210
0.0
220
0.0
230
1.0
  2
SOLID
 70
         1
 71
         1
 91
        1
 92
        1
 93
        1
 72
         2
 10
79.819999999999993
 20
59.590000000000003
 40
0.45
 50
0.0
 51
360.0
 73
         1
 97
        1
330
1E4
 75
         0
 76
         1
 98
        1
 10
0.0
 20
0.0
  0
CIRCLE
  5
1E6
100
AcDbEntity
  8
PART_HOLES_LAYER_TOP
100
AcDbCircle
 10
112.84
 20
59.59
 30
0.0
 40
0.45
  0
HATCH
  5
1E7
100
AcDbEntity
  8
PART_HOLES_LAYER_TOP
100
AcDbHatch
 10
0.0
 20
0.0
 30
0.0
210
0.0
220
0.0
230
1.0
  2
SOLID
 70
         1
 71
         1
 91
        1
 92
        1
 93
        1
 72
         2
 10
112.84
 20
59.590000000000003
 40
0.45
 50
0.0
 51
360.0
 73
         1
 97
        1
330
1E6
 75
         0
 76
         1
 98
        1
 10
0.0
 20
0.0
  0
CIRCLE
  5
1E8
100
AcDbEntity
  8
PART_HOLES_LAYER_TOP
100
AcDbCircle
 10
115.38
 20
59.59
 30
0.0
 40
0.45
  0
HATCH
  5
1E9
100
AcDbEntity
  8
PART_HOLES_LAYER_TOP
100
AcDbHatch
 10
0.0
 20
0.0
 30
0.0
210
0.0
220
0.0
230
1.0
  2
SOLID
 70
         1
 71
         1
 91
        1
 92
        1
 93
        1
 72
         2
 10
115.38
 20
59.590000000000003
 40
0.45
 50
0.0
 51
360.0
 73
         1
 97
        1
330
1E8
 75
         0
 76
         1
 98
        1
 10
0.0
 20
0.0
  0
CIRCLE
  5
1EA
100
AcDbEntity
  8
PART_HOLES_LAYER_TOP
100
AcDbCircle
 10
112.84
 20
62.13
 30
0.0
 40
0.45
  0
HATCH
  5
1EB
100
AcDbEntity
  8
PART_HOLES_LAYER_TOP
100
AcDbHatch
 10
0.0
 20
0.0
 30
0.0
210
0.0
220
0.0
230
1.0
  2
SOLID
 70
         1
 71
         1
 91
        1
 92
        1
 93
        1
 72
         2
 10
112.84
 20
62.130000000000003
 40
0.45
 50
0.0
 51
360.0
 73
         1
 97
        1
330
1EA
 75
         0
 76
         1
 98
        1
 10
0.0
 20
0.0
  0
CIRCLE
  5
1EC
100
AcDbEntity
  8
PART_HOLES_LAYER_TOP
100
AcDbCircle
 10
115.38
 20
62.13
 30
0.0
 40
0.45
  0
HATCH
  5
1ED
100
AcDbEntity
  8
PART_HOLES_LAYER_TOP
100
AcDbHatch
 10
0.0
 20
0.0
 30
0.0
210
0.0
220
0.0
230
1.0
  2
SOLID
 70
         1
 71
         1
 91
        1
 92
        1
 93
        1
 72
         2
 10
115.38
 20
62.130000000000003
 40
0.45
 50
0.0
 51
360.0
 73
         1
 97
        1
330
1EC
 75
         0
 76
         1
 98
        1
 10
0.0
 20
0.0
  0
CIRCLE
  5
1EE
100
AcDbEntity
  8
PART_HOLES_LAYER_TOP
100
AcDbCircle
 10
102.68
 20
62.13
 30
0.0
 40
0.45
  0
HATCH
  5
1EF
100
AcDbEntity
  8
PART_HOLES_LAYER_TOP
100
AcDbHatch
 10
0.0
 20
0.0
 30
0.0
210
0.0
220
0.0
230
1.0
  2
SOLID
 70
         1
 71
         1
 91
        1
 92
        1
 93
        1
 72
         2
 10
102.68000000000001
 20
62.130000000000003
 40
0.45
 50
0.0
 51
360.0
 73
         1
 97
        1
330
1EE
 75
         0
 76
         1
 98
        1
 10
0.0
 20
0.0
  0
CIRCLE
  5
1F0
100
AcDbEntity
  8
PART_HOLES_LAYER_TOP
100
AcDbCircle
 10
102.68
 20
59.59
 30
0.0
 40
0.45
  0
HATCH
  5
1F1
100
AcDbEntity
  8
PART_HOLES_LAYER_TOP
100
AcDbHatch
 10
0.0
 20
0.0
 30
0.0
210
0.0
220
0.0
230
1.0
  2
SOLID
 70
         1
 71
         1
 91
        1
 92
        1
 93
        1
 72
         2
 10
102.68000000000001
 20
59.590000000000003
 40
0.45
 50
0.0
 51
360.0
 73
         1
 97
        1
330
1F0
 75
         0
 76
         1
 98
        1
 10
0.0
 20
0.0
  0
CIRCLE
  5
1F2
100
AcDbEntity
  8
PART_HOLES_LAYER_TOP
100
AcDbCircle
 10
120.46
 20
62.13
 30
0.0
 40
0.45
  0
HATCH
  5
1F3
100
AcDbEntity
  8
PART_HOLES_LAYER_TOP
100
AcDbHatch
 10
0.0
 20
0.0
 30
0.0
210
0.0
220
0.0
230
1.0
  2
SOLID
 70
         1
 71
         1
 91
        1
 92
        1
 93
        1
 72
         2
 10
120.45999999999999
 20
62.130000000000003
 40
0.45
 50
0.0
 51
360.0
 73
         1
 97
        1
330
1F2
 75
         0
 76
         1
 98
        1
 10
0.0
 20
0.0
  0
CIRCLE
  5
1F4
100
AcDbEntity
  8
PART_HOLES_LAYER_TOP
100
AcDbCircle
 10
120.46
 20
59.59
 30
0.0
 40
0.45
  0
HATCH
  5
1F5
100
AcDbEntity
  8
PART_HOLES_LAYER_TOP
100
AcDbHatch
 10
0.0
 20
0.0
 30
0.0
210
0.0
220
0.0
230
1.0
  2
SOLID
 70
         1
 71
         1
 91
        1
 92
        1
 93
        1
 72
         2
 10
120.45999999999999
 20
59.590000000000003
 40
0.45
 50
0.0
 51
360.0
 73
         1
 97
        1
330
1F4
 75
         0
 76
         1
 98
        1
 10
0.0
 20
0.0
  0
CIRCLE
  5
1F6
100
AcDbEntity
  8
PART_HOLES_LAYER_TOP
100
AcDbCircle
 10
117.92
 20
62.13
 30
0.0
 40
0.45
  0
HATCH
  5
1F7
100
AcDbEntity
  8
PART_HOLES_LAYER_TOP
100
AcDbHatch
 10
0.0
 20
0.0
 30
0.0
210
0.0
220
0.0
230
1.0
  2
SOLID
 70
         1
 71
         1
 91
        1
 92
        1
 93
        1
 72
         2
 10
117.92
 20
62.130000000000003
 40
0.45
 50
0.0
 51
360.0
 73
         1
 97
        1
330
1F6
 75
         0
 76
         1
 98
        1
 10
0.0
 20
0.0
  0
CIRCLE
  5
1F8
100
AcDbEntity
  8
PART_HOLES_LAYER_TOP
100
AcDbCircle
 10
117.92
 20
59.59
 30
0.0
 40
0.45
  0
HATCH
  5
1F9
100
AcDbEntity
  8
PART_HOLES_LAYER_TOP
100
AcDbHatch
 10
0.0
 20
0.0
 30
0.0
210
0.0
220
0.0
230
1.0
  2
SOLID
 70
         1
 71
         1
 91
        1
 92
        1
 93
        1
 72
         2
 10
117.92
 20
59.590000000000003
 40
0.45
 50
0.0
 51
360.0
 73
         1
 97
        1
330
1F8
 75
         0
 76
         1
 98
        1
 10
0.0
 20
0.0
  0
CIRCLE
  5
1FA
100
AcDbEntity
  8
PART_HOLES_LAYER_TOP
100
AcDbCircle
 10
82.36
 20
59.59
 30
0.0
 40
0.45
  0
HATCH
  5
1FB
100
AcDbEntity
  8
PART_HOLES_LAYER_TOP
100
AcDbHatch
 10
0.0
 20
0.0
 30
0.0
210
0.0
220
0.0
230
1.0
  2
SOLID
 70
         1
 71
         1
 91
        1
 92
        1
 93
        1
 72
         2
 10
82.359999999999999
 20
59.590000000000003
 40
0.45
 50
0.0
 51
360.0
 73
         1
 97
        1
330
1FA
 75
         0
 76
         1
 98
        1
 10
0.0
 20
0.0
  0
CIRCLE
  5
1FC
100
AcDbEntity
  8
PART_HOLES_LAYER_TOP
100
AcDbCircle
 10
84.9
 20
62.13
 30
0.0
 40
0.45
  0
HATCH
  5
1FD
100
AcDbEntity
  8
PART_HOLES_LAYER_TOP
100
AcDbHatch
 10
0.0
 20
0.0
 30
0.0
210
0.0
220
0.0
230
1.0
  2
SOLID
 70
         1
 71
         1
 91
        1
 92
        1
 93
        1
 72
         2
 10
84.900000000000006
 20
62.130000000000003
 40
0.45
 50
0.0
 51
360.0
 73
         1
 97
        1
330
1FC
 75
         0
 76
         1
 98
        1
 10
0.0
 20
0.0
  0
CIRCLE
  5
1FE
100
AcDbEntity
  8
PART_HOLES_LAYER_TOP
100
AcDbCircle
 10
105.22
 20
62.13
 30
0.0
 40
0.45
  0
HATCH
  5
1FF
100
AcDbEntity
  8
PART_HOLES_LAYER_TOP
100
AcDbHatch
 10
0.0
 20
0.0
 30
0.0
210
0.0
220
0.0
230
1.0
  2
SOLID
 70
         1
 71
         1
 91
        1
 92
        1
 93
        1
 72
         2
 10
105.22
 20
62.130000000000003
 40
0.45
 50
0.0
 51
360.0
 73
         1
 97
        1
330
1FE
 75
         0
 76
         1
 98
        1
 10
0.0
 20
0.0
  0
CIRCLE
  5
200
100
AcDbEntity
  8
PART_HOLES_LAYER_TOP
100
AcDbCircle
 10
89.98
 20
62.13
 30
0.0
 40
0.45
  0
HATCH
  5
201
100
AcDbEntity
  8
PART_HOLES_LAYER_TOP
100
AcDbHatch
 10
0.0
 20
0.0
 30
0.0
210
0.0
220
0.0
230
1.0
  2
SOLID
 70
         1
 71
         1
 91
        1
 92
        1
 93
        1
 72
         2
 10
89.980000000000004
 20
62.130000000000003
 40
0.45
 50
0.0
 51
360.0
 73
         1
 97
        1
330
200
 75
         0
 76
         1
 98
        1
 10
0.0
 20
0.0
  0
CIRCLE
  5
202
100
AcDbEntity
  8
PART_HOLES_LAYER_TOP
100
AcDbCircle
 10
89.98
 20
59.59
 30
0.0
 40
0.45
  0
HATCH
  5
203
100
AcDbEntity
  8
PART_HOLES_LAYER_TOP
100
AcDbHatch
 10
0.0
 20
0.0
 30
0.0
210
0.0
220
0.0
230
1.0
  2
SOLID
 70
         1
 71
         1
 91
        1
 92
        1
 93
        1
 72
         2
 10
89.980000000000004
 20
59.590000000000003
 40
0.45
 50
0.0
 51
360.0
 73
         1
 97
        1
330
202
 75
         0
 76
         1
 98
        1
 10
0.0
 20
0.0
  0
CIRCLE
  5
204
100
AcDbEntity
  8
PART_HOLES_LAYER_TOP
100
AcDbCircle
 10
92.52
 20
62.13
 30
0.0
 40
0.45
  0
HATCH
  5
205
100
AcDbEntity
  8
PART_HOLES_LAYER_TOP
100
AcDbHatch
 10
0.0
 20
0.0
 30
0.0
210
0.0
220
0.0
230
1.0
  2
SOLID
 70
         1
 71
         1
 91
        1
 92
        1
 93
        1
 72
         2
 10
92.519999999999996
 20
62.130000000000003
 40
0.45
 50
0.0
 51
360.0
 73
         1
 97
        1
330
204
 75
         0
 76
         1
 98
        1
 10
0.0
 20
0.0
  0
CIRCLE
  5
206
100
AcDbEntity
  8
PART_HOLES_LAYER_TOP
100
AcDbCircle
 10
92.52
 20
59.59
 30
0.0
 40
0.45
  0
HATCH
  5
207
100
AcDbEntity
  8
PART_HOLES_LAYER_TOP
100
AcDbHatch
 10
0.0
 20
0.0
 30
0.0
210
0.0
220
0.0
230
1.0
  2
SOLID
 70
         1
 71
         1
 91
        1
 92
        1
 93
        1
 72
         2
 10
92.519999999999996
 20
59.590000000000003
 40
0.45
 50
0.0
 51
360.0
 73
         1
 97
        1
330
206
 75
         0
 76
         1
 98
        1
 10
0.0
 20
0.0
  0
CIRCLE
  5
208
100
AcDbEntity
  8
PART_HOLES_LAYER_TOP
100
AcDbCircle
 10
87.44
 20
59.59
 30
0.0
 40
0.45
  0
HATCH
  5
209
100
AcDbEntity
  8
PART_HOLES_LAYER_TOP
100
AcDbHatch
 10
0.0
 20
0.0
 30
0.0
210
0.0
220
0.0
230
1.0
  2
SOLID
 70
         1
 71
         1
 91
        1
 92
        1
 93
        1
 72
         2
 10
87.439999999999998
 20
59.590000000000003
 40
0.45
 50
0.0
 51
360.0
 73
         1
 97
        1
330
208
 75
         0
 76
         1
 98
        1
 10
0.0
 20
0.0
  0
CIRCLE
  5
20A
100
AcDbEntity
  8
PART_HOLES_LAYER_TOP
100
AcDbCircle
 10
87.44
 20
62.13
 30
0.0
 40
0.45
  0
HATCH
  5
20B
100
AcDbEntity
  8
PART_HOLES_LAYER_TOP
100
AcDbHatch
 10
0.0
 20
0.0
 30
0.0
210
0.0
220
0.0
230
1.0
  2
SOLID
 70
         1
 71
         1
 91
        1
 92
        1
 93
        1
 72
         2
 10
87.439999999999998
 20
62.130000000000003
 40
0.45
 50
0.0
 51
360.0
 73
         1
 97
        1
330
20A
 75
         0
 76
         1
 98
        1
 10
0.0
 20
0.0
  0
CIRCLE
  5
20C
100
AcDbEntity
  8
PART_HOLES_LAYER_TOP
100
AcDbCircle
 10
107.76
 20
59.59
 30
0.0
 40
0.45
  0
HATCH
  5
20D
100
AcDbEntity
  8
PART_HOLES_LAYER_TOP
100
AcDbHatch
 10
0.0
 20
0.0
 30
0.0
210
0.0
220
0.0
230
1.0
  2
SOLID
 70
         1
 71
         1
 91
        1
 92
        1
 93
        1
 72
         2
 10
107.76000000000001
 20
59.590000000000003
 40
0.45
 50
0.0
 51
360.0
 73
         1
 97
        1
330
20C
 75
         0
 76
         1
 98
        1
 10
0.0
 20
0.0
  0
CIRCLE
  5
20E
100
AcDbEntity
  8
PART_HOLES_LAYER_TOP
100
AcDbCircle
 10
107.76
 20
62.13
 30
0.0
 40
0.45
  0
HATCH
  5
20F
100
AcDbEntity
  8
PART_HOLES_LAYER_TOP
100
AcDbHatch
 10
0.0
 20
0.0
 30
0.0
210
0.0
220
0.0
230
1.0
  2
SOLID
 70
         1
 71
         1
 91
        1
 92
        1
 93
        1
 72
         2
 10
107.76000000000001
 20
62.130000000000003
 40
0.45
 50
0.0
 51
360.0
 73
         1
 97
        1
330
20E
 75
         0
 76
         1
 98
        1
 10
0.0
 20
0.0
  0
CIRCLE
  5
210
100
AcDbEntity
  8
PART_HOLES_LAYER_TOP
100
AcDbCircle
 10
95.06
 20
62.13
 30
0.0
 40
0.45
  0
HATCH
  5
211
100
AcDbEntity
  8
PART_HOLES_LAYER_TOP
100
AcDbHatch
 10
0.0
 20
0.0
 30
0.0
210
0.0
220
0.0
230
1.0
  2
SOLID
 70
         1
 71
         1
 91
        1
 92
        1
 93
        1
 72
         2
 10
95.060000000000002
 20
62.130000000000003
 40
0.45
 50
0.0
 51
360.0
 73
         1
 97
        1
330
210
 75
         0
 76
         1
 98
        1
 10
0.0
 20
0.0
  0
CIRCLE
  5
212
100
AcDbEntity
  8
PART_HOLES_LAYER_TOP
100
AcDbCircle
 10
95.06
 20
59.59
 30
0.0
 40
0.45
  0
HATCH
  5
213
100
AcDbEntity
  8
PART_HOLES_LAYER_TOP
100
AcDbHatch
 10
0.0
 20
0.0
 30
0.0
210
0.0
220
0.0
230
1.0
  2
SOLID
 70
         1
 71
         1
 91
        1
 92
        1
 93
        1
 72
         2
 10
95.060000000000002
 20
59.590000000000003
 40
0.45
 50
0.0
 51
360.0
 73
         1
 97
        1
330
212
 75
         0
 76
         1
 98
        1
 10
0.0
 20
0.0
  0
CIRCLE
  5
214
100
AcDbEntity
  8
PART_HOLES_LAYER_TOP
100
AcDbCircle
 10
97.6
 20
62.13
 30
0.0
 40
0.45
  0
HATCH
  5
215
100
AcDbEntity
  8
PART_HOLES_LAYER_TOP
100
AcDbHatch
 10
0.0
 20
0.0
 30
0.0
210
0.0
220
0.0
230
1.0
  2
SOLID
 70
         1
 71
         1
 91
        1
 92
        1
 93
        1
 72
         2
 10
97.599999999999994
 20
62.130000000000003
 40
0.45
 50
0.0
 51
360.0
 73
         1
 97
        1
330
214
 75
         0
 76
         1
 98
        1
 10
0.0
 20
0.0
  0
CIRCLE
  5
216
100
AcDbEntity
  8
PART_HOLES_LAYER_TOP
100
AcDbCircle
 10
97.6
 20
59.59
 30
0.0
 40
0.45
  0
HATCH
  5
217
100
AcDbEntity
  8
PART_HOLES_LAYER_TOP
100
AcDbHatch
 10
0.0
 20
0.0
 30
0.0
210
0.0
220
0.0
230
1.0
  2
SOLID
 70
         1
 71
         1
 91
        1
 92
        1
 93
        1
 72
         2
 10
97.599999999999994
 20
59.590000000000003
 40
0.45
 50
0.0
 51
360.0
 73
         1
 97
        1
330
216
 75
         0
 76
         1
 98
        1
 10
0.0
 20
0.0
  0
CIRCLE
  5
218
100
AcDbEntity
  8
PART_HOLES_LAYER_TOP
100
AcDbCircle
 10
100.14
 20
59.59
 30
0.0
 40
0.45
  0
HATCH
  5
219
100
AcDbEntity
  8
PART_HOLES_LAYER_TOP
100
AcDbHatch
 10
0.0
 20
0.0
 30
0.0
210
0.0
220
0.0
230
1.0
  2
SOLID
 70
         1
 71
         1
 91
        1
 92
        1
 93
        1
 72
         2
 10
100.14
 20
59.590000000000003
 40
0.45
 50
0.0
 51
360.0
 73
         1
 97
        1
330
218
 75
         0
 76
         1
 98
        1
 10
0.0
 20
0.0
  0
CIRCLE
  5
21A
100
AcDbEntity
  8
PART_HOLES_LAYER_TOP
100
AcDbCircle
 10
100.14
 20
62.13
 30
0.0
 40
0.45
  0
HATCH
  5
21B
100
AcDbEntity
  8
PART_HOLES_LAYER_TOP
100
AcDbHatch
 10
0.0
 20
0.0
 30
0.0
210
0.0
220
0.0
230
1.0
  2
SOLID
 70
         1
 71
         1
 91
        1
 92
        1
 93
        1
 72
         2
 10
100.14
 20
62.130000000000003
 40
0.45
 50
0.0
 51
360.0
 73
         1
 97
        1
330
21A
 75
         0
 76
         1
 98
        1
 10
0.0
 20
0.0
  0
CIRCLE
  5
21C
100
AcDbEntity
  8
PART_HOLES_LAYER_TOP
100
AcDbCircle
 10
105.22
 20
59.59
 30
0.0
 40
0.45
  0
HATCH
  5
21D
100
AcDbEntity
  8
PART_HOLES_LAYER_TOP
100
AcDbHatch
 10
0.0
 20
0.0
 30
0.0
210
0.0
220
0.0
230
1.0
  2
SOLID
 70
         1
 71
         1
 91
        1
 92
        1
 93
        1
 72
         2
 10
105.22
 20
59.590000000000003
 40
0.45
 50
0.0
 51
360.0
 73
         1
 97
        1
330
21C
 75
         0
 76
         1
 98
        1
 10
0.0
 20
0.0
  0
CIRCLE
  5
21E
100
AcDbEntity
  8
PART_HOLES_LAYER_TOP
100
AcDbCircle
 10
79.82
 20
62.13
 30
0.0
 40
0.45
  0
HATCH
  5
21F
100
AcDbEntity
  8
PART_HOLES_LAYER_TOP
100
AcDbHatch
 10
0.0
 20
0.0
 30
0.0
210
0.0
220
0.0
230
1.0
  2
SOLID
 70
         1
 71
         1
 91
        1
 92
        1
 93
        1
 72
         2
 10
79.819999999999993
 20
62.130000000000003
 40
0.45
 50
0.0
 51
360.0
 73
         1
 97
        1
330
21E
 75
         0
 76
         1
 98
        1
 10
0.0
 20
0.0
  0
CIRCLE
  5
220
100
AcDbEntity
  8
PART_HOLES_LAYER_TOP
100
AcDbCircle
 10
123.0
 20
59.59
 30
0.0
 40
0.45
  0
HATCH
  5
221
100
AcDbEntity
  8
PART_HOLES_LAYER_TOP
100
AcDbHatch
 10
0.0
 20
0.0
 30
0.0
210
0.0
220
0.0
230
1.0
  2
SOLID
 70
         1
 71
         1
 91
        1
 92
        1
 93
        1
 72
         2
 10
123.0
 20
59.590000000000003
 40
0.45
 50
0.0
 51
360.0
 73
         1
 97
        1
330
220
 75
         0
 76
         1
 98
        1
 10
0.0
 20
0.0
  0
CIRCLE
  5
222
100
AcDbEntity
  8
PART_HOLES_LAYER_TOP
100
AcDbCircle
 10
125.54
 20
59.59
 30
0.0
 40
0.45
  0
HATCH
  5
223
100
AcDbEntity
  8
PART_HOLES_LAYER_TOP
100
AcDbHatch
 10
0.0
 20
0.0
 30
0.0
210
0.0
220
0.0
230
1.0
  2
SOLID
 70
         1
 71
         1
 91
        1
 92
        1
 93
        1
 72
         2
 10
125.54000000000001
 20
59.590000000000003
 40
0.45
 50
0.0
 51
360.0
 73
         1
 97
        1
330
222
 75
         0
 76
         1
 98
        1
 10
0.0
 20
0.0
  0
CIRCLE
  5
224
100
AcDbEntity
  8
PART_HOLES_LAYER_TOP
100
AcDbCircle
 10
128.08
 20
59.59
 30
0.0
 40
0.45
  0
HATCH
  5
225
100
AcDbEntity
  8
PART_HOLES_LAYER_TOP
100
AcDbHatch
 10
0.0
 20
0.0
 30
0.0
210
0.0
220
0.0
230
1.0
  2
SOLID
 70
         1
 71
         1
 91
        1
 92
        1
 93
        1
 72
         2
 10
128.08000000000001
 20
59.590000000000003
 40
0.45
 50
0.0
 51
360.0
 73
         1
 97
        1
330
224
 75
         0
 76
         1
 98
        1
 10
0.0
 20
0.0
  0
CIRCLE
  5
226
100
AcDbEntity
  8
PART_HOLES_LAYER_TOP
100
AcDbCircle
 10
128.08
 20
62.13
 30
0.0
 40
0.45
  0
HATCH
  5
227
100
AcDbEntity
  8
PART_HOLES_LAYER_TOP
100
AcDbHatch
 10
0.0
 20
0.0
 30
0.0
210
0.0
220
0.0
230
1.0
  2
SOLID
 70
         1
 71
         1
 91
        1
 92
        1
 93
        1
 72
         2
 10
128.08000000000001
 20
62.130000000000003
 40
0.45
 50
0.0
 51
360.0
 73
         1
 97
        1
330
226
 75
         0
 76
         1
 98
        1
 10
0.0
 20
0.0
  0
CIRCLE
  5
228
100
AcDbEntity
  8
PART_HOLES_LAYER_TOP
100
AcDbCircle
 10
125.54
 20
62.13
 30
0.0
 40
0.45
  0
HATCH
  5
229
100
AcDbEntity
  8
PART_HOLES_LAYER_TOP
100
AcDbHatch
 10
0.0
 20
0.0
 30
0.0
210
0.0
220
0.0
230
1.0
  2
SOLID
 70
         1
 71
         1
 91
        1
 92
        1
 93
        1
 72
         2
 10
125.54000000000001
 20
62.130000000000003
 40
0.45
 50
0.0
 51
360.0
 73
         1
 97
        1
330
228
 75
         0
 76
         1
 98
        1
 10
0.0
 20
0.0
  0
CIRCLE
  5
22A
100
AcDbEntity
  8
PART_HOLES_LAYER_TOP
100
AcDbCircle
 10
123.0
 20
62.13
 30
0.0
 40
0.45
  0
HATCH
  5
22B
100
AcDbEntity
  8
PART_HOLES_LAYER_TOP
100
AcDbHatch
 10
0.0
 20
0.0
 30
0.0
210
0.0
220
0.0
230
1.0
  2
SOLID
 70
         1
 71
         1
 91
        1
 92
        1
 93
        1
 72
         2
 10
123.0
 20
62.130000000000003
 40
0.45
 50
0.0
 51
360.0
 73
         1
 97
        1
330
22A
 75
         0
 76
         1
 98
        1
 10
0.0
 20
0.0
  0
CIRCLE
  5
22C
100
AcDbEntity
  8
PART_HOLES_LAYER_TOP
100
AcDbCircle
 10
110.3
 20
62.13
 30
0.0
 40
0.45
  0
HATCH
  5
22D
100
AcDbEntity
  8
PART_HOLES_LAYER_TOP
100
AcDbHatch
 10
0.0
 20
0.0
 30
0.0
210
0.0
220
0.0
230
1.0
  2
SOLID
 70
         1
 71
         1
 91
        1
 92
        1
 93
        1
 72
         2
 10
110.3
 20
62.130000000000003
 40
0.45
 50
0.0
 51
360.0
 73
         1
 97
        1
330
22C
 75
         0
 76
         1
 98
        1
 10
0.0
 20
0.0
  0
CIRCLE
  5
22E
100
AcDbEntity
  8
PART_HOLES_LAYER_TOP
100
AcDbCircle
 10
110.3
 20
59.59
 30
0.0
 40
0.45
  0
HATCH
  5
22F
100
AcDbEntity
  8
PART_HOLES_LAYER_TOP
100
AcDbHatch
 10
0.0
 20
0.0
 30
0.0
210
0.0
220
0.0
230
1.0
  2
SOLID
 70
         1
 71
         1
 91
        1
 92
        1
 93
        1
 72
         2
 10
110.3
 20
59.590000000000003
 40
0.45
 50
0.0
 51
360.0
 73
         1
 97
        1
330
22E
 75
         0
 76
         1
 98
        1
 10
0.0
 20
0.0
  0
CIRCLE
  5
230
100
AcDbEntity
  8
PART_HOLES_LAYER_TOP
100
AcDbCircle
 10
84.9
 20
59.59
 30
0.0
 40
0.45
  0
HATCH
  5
231
100
AcDbEntity
  8
PART_HOLES_LAYER_TOP
100
AcDbHatch
 10
0.0
 20
0.0
 30
0.0
210
0.0
220
0.0
230
1.0
  2
SOLID
 70
         1
 71
         1
 91
        1
 92
        1
 93
        1
 72
         2
 10
84.900000000000006
 20
59.590000000000003
 40
0.45
 50
0.0
 51
360.0
 73
         1
 97
        1
330
230
 75
         0
 76
         1
 98
        1
 10
0.0
 20
0.0
  0
CIRCLE
  5
232
100
AcDbEntity
  8
PART_HOLES_LAYER_TOP
100
AcDbCircle
 10
35.1
 20
36.7
 30
0.0
 40
0.55
  0
HATCH
  5
233
100
AcDbEntity
  8
PART_HOLES_LAYER_TOP
100
AcDbHatch
 10
0.0
 20
0.0
 30
0.0
210
0.0
220
0.0
230
1.0
  2
SOLID
 70
         1
 71
         1
 91
        1
 92
        1
 93
        1
 72
         2
 10
35.100000000000001
 20
36.700000000000003
 40
0.55
 50
0.0
 51
360.0
 73
         1
 97
        1
330
232
 75
         0
 76
         1
 98
        1
 10
0.0
 20
0.0
  0
CIRCLE
  5
234
100
AcDbEntity
  8
PART_HOLES_LAYER_TOP
100
AcDbCircle
 10
30.1
 20
42.2
 30
0.0
 40
0.55
  0
HATCH
  5
235
100
AcDbEntity
  8
PART_HOLES_LAYER_TOP
100
AcDbHatch
 10
0.0
 20
0.0
 30
0.0
210
0.0
220
0.0
230
1.0
  2
SOLID
 70
         1
 71
         1
 91
        1
 92
        1
 93
        1
 72
         2
 10
30.100000000000001
 20
42.200000000000003
 40
0.55
 50
0.0
 51
360.0
 73
         1
 97
        1
330
234
 75
         0
 76
         1
 98
        1
 10
0.0
 20
0.0
  0
CIRCLE
  5
236
100
AcDbEntity
  8
PART_HOLES_LAYER_TOP
100
AcDbCircle
 10
40.1
 20
42.2
 30
0.0
 40
0.55
  0
HATCH
  5
237
100
AcDbEntity
  8
PART_HOLES_LAYER_TOP
100
AcDbHatch
 10
0.0
 20
0.0
 30
0.0
210
0.0
220
0.0
230
1.0
  2
SOLID
 70
         1
 71
         1
 91
        1
 92
        1
 93
        1
 72
         2
 10
40.100000000000001
 20
42.200000000000003
 40
0.55
 50
0.0
 51
360.0
 73
         1
 97
        1
330
236
 75
         0
 76
         1
 98
        1
 10
0.0
 20
0.0
  0
CIRCLE
  5
238
100
AcDbEntity
  8
PART_HOLES_LAYER_TOP
100
AcDbCircle
 10
101.16
 20
24.7
 30
0.0
 40
0.45
  0
HATCH
  5
239
100
AcDbEntity
  8
PART_HOLES_LAYER_TOP
100
AcDbHatch
 10
0.0
 20
0.0
 30
0.0
210
0.0
220
0.0
230
1.0
  2
SOLID
 70
         1
 71
         1
 91
        1
 92
        1
 93
        1
 72
         2
 10
101.16
 20
24.699999999999999
 40
0.45
 50
0.0
 51
360.0
 73
         1
 97
        1
330
238
 75
         0
 76
         1
 98
        1
 10
0.0
 20
0.0
  0
CIRCLE
  5
23A
100
AcDbEntity
  8
PART_HOLES_LAYER_TOP
100
AcDbCircle
 10
106.04
 20
24.7
 30
0.0
 40
0.45
  0
HATCH
  5
23B
100
AcDbEntity
  8
PART_HOLES_LAYER_TOP
100
AcDbHatch
 10
0.0
 20
0.0
 30
0.0
210
0.0
220
0.0
230
1.0
  2
SOLID
 70
         1
 71
         1
 91
        1
 92
        1
 93
        1
 72
         2
 10
106.04000000000001
 20
24.699999999999999
 40
0.45
 50
0.0
 51
360.0
 73
         1
 97
        1
330
23A
 75
         0
 76
         1
 98
        1
 10
0.0
 20
0.0
  0
CIRCLE
  5
23C
100
AcDbEntity
  8
PART_HOLES_LAYER_TOP
100
AcDbCircle
 10
47.66
 20
48.0
 30
0.0
 40
0.45
  0
HATCH
  5
23D
100
AcDbEntity
  8
PART_HOLES_LAYER_TOP
100
AcDbHatch
 10
0.0
 20
0.0
 30
0.0
210
0.0
220
0.0
230
1.0
  2
SOLID
 70
         1
 71
         1
 91
        1
 92
        1
 93
        1
 72
         2
 10
47.659999999999997
 20
48.0
 40
0.45
 50
0.0
 51
360.0
 73
         1
 97
        1
330
23C
 75
         0
 76
         1
 98
        1
 10
0.0
 20
0.0
  0
CIRCLE
  5
23E
100
AcDbEntity
  8
PART_HOLES_LAYER_TOP
100
AcDbCircle
 10
50.2
 20
48.0
 30
0.0
 40
0.45
  0
HATCH
  5
23F
100
AcDbEntity
  8
PART_HOLES_LAYER_TOP
100
AcDbHatch
 10
0.0
 20
0.0
 30
0.0
210
0.0
220
0.0
230
1.0
  2
SOLID
 70
         1
 71
         1
 91
        1
 92
        1
 93
        1
 72
         2
 10
50.200000000000003
 20
48.0
 40
0.45
 50
0.0
 51
360.0
 73
         1
 97
        1
330
23E
 75
         0
 76
         1
 98
        1
 10
0.0
 20
0.0
  0
CIRCLE
  5
240
100
AcDbEntity
  8
PART_HOLES_LAYER_TOP
100
AcDbCircle
 10
78.2
 20
20.94
 30
0.0
 40
0.45
  0
HATCH
  5
241
100
AcDbEntity
  8
PART_HOLES_LAYER_TOP
100
AcDbHatch
 10
0.0
 20
0.0
 30
0.0
210
0.0
220
0.0
230
1.0
  2
SOLID
 70
         1
 71
         1
 91
        1
 92
        1
 93
        1
 72
         2
 10
78.200000000000003
 20
20.940000000000001
 40
0.45
 50
0.0
 51
360.0
 73
         1
 97
        1
330
240
 75
         0
 76
         1
 98
        1
 10
0.0
 20
0.0
  0
CIRCLE
  5
242
100
AcDbEntity
  8
PART_HOLES_LAYER_TOP
100
AcDbCircle
 10
73.32
 20
20.94
 30
0.0
 40
0.45
  0
HATCH
  5
243
100
AcDbEntity
  8
PART_HOLES_LAYER_TOP
100
AcDbHatch
 10
0.0
 20
0.0
 30
0.0
210
0.0
220
0.0
230
1.0
  2
SOLID
 70
         1
 71
         1
 91
        1
 92
        1
 93
        1
 72
         2
 10
73.319999999999993
 20
20.940000000000001
 40
0.45
 50
0.0
 51
360.0
 73
         1
 97
        1
330
242
 75
         0
 76
         1
 98
        1
 10
0.0
 20
0.0
  0
CIRCLE
  5
244
100
AcDbEntity
  8
PART_HOLES_LAYER_TOP
100
AcDbCircle
 10
68.6
 20
3.5
 30
0.0
 40
0.45
  0
HATCH
  5
245
100
AcDbEntity
  8
PART_HOLES_LAYER_TOP
100
AcDbHatch
 10
0.0
 20
0.0
 30
0.0
210
0.0
220
0.0
230
1.0
  2
SOLID
 70
         1
 71
         1
 91
        1
 92
        1
 93
        1
 72
         2
 10
68.599999999999994
 20
3.5
 40
0.45
 50
0.0
 51
360.0
 73
         1
 97
        1
330
244
 75
         0
 76
         1
 98
        1
 10
0.0
 20
0.0
  0
CIRCLE
  5
246
100
AcDbEntity
  8
PART_HOLES_LAYER_TOP
100
AcDbCircle
 10
66.06
 20
3.5
 30
0.0
 40
0.45
  0
HATCH
  5
247
100
AcDbEntity
  8
PART_HOLES_LAYER_TOP
100
AcDbHatch
 10
0.0
 20
0.0
 30
0.0
210
0.0
220
0.0
230
1.0
  2
SOLID
 70
         1
 71
         1
 91
        1
 92
        1
 93
        1
 72
         2
 10
66.060000000000002
 20
3.5
 40
0.45
 50
0.0
 51
360.0
 73
         1
 97
        1
330
246
 75
         0
 76
         1
 98
        1
 10
0.0
 20
0.0
  0
CIRCLE
  5
248
100
AcDbEntity
  8
PART_HOLES_LAYER_TOP
100
AcDbCircle
 10
44.6
 20
9.5
 30
0.0
 40
0.45
  0
HATCH
  5
249
100
AcDbEntity
  8
PART_HOLES_LAYER_TOP
100
AcDbHatch
 10
0.0
 20
0.0
 30
0.0
210
0.0
220
0.0
230
1.0
  2
SOLID
 70
         1
 71
         1
 91
        1
 92
        1
 93
        1
 72
         2
 10
44.600000000000001
 20
9.5
 40
0.45
 50
0.0
 51
360.0
 73
         1
 97
        1
330
248
 75
         0
 76
         1
 98
        1
 10
0.0
 20
0.0
  0
CIRCLE
  5
24A
100
AcDbEntity
  8
PART_HOLES_LAYER_TOP
100
AcDbCircle
 10
47.14
 20
9.5
 30
0.0
 40
0.45
  0
HATCH
  5
24B
100
AcDbEntity
  8
PART_HOLES_LAYER_TOP
100
AcDbHatch
 10
0.0
 20
0.0
 30
0.0
210
0.0
220
0.0
230
1.0
  2
SOLID
 70
         1
 71
         1
 91
        1
 92
        1
 93
        1
 72
         2
 10
47.140000000000001
 20
9.5
 40
0.45
 50
0.0
 51
360.0
 73
         1
 97
        1
330
24A
 75
         0
 76
         1
 98
        1
 10
0.0
 20
0.0
  0
CIRCLE
  5
24C
100
AcDbEntity
  8
PART_HOLES_LAYER_TOP
100
AcDbCircle
 10
16.1
 20
39.8
 30
0.0
 40
0.45
  0
HATCH
  5
24D
100
AcDbEntity
  8
PART_HOLES_LAYER_TOP
100
AcDbHatch
 10
0.0
 20
0.0
 30
0.0
210
0.0
220
0.0
230
1.0
  2
SOLID
 70
         1
 71
         1
 91
        1
 92
        1
 93
        1
 72
         2
 10
16.100000000000001
 20
39.799999999999997
 40
0.45
 50
0.0
 51
360.0
 73
         1
 97
        1
330
24C
 75
         0
 76
         1
 98
        1
 10
0.0
 20
0.0
  0
CIRCLE
  5
24E
100
AcDbEntity
  8
PART_HOLES_LAYER_TOP
100
AcDbCircle
 10
14.1
 20
39.8
 30
0.0
 40
0.45
  0
HATCH
  5
24F
100
AcDbEntity
  8
PART_HOLES_LAYER_TOP
100
AcDbHatch
 10
0.0
 20
0.0
 30
0.0
210
0.0
220
0.0
230
1.0
  2
SOLID
 70
         1
 71
         1
 91
        1
 92
        1
 93
        1
 72
         2
 10
14.1
 20
39.799999999999997
 40
0.45
 50
0.0
 51
360.0
 73
         1
 97
        1
330
24E
 75
         0
 76
         1
 98
        1
 10
0.0
 20
0.0
  0
CIRCLE
  5
250
100
AcDbEntity
  8
PART_HOLES_LAYER_TOP
100
AcDbCircle
 10
84.22
 20
12.3
 30
0.0
 40
0.4
  0
HATCH
  5
251
100
AcDbEntity
  8
PART_HOLES_LAYER_TOP
100
AcDbHatch
 10
0.0
 20
0.0
 30
0.0
210
0.0
220
0.0
230
1.0
  2
SOLID
 70
         1
 71
         1
 91
        1
 92
        1
 93
        1
 72
         2
 10
84.219999999999999
 20
12.300000000000001
 40
0.4
 50
0.0
 51
360.0
 73
         1
 97
        1
330
250
 75
         0
 76
         1
 98
        1
 10
0.0
 20
0.0
  0
CIRCLE
  5
252
100
AcDbEntity
  8
PART_HOLES_LAYER_TOP
100
AcDbCircle
 10
81.68
 20
12.3
 30
0.0
 40
0.45
  0
HATCH
  5
253
100
AcDbEntity
  8
PART_HOLES_LAYER_TOP
100
AcDbHatch
 10
0.0
 20
0.0
 30
0.0
210
0.0
220
0.0
230
1.0
  2
SOLID
 70
         1
 71
         1
 91
        1
 92
        1
 93
        1
 72
         2
 10
81.680000000000007
 20
12.300000000000001
 40
0.45
 50
0.0
 51
360.0
 73
         1
 97
        1
330
252
 75
         0
 76
         1
 98
        1
 10
0.0
 20
0.0
  0
CIRCLE
  5
254
100
AcDbEntity
  8
PART_HOLES_LAYER_TOP
100
AcDbCircle
 10
76.6
 20
12.3
 30
0.0
 40
0.45
  0
HATCH
  5
255
100
AcDbEntity
  8
PART_HOLES_LAYER_TOP
100
AcDbHatch
 10
0.0
 20
0.0
 30
0.0
210
0.0
220
0.0
230
1.0
  2
SOLID
 70
         1
 71
         1
 91
        1
 92
        1
 93
        1
 72
         2
 10
76.599999999999994
 20
12.300000000000001
 40
0.45
 50
0.0
 51
360.0
 73
         1
 97
        1
330
254
 75
         0
 76
         1
 98
        1
 10
0.0
 20
0.0
  0
CIRCLE
  5
256
100
AcDbEntity
  8
PART_HOLES_LAYER_TOP
100
AcDbCircle
 10
79.14
 20
12.3
 30
0.0
 40
0.45
  0
HATCH
  5
257
100
AcDbEntity
  8
PART_HOLES_LAYER_TOP
100
AcDbHatch
 10
0.0
 20
0.0
 30
0.0
210
0.0
220
0.0
230
1.0
  2
SOLID
 70
         1
 71
         1
 91
        1
 92
        1
 93
        1
 72
         2
 10
79.140000000000001
 20
12.300000000000001
 40
0.45
 50
0.0
 51
360.0
 73
         1
 97
        1
330
256
 75
         0
 76
         1
 98
        1
 10
0.0
 20
0.0
  0
CIRCLE
  5
258
100
AcDbEntity
  8
PART_HOLES_LAYER_TOP
100
AcDbCircle
 10
83.72
 20
10.0
 30
0.0
 40
0.45
  0
HATCH
  5
259
100
AcDbEntity
  8
PART_HOLES_LAYER_TOP
100
AcDbHatch
 10
0.0
 20
0.0
 30
0.0
210
0.0
220
0.0
230
1.0
  2
SOLID
 70
         1
 71
         1
 91
        1
 92
        1
 93
        1
 72
         2
 10
83.719999999999999
 20
10.0
 40
0.45
 50
0.0
 51
360.0
 73
         1
 97
        1
330
258
 75
         0
 76
         1
 98
        1
 10
0.0
 20
0.0
  0
CIRCLE
  5
25A
100
AcDbEntity
  8
PART_HOLES_LAYER_TOP
100
AcDbCircle
 10
79.22
 20
10.0
 30
0.0
 40
0.45
  0
HATCH
  5
25B
100
AcDbEntity
  8
PART_HOLES_LAYER_TOP
100
AcDbHatch
 10
0.0
 20
0.0
 30
0.0
210
0.0
220
0.0
230
1.0
  2
SOLID
 70
         1
 71
         1
 91
        1
 92
        1
 93
        1
 72
         2
 10
79.219999999999999
 20
10.0
 40
0.45
 50
0.0
 51
360.0
 73
         1
 97
        1
330
25A
 75
         0
 76
         1
 98
        1
 10
0.0
 20
0.0
  0
CIRCLE
  5
25C
100
AcDbEntity
  8
PART_HOLES_LAYER_TOP
100
AcDbCircle
 10
73.62
 20
7.28
 30
0.0
 40
1.25
  0
HATCH
  5
25D
100
AcDbEntity
  8
PART_HOLES_LAYER_TOP
100
AcDbHatch
 10
0.0
 20
0.0
 30
0.0
210
0.0
220
0.0
230
1.0
  2
SOLID
 70
         1
 71
         1
 91
        1
 92
        1
 93
        1
 72
         2
 10
73.620000000000005
 20
7.2800000000000002
 40
1.25
 50
0.0
 51
360.0
 73
         1
 97
        1
330
25C
 75
         0
 76
         1
 98
        1
 10
0.0
 20
0.0
  0
CIRCLE
  5
25E
100
AcDbEntity
  8
PART_HOLES_LAYER_TOP
100
AcDbCircle
 10
86.82
 20
7.28
 30
0.0
 40
1.25
  0
HATCH
  5
25F
100
AcDbEntity
  8
PART_HOLES_LAYER_TOP
100
AcDbHatch
 10
0.0
 20
0.0
 30
0.0
210
0.0
220
0.0
230
1.0
  2
SOLID
 70
         1
 71
         1
 91
        1
 92
        1
 93
        1
 72
         2
 10
86.819999999999993
 20
7.2800000000000002
 40
1.25
 50
0.0
 51
360.0
 73
         1
 97
        1
330
25E
 75
         0
 76
         1
 98
        1
 10
0.0
 20
0.0
  0
CIRCLE
  5
260
100
AcDbEntity
  8
PART_HOLES_LAYER_TOP
100
AcDbCircle
 10
76.72
 20
10.0
 30
0.0
 40
0.45
  0
HATCH
  5
261
100
AcDbEntity
  8
PART_HOLES_LAYER_TOP
100
AcDbHatch
 10
0.0
 20
0.0
 30
0.0
210
0.0
220
0.0
230
1.0
  2
SOLID
 70
         1
 71
         1
 91
        1
 92
        1
 93
        1
 72
         2
 10
76.719999999999999
 20
10.0
 40
0.45
 50
0.0
 51
360.0
 73
         1
 97
        1
330
260
 75
         0
 76
         1
 98
        1
 10
0.0
 20
0.0
  0
CIRCLE
  5
262
100
AcDbEntity
  8
PART_HOLES_LAYER_TOP
100
AcDbCircle
 10
81.22
 20
10.0
 30
0.0
 40
0.45
  0
HATCH
  5
263
100
AcDbEntity
  8
PART_HOLES_LAYER_TOP
100
AcDbHatch
 10
0.0
 20
0.0
 30
0.0
210
0.0
220
0.0
230
1.0
  2
SOLID
 70
         1
 71
         1
 91
        1
 92
        1
 93
        1
 72
         2
 10
81.219999999999999
 20
10.0
 40
0.45
 50
0.0
 51
360.0
 73
         1
 97
        1
330
262
 75
         0
 76
         1
 98
        1
 10
0.0
 20
0.0
  0
CIRCLE
  5
264
100
AcDbEntity
  8
PART_HOLES_LAYER_TOP
100
AcDbCircle
 10
65.06
 20
9.7
 30
0.0
 40
0.45
  0
HATCH
  5
265
100
AcDbEntity
  8
PART_HOLES_LAYER_TOP
100
AcDbHatch
 10
0.0
 20
0.0
 30
0.0
210
0.0
220
0.0
230
1.0
  2
SOLID
 70
         1
 71
         1
 91
        1
 92
        1
 93
        1
 72
         2
 10
65.060000000000002
 20
9.6999999999999993
 40
0.45
 50
0.0
 51
360.0
 73
         1
 97
        1
330
264
 75
         0
 76
         1
 98
        1
 10
0.0
 20
0.0
  0
CIRCLE
  5
266
100
AcDbEntity
  8
PART_HOLES_LAYER_TOP
100
AcDbCircle
 10
67.6
 20
9.7
 30
0.0
 40
0.45
  0
HATCH
  5
267
100
AcDbEntity
  8
PART_HOLES_LAYER_TOP
100
AcDbHatch
 10
0.0
 20
0.0
 30
0.0
210
0.0
220
0.0
230
1.0
  2
SOLID
 70
         1
 71
         1
 91
        1
 92
        1
 93
        1
 72
         2
 10
67.599999999999994
 20
9.6999999999999993
 40
0.45
 50
0.0
 51
360.0
 73
         1
 97
        1
330
266
 75
         0
 76
         1
 98
        1
 10
0.0
 20
0.0
  0
CIRCLE
  5
268
100
AcDbEntity
  8
PART_HOLES_LAYER_TOP
100
AcDbCircle
 10
121.92
 20
55.49
 30
0.0
 40
0.45
  0
HATCH
  5
269
100
AcDbEntity
  8
PART_HOLES_LAYER_TOP
100
AcDbHatch
 10
0.0
 20
0.0
 30
0.0
210
0.0
220
0.0
230
1.0
  2
SOLID
 70
         1
 71
         1
 91
        1
 92
        1
 93
        1
 72
         2
 10
121.92
 20
55.490000000000002
 40
0.45
 50
0.0
 51
360.0
 73
         1
 97
        1
330
268
 75
         0
 76
         1
 98
        1
 10
0.0
 20
0.0
  0
CIRCLE
  5
26A
100
AcDbEntity
  8
PART_HOLES_LAYER_TOP
100
AcDbCircle
 10
124.46
 20
55.49
 30
0.0
 40
0.45
  0
HATCH
  5
26B
100
AcDbEntity
  8
PART_HOLES_LAYER_TOP
100
AcDbHatch
 10
0.0
 20
0.0
 30
0.0
210
0.0
220
0.0
230
1.0
  2
SOLID
 70
         1
 71
         1
 91
        1
 92
        1
 93
        1
 72
         2
 10
124.45999999999999
 20
55.490000000000002
 40
0.45
 50
0.0
 51
360.0
 73
         1
 97
        1
330
26A
 75
         0
 76
         1
 98
        1
 10
0.0
 20
0.0
  0
CIRCLE
  5
26C
100
AcDbEntity
  8
PART_HOLES_LAYER_TOP
100
AcDbCircle
 10
118.52
 20
10.91
 30
0.0
 40
0.6
  0
HATCH
  5
26D
100
AcDbEntity
  8
PART_HOLES_LAYER_TOP
100
AcDbHatch
 10
0.0
 20
0.0
 30
0.0
210
0.0
220
0.0
230
1.0
  2
SOLID
 70
         1
 71
         1
 91
        1
 92
        1
 93
        1
 72
         2
 10
118.52
 20
10.91
 40
0.6
 50
0.0
 51
360.0
 73
         1
 97
        1
330
26C
 75
         0
 76
         1
 98
        1
 10
0.0
 20
0.0
  0
CIRCLE
  5
26E
100
AcDbEntity
  8
PART_HOLES_LAYER_TOP
100
AcDbCircle
 10
126.83
 20
10.91
 30
0.0
 40
0.6
  0
HATCH
  5
26F
100
AcDbEntity
  8
PART_HOLES_LAYER_TOP
100
AcDbHatch
 10
0.0
 20
0.0
 30
0.0
210
0.0
220
0.0
230
1.0
  2
SOLID
 70
         1
 71
         1
 91
        1
 92
        1
 93
        1
 72
         2
 10
126.83
 20
10.91
 40
0.6
 50
0.0
 51
360.0
 73
         1
 97
        1
330
26E
 75
         0
 76
         1
 98
        1
 10
0.0
 20
0.0
  0
CIRCLE
  5
270
100
AcDbEntity
  8
PART_HOLES_LAYER_TOP
100
AcDbCircle
 10
129.6
 20
10.91
 30
0.0
 40
0.6
  0
HATCH
  5
271
100
AcDbEntity
  8
PART_HOLES_LAYER_TOP
100
AcDbHatch
 10
0.0
 20
0.0
 30
0.0
210
0.0
220
0.0
230
1.0
  2
SOLID
 70
         1
 71
         1
 91
        1
 92
        1
 93
        1
 72
         2
 10
129.59999999999999
 20
10.91
 40
0.6
 50
0.0
 51
360.0
 73
         1
 97
        1
330
270
 75
         0
 76
         1
 98
        1
 10
0.0
 20
0.0
  0
CIRCLE
  5
272
100
AcDbEntity
  8
PART_HOLES_LAYER_TOP
100
AcDbCircle
 10
119.905
 20
8.07
 30
0.0
 40
0.6
  0
HATCH
  5
273
100
AcDbEntity
  8
PART_HOLES_LAYER_TOP
100
AcDbHatch
 10
0.0
 20
0.0
 30
0.0
210
0.0
220
0.0
230
1.0
  2
SOLID
 70
         1
 71
         1
 91
        1
 92
        1
 93
        1
 72
         2
 10
119.905
 20
8.0700000000000003
 40
0.6
 50
0.0
 51
360.0
 73
         1
 97
        1
330
272
 75
         0
 76
         1
 98
        1
 10
0.0
 20
0.0
  0
CIRCLE
  5
274
100
AcDbEntity
  8
PART_HOLES_LAYER_TOP
100
AcDbCircle
 10
122.675
 20
8.07
 30
0.0
 40
0.6
  0
HATCH
  5
275
100
AcDbEntity
  8
PART_HOLES_LAYER_TOP
100
AcDbHatch
 10
0.0
 20
0.0
 30
0.0
210
0.0
220
0.0
230
1.0
  2
SOLID
 70
         1
 71
         1
 91
        1
 92
        1
 93
        1
 72
         2
 10
122.675
 20
8.0700000000000003
 40
0.6
 50
0.0
 51
360.0
 73
         1
 97
        1
330
274
 75
         0
 76
         1
 98
        1
 10
0.0
 20
0.0
  0
CIRCLE
  5
276
100
AcDbEntity
  8
PART_HOLES_LAYER_TOP
100
AcDbCircle
 10
125.445
 20
8.07
 30
0.0
 40
0.6
  0
HATCH
  5
277
100
AcDbEntity
  8
PART_HOLES_LAYER_TOP
100
AcDbHatch
 10
0.0
 20
0.0
 30
0.0
210
0.0
220
0.0
230
1.0
  2
SOLID
 70
         1
 71
         1
 91
        1
 92
        1
 93
        1
 72
         2
 10
125.44499999999999
 20
8.0700000000000003
 40
0.6
 50
0.0
 51
360.0
 73
         1
 97
        1
330
276
 75
         0
 76
         1
 98
        1
 10
0.0
 20
0.0
  0
CIRCLE
  5
278
100
AcDbEntity
  8
PART_HOLES_LAYER_TOP
100
AcDbCircle
 10
128.215
 20
8.07
 30
0.0
 40
0.6
  0
HATCH
  5
279
100
AcDbEntity
  8
PART_HOLES_LAYER_TOP
100
AcDbHatch
 10
0.0
 20
0.0
 30
0.0
210
0.0
220
0.0
230
1.0
  2
SOLID
 70
         1
 71
         1
 91
        1
 92
        1
 93
        1
 72
         2
 10
128.215
 20
8.0700000000000003
 40
0.6
 50
0.0
 51
360.0
 73
         1
 97
        1
330
278
 75
         0
 76
         1
 98
        1
 10
0.0
 20
0.0
  0
CIRCLE
  5
27A
100
AcDbEntity
  8
PART_HOLES_LAYER_TOP
100
AcDbCircle
 10
136.56
 20
9.49
 30
0.0
 40
1.5
  0
HATCH
  5
27B
100
AcDbEntity
  8
PART_HOLES_LAYER_TOP
100
AcDbHatch
 10
0.0
 20
0.0
 30
0.0
210
0.0
220
0.0
230
1.0
  2
SOLID
 70
         1
 71
         1
 91
        1
 92
        1
 93
        1
 72
         2
 10
136.56
 20
9.4900000000000002
 40
1.5
 50
0.0
 51
360.0
 73
         1
 97
        1
330
27A
 75
         0
 76
         1
 98
        1
 10
0.0
 20
0.0
  0
CIRCLE
  5
27C
100
AcDbEntity
  8
PART_HOLES_LAYER_TOP
100
AcDbCircle
 10
111.56
 20
9.49
 30
0.0
 40
1.5
  0
HATCH
  5
27D
100
AcDbEntity
  8
PART_HOLES_LAYER_TOP
100
AcDbHatch
 10
0.0
 20
0.0
 30
0.0
210
0.0
220
0.0
230
1.0
  2
SOLID
 70
         1
 71
         1
 91
        1
 92
        1
 93
        1
 72
         2
 10
111.56
 20
9.4900000000000002
 40
1.5
 50
0.0
 51
360.0
 73
         1
 97
        1
330
27C
 75
         0
 76
         1
 98
        1
 10
0.0
 20
0.0
  0
CIRCLE
  5
27E
100
AcDbEntity
  8
PART_HOLES_LAYER_TOP
100
AcDbCircle
 10
121.29
 20
10.91
 30
0.0
 40
0.6
  0
HATCH
  5
27F
100
AcDbEntity
  8
PART_HOLES_LAYER_TOP
100
AcDbHatch
 10
0.0
 20
0.0
 30
0.0
210
0.0
220
0.0
230
1.0
  2
SOLID
 70
         1
 71
         1
 91
        1
 92
        1
 93
        1
 72
         2
 10
121.29000000000001
 20
10.91
 40
0.6
 50
0.0
 51
360.0
 73
         1
 97
        1
330
27E
 75
         0
 76
         1
 98
        1
 10
0.0
 20
0.0
  0
CIRCLE
  5
280
100
AcDbEntity
  8
PART_HOLES_LAYER_TOP
100
AcDbCircle
 10
124.06
 20
10.91
 30
0.0
 40
0.6
  0
HATCH
  5
281
100
AcDbEntity
  8
PART_HOLES_LAYER_TOP
100
AcDbHatch
 10
0.0
 20
0.0
 30
0.0
210
0.0
220
0.0
230
1.0
  2
SOLID
 70
         1
 71
         1
 91
        1
 92
        1
 93
        1
 72
         2
 10
124.06
 20
10.91
 40
0.6
 50
0.0
 51
360.0
 73
         1
 97
        1
330
280
 75
         0
 76
         1
 98
        1
 10
0.0
 20
0.0
  0
CIRCLE
  5
282
100
AcDbEntity
  8
PART_HOLES_LAYER_TOP
100
AcDbCircle
 10
71.0
 20
61.6
 30
0.0
 40
0.95
  0
HATCH
  5
283
100
AcDbEntity
  8
PART_HOLES_LAYER_TOP
100
AcDbHatch
 10
0.0
 20
0.0
 30
0.0
210
0.0
220
0.0
230
1.0
  2
SOLID
 70
         1
 71
         1
 91
        1
 92
        1
 93
        1
 72
         2
 10
71.0
 20
61.600000000000001
 40
0.95
 50
0.0
 51
360.0
 73
         1
 97
        1
330
282
 75
         0
 76
         1
 98
        1
 10
0.0
 20
0.0
  0
CIRCLE
  5
284
100
AcDbEntity
  8
PART_HOLES_LAYER_TOP
100
AcDbCircle
 10
73.1
 20
59.1
 30
0.0
 40
0.95
  0
HATCH
  5
285
100
AcDbEntity
  8
PART_HOLES_LAYER_TOP
100
AcDbHatch
 10
0.0
 20
0.0
 30
0.0
210
0.0
220
0.0
230
1.0
  2
SOLID
 70
         1
 71
         1
 91
        1
 92
        1
 93
        1
 72
         2
 10
73.099999999999994
 20
59.100000000000001
 40
0.95
 50
0.0
 51
360.0
 73
         1
 97
        1
330
284
 75
         0
 76
         1
 98
        1
 10
0.0
 20
0.0
  0
CIRCLE
  5
286
100
AcDbEntity
  8
PART_HOLES_LAYER_TOP
100
AcDbCircle
 10
73.1
 20
53.5
 30
0.0
 40
0.95
  0
HATCH
  5
287
100
AcDbEntity
  8
PART_HOLES_LAYER_TOP
100
AcDbHatch
 10
0.0
 20
0.0
 30
0.0
210
0.0
220
0.0
230
1.0
  2
SOLID
 70
         1
 71
         1
 91
        1
 92
        1
 93
        1
 72
         2
 10
73.099999999999994
 20
53.5
 40
0.95
 50
0.0
 51
360.0
 73
         1
 97
        1
330
286
 75
         0
 76
         1
 98
        1
 10
0.0
 20
0.0
  0
CIRCLE
  5
288
100
AcDbEntity
  8
PART_HOLES_LAYER_TOP
100
AcDbCircle
 10
63.11
 20
27.46
 30
0.0
 40
0.45
  0
HATCH
  5
289
100
AcDbEntity
  8
PART_HOLES_LAYER_TOP
100
AcDbHatch
 10
0.0
 20
0.0
 30
0.0
210
0.0
220
0.0
230
1.0
  2
SOLID
 70
         1
 71
         1
 91
        1
 92
        1
 93
        1
 72
         2
 10
63.109999999999999
 20
27.460000000000001
 40
0.45
 50
0.0
 51
360.0
 73
         1
 97
        1
330
288
 75
         0
 76
         1
 98
        1
 10
0.0
 20
0.0
  0
CIRCLE
  5
28A
100
AcDbEntity
  8
PART_HOLES_LAYER_TOP
100
AcDbCircle
 10
63.11
 20
22.58
 30
0.0
 40
0.45
  0
HATCH
  5
28B
100
AcDbEntity
  8
PART_HOLES_LAYER_TOP
100
AcDbHatch
 10
0.0
 20
0.0
 30
0.0
210
0.0
220
0.0
230
1.0
  2
SOLID
 70
         1
 71
         1
 91
        1
 92
        1
 93
        1
 72
         2
 10
63.109999999999999
 20
22.579999999999998
 40
0.45
 50
0.0
 51
360.0
 73
         1
 97
        1
330
28A
 75
         0
 76
         1
 98
        1
 10
0.0
 20
0.0
  0
CIRCLE
  5
28C
100
AcDbEntity
  8
PART_HOLES_LAYER_TOP
100
AcDbCircle
 10
26.64
 20
48.9
 30
0.0
 40
0.45
  0
HATCH
  5
28D
100
AcDbEntity
  8
PART_HOLES_LAYER_TOP
100
AcDbHatch
 10
0.0
 20
0.0
 30
0.0
210
0.0
220
0.0
230
1.0
  2
SOLID
 70
         1
 71
         1
 91
        1
 92
        1
 93
        1
 72
         2
 10
26.640000000000001
 20
48.899999999999999
 40
0.45
 50
0.0
 51
360.0
 73
         1
 97
        1
330
28C
 75
         0
 76
         1
 98
        1
 10
0.0
 20
0.0
  0
CIRCLE
  5
28E
100
AcDbEntity
  8
PART_HOLES_LAYER_TOP
100
AcDbCircle
 10
29.18
 20
48.9
 30
0.0
 40
0.45
  0
HATCH
  5
28F
100
AcDbEntity
  8
PART_HOLES_LAYER_TOP
100
AcDbHatch
 10
0.0
 20
0.0
 30
0.0
210
0.0
220
0.0
230
1.0
  2
SOLID
 70
         1
 71
         1
 91
        1
 92
        1
 93
        1
 72
         2
 10
29.18
 20
48.899999999999999
 40
0.45
 50
0.0
 51
360.0
 73
         1
 97
        1
330
28E
 75
         0
 76
         1
 98
        1
 10
0.0
 20
0.0
  0
CIRCLE
  5
290
100
AcDbEntity
  8
PART_HOLES_LAYER_TOP
100
AcDbCircle
 10
24.1
 20
48.9
 30
0.0
 40
0.45
  0
HATCH
  5
291
100
AcDbEntity
  8
PART_HOLES_LAYER_TOP
100
AcDbHatch
 10
0.0
 20
0.0
 30
0.0
210
0.0
220
0.0
230
1.0
  2
SOLID
 70
         1
 71
         1
 91
        1
 92
        1
 93
        1
 72
         2
 10
24.100000000000001
 20
48.899999999999999
 40
0.45
 50
0.0
 51
360.0
 73
         1
 97
        1
330
290
 75
         0
 76
         1
 98
        1
 10
0.0
 20
0.0
  0
CIRCLE
  5
292
100
AcDbEntity
  8
PART_HOLES_LAYER_TOP
100
AcDbCircle
 10
125.5
 20
30.68
 30
0.0
 40
0.45
  0
HATCH
  5
293
100
AcDbEntity
  8
PART_HOLES_LAYER_TOP
100
AcDbHatch
 10
0.0
 20
0.0
 30
0.0
210
0.0
220
0.0
230
1.0
  2
SOLID
 70
         1
 71
         1
 91
        1
 92
        1
 93
        1
 72
         2
 10
125.5
 20
30.68
 40
0.45
 50
0.0
 51
360.0
 73
         1
 97
        1
330
292
 75
         0
 76
         1
 98
        1
 10
0.0
 20
0.0
  0
CIRCLE
  5
294
100
AcDbEntity
  8
PART_HOLES_LAYER_TOP
100
AcDbCircle
 10
128.04
 20
15.44
 30
0.0
 40
0.45
  0
HATCH
  5
295
100
AcDbEntity
  8
PART_HOLES_LAYER_TOP
100
AcDbHatch
 10
0.0
 20
0.0
 30
0.0
210
0.0
220
0.0
230
1.0
  2
SOLID
 70
         1
 71
         1
 91
        1
 92
        1
 93
        1
 72
         2
 10
128.03999999999999
 20
15.44
 40
0.45
 50
0.0
 51
360.0
 73
         1
 97
        1
330
294
 75
         0
 76
         1
 98
        1
 10
0.0
 20
0.0
  0
CIRCLE
  5
296
100
AcDbEntity
  8
PART_HOLES_LAYER_TOP
100
AcDbCircle
 10
128.04
 20
30.68
 30
0.0
 40
0.45
  0
HATCH
  5
297
100
AcDbEntity
  8
PART_HOLES_LAYER_TOP
100
AcDbHatch
 10
0.0
 20
0.0
 30
0.0
210
0.0
220
0.0
230
1.0
  2
SOLID
 70
         1
 71
         1
 91
        1
 92
        1
 93
        1
 72
         2
 10
128.03999999999999
 20
30.68
 40
0.45
 50
0.0
 51
360.0
 73
         1
 97
        1
330
296
 75
         0
 76
         1
 98
        1
 10
0.0
 20
0.0
  0
CIRCLE
  5
298
100
AcDbEntity
  8
PART_HOLES_LAYER_TOP
100
AcDbCircle
 10
125.5
 20
38.3
 30
0.0
 40
0.45
  0
HATCH
  5
299
100
AcDbEntity
  8
PART_HOLES_LAYER_TOP
100
AcDbHatch
 10
0.0
 20
0.0
 30
0.0
210
0.0
220
0.0
230
1.0
  2
SOLID
 70
         1
 71
         1
 91
        1
 92
        1
 93
        1
 72
         2
 10
125.5
 20
38.299999999999997
 40
0.45
 50
0.0
 51
360.0
 73
         1
 97
        1
330
298
 75
         0
 76
         1
 98
        1
 10
0.0
 20
0.0
  0
CIRCLE
  5
29A
100
AcDbEntity
  8
PART_HOLES_LAYER_TOP
100
AcDbCircle
 10
128.04
 20
38.3
 30
0.0
 40
0.45
  0
HATCH
  5
29B
100
AcDbEntity
  8
PART_HOLES_LAYER_TOP
100
AcDbHatch
 10
0.0
 20
0.0
 30
0.0
210
0.0
220
0.0
230
1.0
  2
SOLID
 70
         1
 71
         1
 91
        1
 92
        1
 93
        1
 72
         2
 10
128.03999999999999
 20
38.299999999999997
 40
0.45
 50
0.0
 51
360.0
 73
         1
 97
        1
330
29A
 75
         0
 76
         1
 98
        1
 10
0.0
 20
0.0
  0
CIRCLE
  5
29C
100
AcDbEntity
  8
PART_HOLES_LAYER_TOP
100
AcDbCircle
 10
125.5
 20
35.76
 30
0.0
 40
0.45
  0
HATCH
  5
29D
100
AcDbEntity
  8
PART_HOLES_LAYER_TOP
100
AcDbHatch
 10
0.0
 20
0.0
 30
0.0
210
0.0
220
0.0
230
1.0
  2
SOLID
 70
         1
 71
         1
 91
        1
 92
        1
 93
        1
 72
         2
 10
125.5
 20
35.759999999999998
 40
0.45
 50
0.0
 51
360.0
 73
         1
 97
        1
330
29C
 75
         0
 76
         1
 98
        1
 10
0.0
 20
0.0
  0
CIRCLE
  5
29E
100
AcDbEntity
  8
PART_HOLES_LAYER_TOP
100
AcDbCircle
 10
128.04
 20
35.76
 30
0.0
 40
0.45
  0
HATCH
  5
29F
100
AcDbEntity
  8
PART_HOLES_LAYER_TOP
100
AcDbHatch
 10
0.0
 20
0.0
 30
0.0
210
0.0
220
0.0
230
1.0
  2
SOLID
 70
         1
 71
         1
 91
        1
 92
        1
 93
        1
 72
         2
 10
128.03999999999999
 20
35.759999999999998
 40
0.45
 50
0.0
 51
360.0
 73
         1
 97
        1
330
29E
 75
         0
 76
         1
 98
        1
 10
0.0
 20
0.0
  0
CIRCLE
  5
2A0
100
AcDbEntity
  8
PART_HOLES_LAYER_TOP
100
AcDbCircle
 10
125.5
 20
33.22
 30
0.0
 40
0.45
  0
HATCH
  5
2A1
100
AcDbEntity
  8
PART_HOLES_LAYER_TOP
100
AcDbHatch
 10
0.0
 20
0.0
 30
0.0
210
0.0
220
0.0
230
1.0
  2
SOLID
 70
         1
 71
         1
 91
        1
 92
        1
 93
        1
 72
         2
 10
125.5
 20
33.219999999999999
 40
0.45
 50
0.0
 51
360.0
 73
         1
 97
        1
330
2A0
 75
         0
 76
         1
 98
        1
 10
0.0
 20
0.0
  0
CIRCLE
  5
2A2
100
AcDbEntity
  8
PART_HOLES_LAYER_TOP
100
AcDbCircle
 10
128.04
 20
33.22
 30
0.0
 40
0.45
  0
HATCH
  5
2A3
100
AcDbEntity
  8
PART_HOLES_LAYER_TOP
100
AcDbHatch
 10
0.0
 20
0.0
 30
0.0
210
0.0
220
0.0
230
1.0
  2
SOLID
 70
         1
 71
         1
 91
        1
 92
        1
 93
        1
 72
         2
 10
128.03999999999999
 20
33.219999999999999
 40
0.45
 50
0.0
 51
360.0
 73
         1
 97
        1
330
2A2
 75
         0
 76
         1
 98
        1
 10
0.0
 20
0.0
  0
CIRCLE
  5
2A4
100
AcDbEntity
  8
PART_HOLES_LAYER_TOP
100
AcDbCircle
 10
128.04
 20
17.98
 30
0.0
 40
0.45
  0
HATCH
  5
2A5
100
AcDbEntity
  8
PART_HOLES_LAYER_TOP
100
AcDbHatch
 10
0.0
 20
0.0
 30
0.0
210
0.0
220
0.0
230
1.0
  2
SOLID
 70
         1
 71
         1
 91
        1
 92
        1
 93
        1
 72
         2
 10
128.03999999999999
 20
17.98
 40
0.45
 50
0.0
 51
360.0
 73
         1
 97
        1
330
2A4
 75
         0
 76
         1
 98
        1
 10
0.0
 20
0.0
  0
CIRCLE
  5
2A6
100
AcDbEntity
  8
PART_HOLES_LAYER_TOP
100
AcDbCircle
 10
125.5
 20
28.14
 30
0.0
 40
0.45
  0
HATCH
  5
2A7
100
AcDbEntity
  8
PART_HOLES_LAYER_TOP
100
AcDbHatch
 10
0.0
 20
0.0
 30
0.0
210
0.0
220
0.0
230
1.0
  2
SOLID
 70
         1
 71
         1
 91
        1
 92
        1
 93
        1
 72
         2
 10
125.5
 20
28.140000000000001
 40
0.45
 50
0.0
 51
360.0
 73
         1
 97
        1
330
2A6
 75
         0
 76
         1
 98
        1
 10
0.0
 20
0.0
  0
CIRCLE
  5
2A8
100
AcDbEntity
  8
PART_HOLES_LAYER_TOP
100
AcDbCircle
 10
128.04
 20
25.6
 30
0.0
 40
0.45
  0
HATCH
  5
2A9
100
AcDbEntity
  8
PART_HOLES_LAYER_TOP
100
AcDbHatch
 10
0.0
 20
0.0
 30
0.0
210
0.0
220
0.0
230
1.0
  2
SOLID
 70
         1
 71
         1
 91
        1
 92
        1
 93
        1
 72
         2
 10
128.03999999999999
 20
25.600000000000001
 40
0.45
 50
0.0
 51
360.0
 73
         1
 97
        1
330
2A8
 75
         0
 76
         1
 98
        1
 10
0.0
 20
0.0
  0
CIRCLE
  5
2AA
100
AcDbEntity
  8
PART_HOLES_LAYER_TOP
100
AcDbCircle
 10
128.04
 20
20.52
 30
0.0
 40
0.45
  0
HATCH
  5
2AB
100
AcDbEntity
  8
PART_HOLES_LAYER_TOP
100
AcDbHatch
 10
0.0
 20
0.0
 30
0.0
210
0.0
220
0.0
230
1.0
  2
SOLID
 70
         1
 71
         1
 91
        1
 92
        1
 93
        1
 72
         2
 10
128.03999999999999
 20
20.52
 40
0.45
 50
0.0
 51
360.0
 73
         1
 97
        1
330
2AA
 75
         0
 76
         1
 98
        1
 10
0.0
 20
0.0
  0
CIRCLE
  5
2AC
100
AcDbEntity
  8
PART_HOLES_LAYER_TOP
100
AcDbCircle
 10
125.5
 20
23.06
 30
0.0
 40
0.45
  0
HATCH
  5
2AD
100
AcDbEntity
  8
PART_HOLES_LAYER_TOP
100
AcDbHatch
 10
0.0
 20
0.0
 30
0.0
210
0.0
220
0.0
230
1.0
  2
SOLID
 70
         1
 71
         1
 91
        1
 92
        1
 93
        1
 72
         2
 10
125.5
 20
23.059999999999999
 40
0.45
 50
0.0
 51
360.0
 73
         1
 97
        1
330
2AC
 75
         0
 76
         1
 98
        1
 10
0.0
 20
0.0
  0
CIRCLE
  5
2AE
100
AcDbEntity
  8
PART_HOLES_LAYER_TOP
100
AcDbCircle
 10
128.04
 20
23.06
 30
0.0
 40
0.45
  0
HATCH
  5
2AF
100
AcDbEntity
  8
PART_HOLES_LAYER_TOP
100
AcDbHatch
 10
0.0
 20
0.0
 30
0.0
210
0.0
220
0.0
230
1.0
  2
SOLID
 70
         1
 71
         1
 91
        1
 92
        1
 93
        1
 72
         2
 10
128.03999999999999
 20
23.059999999999999
 40
0.45
 50
0.0
 51
360.0
 73
         1
 97
        1
330
2AE
 75
         0
 76
         1
 98
        1
 10
0.0
 20
0.0
  0
CIRCLE
  5
2B0
100
AcDbEntity
  8
PART_HOLES_LAYER_TOP
100
AcDbCircle
 10
125.5
 20
25.6
 30
0.0
 40
0.45
  0
HATCH
  5
2B1
100
AcDbEntity
  8
PART_HOLES_LAYER_TOP
100
AcDbHatch
 10
0.0
 20
0.0
 30
0.0
210
0.0
220
0.0
230
1.0
  2
SOLID
 70
         1
 71
         1
 91
        1
 92
        1
 93
        1
 72
         2
 10
125.5
 20
25.600000000000001
 40
0.45
 50
0.0
 51
360.0
 73
         1
 97
        1
330
2B0
 75
         0
 76
         1
 98
        1
 10
0.0
 20
0.0
  0
CIRCLE
  5
2B2
100
AcDbEntity
  8
PART_HOLES_LAYER_TOP
100
AcDbCircle
 10
128.04
 20
28.14
 30
0.0
 40
0.45
  0
HATCH
  5
2B3
100
AcDbEntity
  8
PART_HOLES_LAYER_TOP
100
AcDbHatch
 10
0.0
 20
0.0
 30
0.0
210
0.0
220
0.0
230
1.0
  2
SOLID
 70
         1
 71
         1
 91
        1
 92
        1
 93
        1
 72
         2
 10
128.03999999999999
 20
28.140000000000001
 40
0.45
 50
0.0
 51
360.0
 73
         1
 97
        1
330
2B2
 75
         0
 76
         1
 98
        1
 10
0.0
 20
0.0
  0
CIRCLE
  5
2B4
100
AcDbEntity
  8
PART_HOLES_LAYER_TOP
100
AcDbCircle
 10
125.5
 20
17.98
 30
0.0
 40
0.45
  0
HATCH
  5
2B5
100
AcDbEntity
  8
PART_HOLES_LAYER_TOP
100
AcDbHatch
 10
0.0
 20
0.0
 30
0.0
210
0.0
220
0.0
230
1.0
  2
SOLID
 70
         1
 71
         1
 91
        1
 92
        1
 93
        1
 72
         2
 10
125.5
 20
17.98
 40
0.45
 50
0.0
 51
360.0
 73
         1
 97
        1
330
2B4
 75
         0
 76
         1
 98
        1
 10
0.0
 20
0.0
  0
CIRCLE
  5
2B6
100
AcDbEntity
  8
PART_HOLES_LAYER_TOP
100
AcDbCircle
 10
125.5
 20
15.44
 30
0.0
 40
0.45
  0
HATCH
  5
2B7
100
AcDbEntity
  8
PART_HOLES_LAYER_TOP
100
AcDbHatch
 10
0.0
 20
0.0
 30
0.0
210
0.0
220
0.0
230
1.0
  2
SOLID
 70
         1
 71
         1
 91
        1
 92
        1
 93
        1
 72
         2
 10
125.5
 20
15.44
 40
0.45
 50
0.0
 51
360.0
 73
         1
 97
        1
330
2B6
 75
         0
 76
         1
 98
        1
 10
0.0
 20
0.0
  0
CIRCLE
  5
2B8
100
AcDbEntity
  8
PART_HOLES_LAYER_TOP
100
AcDbCircle
 10
125.5
 20
20.52
 30
0.0
 40
0.45
  0
HATCH
  5
2B9
100
AcDbEntity
  8
PART_HOLES_LAYER_TOP
100
AcDbHatch
 10
0.0
 20
0.0
 30
0.0
210
0.0
220
0.0
230
1.0
  2
SOLID
 70
         1
 71
         1
 91
        1
 92
        1
 93
        1
 72
         2
 10
125.5
 20
20.52
 40
0.45
 50
0.0
 51
360.0
 73
         1
 97
        1
330
2B8
 75
         0
 76
         1
 98
        1
 10
0.0
 20
0.0
  0
CIRCLE
  5
2BA
100
AcDbEntity
  8
PART_HOLES_LAYER_TOP
100
AcDbCircle
 10
132.6
 20
51.9
 30
0.0
 40
0.45
  0
HATCH
  5
2BB
100
AcDbEntity
  8
PART_HOLES_LAYER_TOP
100
AcDbHatch
 10
0.0
 20
0.0
 30
0.0
210
0.0
220
0.0
230
1.0
  2
SOLID
 70
         1
 71
         1
 91
        1
 92
        1
 93
        1
 72
         2
 10
132.59999999999999
 20
51.899999999999999
 40
0.45
 50
0.0
 51
360.0
 73
         1
 97
        1
330
2BA
 75
         0
 76
         1
 98
        1
 10
0.0
 20
0.0
  0
CIRCLE
  5
2BC
100
AcDbEntity
  8
PART_HOLES_LAYER_TOP
100
AcDbCircle
 10
135.14
 20
51.9
 30
0.0
 40
0.45
  0
HATCH
  5
2BD
100
AcDbEntity
  8
PART_HOLES_LAYER_TOP
100
AcDbHatch
 10
0.0
 20
0.0
 30
0.0
210
0.0
220
0.0
230
1.0
  2
SOLID
 70
         1
 71
         1
 91
        1
 92
        1
 93
        1
 72
         2
 10
135.13999999999999
 20
51.899999999999999
 40
0.45
 50
0.0
 51
360.0
 73
         1
 97
        1
330
2BC
 75
         0
 76
         1
 98
        1
 10
0.0
 20
0.0
  0
CIRCLE
  5
2BE
100
AcDbEntity
  8
PART_HOLES_LAYER_TOP
100
AcDbCircle
 10
137.68
 20
51.9
 30
0.0
 40
0.45
  0
HATCH
  5
2BF
100
AcDbEntity
  8
PART_HOLES_LAYER_TOP
100
AcDbHatch
 10
0.0
 20
0.0
 30
0.0
210
0.0
220
0.0
230
1.0
  2
SOLID
 70
         1
 71
         1
 91
        1
 92
        1
 93
        1
 72
         2
 10
137.68000000000001
 20
51.899999999999999
 40
0.45
 50
0.0
 51
360.0
 73
         1
 97
        1
330
2BE
 75
         0
 76
         1
 98
        1
 10
0.0
 20
0.0
  0
CIRCLE
  5
2C0
100
AcDbEntity
  8
PART_HOLES_LAYER_TOP
100
AcDbCircle
 10
58.91
 20
10.0
 30
0.0
 40
0.45
  0
HATCH
  5
2C1
100
AcDbEntity
  8
PART_HOLES_LAYER_TOP
100
AcDbHatch
 10
0.0
 20
0.0
 30
0.0
210
0.0
220
0.0
230
1.0
  2
SOLID
 70
         1
 71
         1
 91
        1
 92
        1
 93
        1
 72
         2
 10
58.909999999999997
 20
10.0
 40
0.45
 50
0.0
 51
360.0
 73
         1
 97
        1
330
2C0
 75
         0
 76
         1
 98
        1
 10
0.0
 20
0.0
  0
CIRCLE
  5
2C2
100
AcDbEntity
  8
PART_HOLES_LAYER_TOP
100
AcDbCircle
 10
54.41
 20
10.0
 30
0.0
 40
0.45
  0
HATCH
  5
2C3
100
AcDbEntity
  8
PART_HOLES_LAYER_TOP
100
AcDbHatch
 10
0.0
 20
0.0
 30
0.0
210
0.0
220
0.0
230
1.0
  2
SOLID
 70
         1
 71
         1
 91
        1
 92
        1
 93
        1
 72
         2
 10
54.409999999999997
 20
10.0
 40
0.45
 50
0.0
 51
360.0
 73
         1
 97
        1
330
2C2
 75
         0
 76
         1
 98
        1
 10
0.0
 20
0.0
  0
CIRCLE
  5
2C4
100
AcDbEntity
  8
PART_HOLES_LAYER_TOP
100
AcDbCircle
 10
56.41
 20
10.0
 30
0.0
 40
0.45
  0
HATCH
  5
2C5
100
AcDbEntity
  8
PART_HOLES_LAYER_TOP
100
AcDbHatch
 10
0.0
 20
0.0
 30
0.0
210
0.0
220
0.0
230
1.0
  2
SOLID
 70
         1
 71
         1
 91
        1
 92
        1
 93
        1
 72
         2
 10
56.409999999999997
 20
10.0
 40
0.45
 50
0.0
 51
360.0
 73
         1
 97
        1
330
2C4
 75
         0
 76
         1
 98
        1
 10
0.0
 20
0.0
  0
CIRCLE
  5
2C6
100
AcDbEntity
  8
PART_HOLES_LAYER_TOP
100
AcDbCircle
 10
48.81
 20
7.28
 30
0.0
 40
1.25
  0
HATCH
  5
2C7
100
AcDbEntity
  8
PART_HOLES_LAYER_TOP
100
AcDbHatch
 10
0.0
 20
0.0
 30
0.0
210
0.0
220
0.0
230
1.0
  2
SOLID
 70
         1
 71
         1
 91
        1
 92
        1
 93
        1
 72
         2
 10
48.810000000000002
 20
7.2800000000000002
 40
1.25
 50
0.0
 51
360.0
 73
         1
 97
        1
330
2C6
 75
         0
 76
         1
 98
        1
 10
0.0
 20
0.0
  0
CIRCLE
  5
2C8
100
AcDbEntity
  8
PART_HOLES_LAYER_TOP
100
AcDbCircle
 10
62.01
 20
7.28
 30
0.0
 40
1.25
  0
HATCH
  5
2C9
100
AcDbEntity
  8
PART_HOLES_LAYER_TOP
100
AcDbHatch
 10
0.0
 20
0.0
 30
0.0
210
0.0
220
0.0
230
1.0
  2
SOLID
 70
         1
 71
         1
 91
        1
 92
        1
 93
        1
 72
         2
 10
62.009999999999998
 20
7.2800000000000002
 40
1.25
 50
0.0
 51
360.0
 73
         1
 97
        1
330
2C8
 75
         0
 76
         1
 98
        1
 10
0.0
 20
0.0
  0
CIRCLE
  5
2CA
100
AcDbEntity
  8
PART_HOLES_LAYER_TOP
100
AcDbCircle
 10
51.91
 20
10.0
 30
0.0
 40
0.45
  0
HATCH
  5
2CB
100
AcDbEntity
  8
PART_HOLES_LAYER_TOP
100
AcDbHatch
 10
0.0
 20
0.0
 30
0.0
210
0.0
220
0.0
230
1.0
  2
SOLID
 70
         1
 71
         1
 91
        1
 92
        1
 93
        1
 72
         2
 10
51.909999999999997
 20
10.0
 40
0.45
 50
0.0
 51
360.0
 73
         1
 97
        1
330
2CA
 75
         0
 76
         1
 98
        1
 10
0.0
 20
0.0
  0
CIRCLE
  5
2CC
100
AcDbEntity
  8
PART_HOLES_LAYER_TOP
100
AcDbCircle
 10
13.12
 20
61.61
 30
0.0
 40
0.45
  0
HATCH
  5
2CD
100
AcDbEntity
  8
PART_HOLES_LAYER_TOP
100
AcDbHatch
 10
0.0
 20
0.0
 30
0.0
210
0.0
220
0.0
230
1.0
  2
SOLID
 70
         1
 71
         1
 91
        1
 92
        1
 93
        1
 72
         2
 10
13.119999999999999
 20
61.609999999999999
 40
0.45
 50
0.0
 51
360.0
 73
         1
 97
        1
330
2CC
 75
         0
 76
         1
 98
        1
 10
0.0
 20
0.0
  0
CIRCLE
  5
2CE
100
AcDbEntity
  8
PART_HOLES_LAYER_TOP
100
AcDbCircle
 10
10.58
 20
59.07
 30
0.0
 40
0.45
  0
HATCH
  5
2CF
100
AcDbEntity
  8
PART_HOLES_LAYER_TOP
100
AcDbHatch
 10
0.0
 20
0.0
 30
0.0
210
0.0
220
0.0
230
1.0
  2
SOLID
 70
         1
 71
         1
 91
        1
 92
        1
 93
        1
 72
         2
 10
10.58
 20
59.07
 40
0.45
 50
0.0
 51
360.0
 73
         1
 97
        1
330
2CE
 75
         0
 76
         1
 98
        1
 10
0.0
 20
0.0
  0
CIRCLE
  5
2D0
100
AcDbEntity
  8
PART_HOLES_LAYER_TOP
100
AcDbCircle
 10
33.44
 20
59.07
 30
0.0
 40
0.45
  0
HATCH
  5
2D1
100
AcDbEntity
  8
PART_HOLES_LAYER_TOP
100
AcDbHatch
 10
0.0
 20
0.0
 30
0.0
210
0.0
220
0.0
230
1.0
  2
SOLID
 70
         1
 71
         1
 91
        1
 92
        1
 93
        1
 72
         2
 10
33.439999999999998
 20
59.07
 40
0.45
 50
0.0
 51
360.0
 73
         1
 97
        1
330
2D0
 75
         0
 76
         1
 98
        1
 10
0.0
 20
0.0
  0
CIRCLE
  5
2D2
100
AcDbEntity
  8
PART_HOLES_LAYER_TOP
100
AcDbCircle
 10
38.52
 20
59.07
 30
0.0
 40
0.45
  0
HATCH
  5
2D3
100
AcDbEntity
  8
PART_HOLES_LAYER_TOP
100
AcDbHatch
 10
0.0
 20
0.0
 30
0.0
210
0.0
220
0.0
230
1.0
  2
SOLID
 70
         1
 71
         1
 91
        1
 92
        1
 93
        1
 72
         2
 10
38.520000000000003
 20
59.07
 40
0.45
 50
0.0
 51
360.0
 73
         1
 97
        1
330
2D2
 75
         0
 76
         1
 98
        1
 10
0.0
 20
0.0
  0
CIRCLE
  5
2D4
100
AcDbEntity
  8
PART_HOLES_LAYER_TOP
100
AcDbCircle
 10
41.06
 20
59.07
 30
0.0
 40
0.45
  0
HATCH
  5
2D5
100
AcDbEntity
  8
PART_HOLES_LAYER_TOP
100
AcDbHatch
 10
0.0
 20
0.0
 30
0.0
210
0.0
220
0.0
230
1.0
  2
SOLID
 70
         1
 71
         1
 91
        1
 92
        1
 93
        1
 72
         2
 10
41.060000000000002
 20
59.07
 40
0.45
 50
0.0
 51
360.0
 73
         1
 97
        1
330
2D4
 75
         0
 76
         1
 98
        1
 10
0.0
 20
0.0
  0
CIRCLE
  5
2D6
100
AcDbEntity
  8
PART_HOLES_LAYER_TOP
100
AcDbCircle
 10
43.6
 20
59.07
 30
0.0
 40
0.45
  0
HATCH
  5
2D7
100
AcDbEntity
  8
PART_HOLES_LAYER_TOP
100
AcDbHatch
 10
0.0
 20
0.0
 30
0.0
210
0.0
220
0.0
230
1.0
  2
SOLID
 70
         1
 71
         1
 91
        1
 92
        1
 93
        1
 72
         2
 10
43.600000000000001
 20
59.07
 40
0.45
 50
0.0
 51
360.0
 73
         1
 97
        1
330
2D6
 75
         0
 76
         1
 98
        1
 10
0.0
 20
0.0
  0
CIRCLE
  5
2D8
100
AcDbEntity
  8
PART_HOLES_LAYER_TOP
100
AcDbCircle
 10
46.14
 20
59.07
 30
0.0
 40
0.45
  0
HATCH
  5
2D9
100
AcDbEntity
  8
PART_HOLES_LAYER_TOP
100
AcDbHatch
 10
0.0
 20
0.0
 30
0.0
210
0.0
220
0.0
230
1.0
  2
SOLID
 70
         1
 71
         1
 91
        1
 92
        1
 93
        1
 72
         2
 10
46.140000000000001
 20
59.07
 40
0.45
 50
0.0
 51
360.0
 73
         1
 97
        1
330
2D8
 75
         0
 76
         1
 98
        1
 10
0.0
 20
0.0
  0
CIRCLE
  5
2DA
100
AcDbEntity
  8
PART_HOLES_LAYER_TOP
100
AcDbCircle
 10
48.68
 20
59.07
 30
0.0
 40
0.45
  0
HATCH
  5
2DB
100
AcDbEntity
  8
PART_HOLES_LAYER_TOP
100
AcDbHatch
 10
0.0
 20
0.0
 30
0.0
210
0.0
220
0.0
230
1.0
  2
SOLID
 70
         1
 71
         1
 91
        1
 92
        1
 93
        1
 72
         2
 10
48.68
 20
59.07
 40
0.45
 50
0.0
 51
360.0
 73
         1
 97
        1
330
2DA
 75
         0
 76
         1
 98
        1
 10
0.0
 20
0.0
  0
CIRCLE
  5
2DC
100
AcDbEntity
  8
PART_HOLES_LAYER_TOP
100
AcDbCircle
 10
15.66
 20
61.61
 30
0.0
 40
0.45
  0
HATCH
  5
2DD
100
AcDbEntity
  8
PART_HOLES_LAYER_TOP
100
AcDbHatch
 10
0.0
 20
0.0
 30
0.0
210
0.0
220
0.0
230
1.0
  2
SOLID
 70
         1
 71
         1
 91
        1
 92
        1
 93
        1
 72
         2
 10
15.66
 20
61.609999999999999
 40
0.45
 50
0.0
 51
360.0
 73
         1
 97
        1
330
2DC
 75
         0
 76
         1
 98
        1
 10
0.0
 20
0.0
  0
CIRCLE
  5
2DE
100
AcDbEntity
  8
PART_HOLES_LAYER_TOP
100
AcDbCircle
 10
15.66
 20
59.07
 30
0.0
 40
0.45
  0
HATCH
  5
2DF
100
AcDbEntity
  8
PART_HOLES_LAYER_TOP
100
AcDbHatch
 10
0.0
 20
0.0
 30
0.0
210
0.0
220
0.0
230
1.0
  2
SOLID
 70
         1
 71
         1
 91
        1
 92
        1
 93
        1
 72
         2
 10
15.66
 20
59.07
 40
0.45
 50
0.0
 51
360.0
 73
         1
 97
        1
330
2DE
 75
         0
 76
         1
 98
        1
 10
0.0
 20
0.0
  0
CIRCLE
  5
2E0
100
AcDbEntity
  8
PART_HOLES_LAYER_TOP
100
AcDbCircle
 10
46.14
 20
61.61
 30
0.0
 40
0.45
  0
HATCH
  5
2E1
100
AcDbEntity
  8
PART_HOLES_LAYER_TOP
100
AcDbHatch
 10
0.0
 20
0.0
 30
0.0
210
0.0
220
0.0
230
1.0
  2
SOLID
 70
         1
 71
         1
 91
        1
 92
        1
 93
        1
 72
         2
 10
46.140000000000001
 20
61.609999999999999
 40
0.45
 50
0.0
 51
360.0
 73
         1
 97
        1
330
2E0
 75
         0
 76
         1
 98
        1
 10
0.0
 20
0.0
  0
CIRCLE
  5
2E2
100
AcDbEntity
  8
PART_HOLES_LAYER_TOP
100
AcDbCircle
 10
43.6
 20
61.61
 30
0.0
 40
0.45
  0
HATCH
  5
2E3
100
AcDbEntity
  8
PART_HOLES_LAYER_TOP
100
AcDbHatch
 10
0.0
 20
0.0
 30
0.0
210
0.0
220
0.0
230
1.0
  2
SOLID
 70
         1
 71
         1
 91
        1
 92
        1
 93
        1
 72
         2
 10
43.600000000000001
 20
61.609999999999999
 40
0.45
 50
0.0
 51
360.0
 73
         1
 97
        1
330
2E2
 75
         0
 76
         1
 98
        1
 10
0.0
 20
0.0
  0
CIRCLE
  5
2E4
100
AcDbEntity
  8
PART_HOLES_LAYER_TOP
100
AcDbCircle
 10
41.06
 20
61.61
 30
0.0
 40
0.45
  0
HATCH
  5
2E5
100
AcDbEntity
  8
PART_HOLES_LAYER_TOP
100
AcDbHatch
 10
0.0
 20
0.0
 30
0.0
210
0.0
220
0.0
230
1.0
  2
SOLID
 70
         1
 71
         1
 91
        1
 92
        1
 93
        1
 72
         2
 10
41.060000000000002
 20
61.609999999999999
 40
0.45
 50
0.0
 51
360.0
 73
         1
 97
        1
330
2E4
 75
         0
 76
         1
 98
        1
 10
0.0
 20
0.0
  0
CIRCLE
  5
2E6
100
AcDbEntity
  8
PART_HOLES_LAYER_TOP
100
AcDbCircle
 10
38.52
 20
61.61
 30
0.0
 40
0.45
  0
HATCH
  5
2E7
100
AcDbEntity
  8
PART_HOLES_LAYER_TOP
100
AcDbHatch
 10
0.0
 20
0.0
 30
0.0
210
0.0
220
0.0
230
1.0
  2
SOLID
 70
         1
 71
         1
 91
        1
 92
        1
 93
        1
 72
         2
 10
38.520000000000003
 20
61.609999999999999
 40
0.45
 50
0.0
 51
360.0
 73
         1
 97
        1
330
2E6
 75
         0
 76
         1
 98
        1
 10
0.0
 20
0.0
  0
CIRCLE
  5
2E8
100
AcDbEntity
  8
PART_HOLES_LAYER_TOP
100
AcDbCircle
 10
28.36
 20
59.07
 30
0.0
 40
0.45
  0
HATCH
  5
2E9
100
AcDbEntity
  8
PART_HOLES_LAYER_TOP
100
AcDbHatch
 10
0.0
 20
0.0
 30
0.0
210
0.0
220
0.0
230
1.0
  2
SOLID
 70
         1
 71
         1
 91
        1
 92
        1
 93
        1
 72
         2
 10
28.359999999999999
 20
59.07
 40
0.45
 50
0.0
 51
360.0
 73
         1
 97
        1
330
2E8
 75
         0
 76
         1
 98
        1
 10
0.0
 20
0.0
  0
CIRCLE
  5
2EA
100
AcDbEntity
  8
PART_HOLES_LAYER_TOP
100
AcDbCircle
 10
10.58
 20
61.61
 30
0.0
 40
0.45
  0
HATCH
  5
2EB
100
AcDbEntity
  8
PART_HOLES_LAYER_TOP
100
AcDbHatch
 10
0.0
 20
0.0
 30
0.0
210
0.0
220
0.0
230
1.0
  2
SOLID
 70
         1
 71
         1
 91
        1
 92
        1
 93
        1
 72
         2
 10
10.58
 20
61.609999999999999
 40
0.45
 50
0.0
 51
360.0
 73
         1
 97
        1
330
2EA
 75
         0
 76
         1
 98
        1
 10
0.0
 20
0.0
  0
CIRCLE
  5
2EC
100
AcDbEntity
  8
PART_HOLES_LAYER_TOP
100
AcDbCircle
 10
30.9
 20
61.61
 30
0.0
 40
0.45
  0
HATCH
  5
2ED
100
AcDbEntity
  8
PART_HOLES_LAYER_TOP
100
AcDbHatch
 10
0.0
 20
0.0
 30
0.0
210
0.0
220
0.0
230
1.0
  2
SOLID
 70
         1
 71
         1
 91
        1
 92
        1
 93
        1
 72
         2
 10
30.899999999999999
 20
61.609999999999999
 40
0.45
 50
0.0
 51
360.0
 73
         1
 97
        1
330
2EC
 75
         0
 76
         1
 98
        1
 10
0.0
 20
0.0
  0
CIRCLE
  5
2EE
100
AcDbEntity
  8
PART_HOLES_LAYER_TOP
100
AcDbCircle
 10
30.9
 20
59.07
 30
0.0
 40
0.45
  0
HATCH
  5
2EF
100
AcDbEntity
  8
PART_HOLES_LAYER_TOP
100
AcDbHatch
 10
0.0
 20
0.0
 30
0.0
210
0.0
220
0.0
230
1.0
  2
SOLID
 70
         1
 71
         1
 91
        1
 92
        1
 93
        1
 72
         2
 10
30.899999999999999
 20
59.07
 40
0.45
 50
0.0
 51
360.0
 73
         1
 97
        1
330
2EE
 75
         0
 76
         1
 98
        1
 10
0.0
 20
0.0
  0
CIRCLE
  5
2F0
100
AcDbEntity
  8
PART_HOLES_LAYER_TOP
100
AcDbCircle
 10
28.36
 20
61.61
 30
0.0
 40
0.45
  0
HATCH
  5
2F1
100
AcDbEntity
  8
PART_HOLES_LAYER_TOP
100
AcDbHatch
 10
0.0
 20
0.0
 30
0.0
210
0.0
220
0.0
230
1.0
  2
SOLID
 70
         1
 71
         1
 91
        1
 92
        1
 93
        1
 72
         2
 10
28.359999999999999
 20
61.609999999999999
 40
0.45
 50
0.0
 51
360.0
 73
         1
 97
        1
330
2F0
 75
         0
 76
         1
 98
        1
 10
0.0
 20
0.0
  0
CIRCLE
  5
2F2
100
AcDbEntity
  8
PART_HOLES_LAYER_TOP
100
AcDbCircle
 10
58.84
 20
61.61
 30
0.0
 40
0.45
  0
HATCH
  5
2F3
100
AcDbEntity
  8
PART_HOLES_LAYER_TOP
100
AcDbHatch
 10
0.0
 20
0.0
 30
0.0
210
0.0
220
0.0
230
1.0
  2
SOLID
 70
         1
 71
         1
 91
        1
 92
        1
 93
        1
 72
         2
 10
58.840000000000003
 20
61.609999999999999
 40
0.45
 50
0.0
 51
360.0
 73
         1
 97
        1
330
2F2
 75
         0
 76
         1
 98
        1
 10
0.0
 20
0.0
  0
CIRCLE
  5
2F4
100
AcDbEntity
  8
PART_HOLES_LAYER_TOP
100
AcDbCircle
 10
58.84
 20
59.07
 30
0.0
 40
0.45
  0
HATCH
  5
2F5
100
AcDbEntity
  8
PART_HOLES_LAYER_TOP
100
AcDbHatch
 10
0.0
 20
0.0
 30
0.0
210
0.0
220
0.0
230
1.0
  2
SOLID
 70
         1
 71
         1
 91
        1
 92
        1
 93
        1
 72
         2
 10
58.840000000000003
 20
59.07
 40
0.45
 50
0.0
 51
360.0
 73
         1
 97
        1
330
2F4
 75
         0
 76
         1
 98
        1
 10
0.0
 20
0.0
  0
CIRCLE
  5
2F6
100
AcDbEntity
  8
PART_HOLES_LAYER_TOP
100
AcDbCircle
 10
56.3
 20
59.07
 30
0.0
 40
0.45
  0
HATCH
  5
2F7
100
AcDbEntity
  8
PART_HOLES_LAYER_TOP
100
AcDbHatch
 10
0.0
 20
0.0
 30
0.0
210
0.0
220
0.0
230
1.0
  2
SOLID
 70
         1
 71
         1
 91
        1
 92
        1
 93
        1
 72
         2
 10
56.299999999999997
 20
59.07
 40
0.45
 50
0.0
 51
360.0
 73
         1
 97
        1
330
2F6
 75
         0
 76
         1
 98
        1
 10
0.0
 20
0.0
  0
CIRCLE
  5
2F8
100
AcDbEntity
  8
PART_HOLES_LAYER_TOP
100
AcDbCircle
 10
20.74
 20
61.61
 30
0.0
 40
0.45
  0
HATCH
  5
2F9
100
AcDbEntity
  8
PART_HOLES_LAYER_TOP
100
AcDbHatch
 10
0.0
 20
0.0
 30
0.0
210
0.0
220
0.0
230
1.0
  2
SOLID
 70
         1
 71
         1
 91
        1
 92
        1
 93
        1
 72
         2
 10
20.739999999999998
 20
61.609999999999999
 40
0.45
 50
0.0
 51
360.0
 73
         1
 97
        1
330
2F8
 75
         0
 76
         1
 98
        1
 10
0.0
 20
0.0
  0
CIRCLE
  5
2FA
100
AcDbEntity
  8
PART_HOLES_LAYER_TOP
100
AcDbCircle
 10
20.74
 20
59.07
 30
0.0
 40
0.45
  0
HATCH
  5
2FB
100
AcDbEntity
  8
PART_HOLES_LAYER_TOP
100
AcDbHatch
 10
0.0
 20
0.0
 30
0.0
210
0.0
220
0.0
230
1.0
  2
SOLID
 70
         1
 71
         1
 91
        1
 92
        1
 93
        1
 72
         2
 10
20.739999999999998
 20
59.07
 40
0.45
 50
0.0
 51
360.0
 73
         1
 97
        1
330
2FA
 75
         0
 76
         1
 98
        1
 10
0.0
 20
0.0
  0
CIRCLE
  5
2FC
100
AcDbEntity
  8
PART_HOLES_LAYER_TOP
100
AcDbCircle
 10
25.82
 20
61.61
 30
0.0
 40
0.45
  0
HATCH
  5
2FD
100
AcDbEntity
  8
PART_HOLES_LAYER_TOP
100
AcDbHatch
 10
0.0
 20
0.0
 30
0.0
210
0.0
220
0.0
230
1.0
  2
SOLID
 70
         1
 71
         1
 91
        1
 92
        1
 93
        1
 72
         2
 10
25.82
 20
61.609999999999999
 40
0.45
 50
0.0
 51
360.0
 73
         1
 97
        1
330
2FC
 75
         0
 76
         1
 98
        1
 10
0.0
 20
0.0
  0
CIRCLE
  5
2FE
100
AcDbEntity
  8
PART_HOLES_LAYER_TOP
100
AcDbCircle
 10
25.82
 20
59.07
 30
0.0
 40
0.45
  0
HATCH
  5
2FF
100
AcDbEntity
  8
PART_HOLES_LAYER_TOP
100
AcDbHatch
 10
0.0
 20
0.0
 30
0.0
210
0.0
220
0.0
230
1.0
  2
SOLID
 70
         1
 71
         1
 91
        1
 92
        1
 93
        1
 72
         2
 10
25.82
 20
59.07
 40
0.45
 50
0.0
 51
360.0
 73
         1
 97
        1
330
2FE
 75
         0
 76
         1
 98
        1
 10
0.0
 20
0.0
  0
CIRCLE
  5
300
100
AcDbEntity
  8
PART_HOLES_LAYER_TOP
100
AcDbCircle
 10
18.2
 20
61.61
 30
0.0
 40
0.45
  0
HATCH
  5
301
100
AcDbEntity
  8
PART_HOLES_LAYER_TOP
100
AcDbHatch
 10
0.0
 20
0.0
 30
0.0
210
0.0
220
0.0
230
1.0
  2
SOLID
 70
         1
 71
         1
 91
        1
 92
        1
 93
        1
 72
         2
 10
18.199999999999999
 20
61.609999999999999
 40
0.45
 50
0.0
 51
360.0
 73
         1
 97
        1
330
300
 75
         0
 76
         1
 98
        1
 10
0.0
 20
0.0
  0
CIRCLE
  5
302
100
AcDbEntity
  8
PART_HOLES_LAYER_TOP
100
AcDbCircle
 10
18.2
 20
59.07
 30
0.0
 40
0.45
  0
HATCH
  5
303
100
AcDbEntity
  8
PART_HOLES_LAYER_TOP
100
AcDbHatch
 10
0.0
 20
0.0
 30
0.0
210
0.0
220
0.0
230
1.0
  2
SOLID
 70
         1
 71
         1
 91
        1
 92
        1
 93
        1
 72
         2
 10
18.199999999999999
 20
59.07
 40
0.45
 50
0.0
 51
360.0
 73
         1
 97
        1
330
302
 75
         0
 76
         1
 98
        1
 10
0.0
 20
0.0
  0
CIRCLE
  5
304
100
AcDbEntity
  8
PART_HOLES_LAYER_TOP
100
AcDbCircle
 10
35.98
 20
61.61
 30
0.0
 40
0.45
  0
HATCH
  5
305
100
AcDbEntity
  8
PART_HOLES_LAYER_TOP
100
AcDbHatch
 10
0.0
 20
0.0
 30
0.0
210
0.0
220
0.0
230
1.0
  2
SOLID
 70
         1
 71
         1
 91
        1
 92
        1
 93
        1
 72
         2
 10
35.979999999999997
 20
61.609999999999999
 40
0.45
 50
0.0
 51
360.0
 73
         1
 97
        1
330
304
 75
         0
 76
         1
 98
        1
 10
0.0
 20
0.0
  0
CIRCLE
  5
306
100
AcDbEntity
  8
PART_HOLES_LAYER_TOP
100
AcDbCircle
 10
35.98
 20
59.07
 30
0.0
 40
0.45
  0
HATCH
  5
307
100
AcDbEntity
  8
PART_HOLES_LAYER_TOP
100
AcDbHatch
 10
0.0
 20
0.0
 30
0.0
210
0.0
220
0.0
230
1.0
  2
SOLID
 70
         1
 71
         1
 91
        1
 92
        1
 93
        1
 72
         2
 10
35.979999999999997
 20
59.07
 40
0.45
 50
0.0
 51
360.0
 73
         1
 97
        1
330
306
 75
         0
 76
         1
 98
        1
 10
0.0
 20
0.0
  0
CIRCLE
  5
308
100
AcDbEntity
  8
PART_HOLES_LAYER_TOP
100
AcDbCircle
 10
33.44
 20
61.61
 30
0.0
 40
0.45
  0
HATCH
  5
309
100
AcDbEntity
  8
PART_HOLES_LAYER_TOP
100
AcDbHatch
 10
0.0
 20
0.0
 30
0.0
210
0.0
220
0.0
230
1.0
  2
SOLID
 70
         1
 71
         1
 91
        1
 92
        1
 93
        1
 72
         2
 10
33.439999999999998
 20
61.609999999999999
 40
0.45
 50
0.0
 51
360.0
 73
         1
 97
        1
330
308
 75
         0
 76
         1
 98
        1
 10
0.0
 20
0.0
  0
CIRCLE
  5
30A
100
AcDbEntity
  8
PART_HOLES_LAYER_TOP
100
AcDbCircle
 10
48.68
 20
61.61
 30
0.0
 40
0.45
  0
HATCH
  5
30B
100
AcDbEntity
  8
PART_HOLES_LAYER_TOP
100
AcDbHatch
 10
0.0
 20
0.0
 30
0.0
210
0.0
220
0.0
230
1.0
  2
SOLID
 70
         1
 71
         1
 91
        1
 92
        1
 93
        1
 72
         2
 10
48.68
 20
61.609999999999999
 40
0.45
 50
0.0
 51
360.0
 73
         1
 97
        1
330
30A
 75
         0
 76
         1
 98
        1
 10
0.0
 20
0.0
  0
CIRCLE
  5
30C
100
AcDbEntity
  8
PART_HOLES_LAYER_TOP
100
AcDbCircle
 10
56.3
 20
61.61
 30
0.0
 40
0.45
  0
HATCH
  5
30D
100
AcDbEntity
  8
PART_HOLES_LAYER_TOP
100
AcDbHatch
 10
0.0
 20
0.0
 30
0.0
210
0.0
220
0.0
230
1.0
  2
SOLID
 70
         1
 71
         1
 91
        1
 92
        1
 93
        1
 72
         2
 10
56.299999999999997
 20
61.609999999999999
 40
0.45
 50
0.0
 51
360.0
 73
         1
 97
        1
330
30C
 75
         0
 76
         1
 98
        1
 10
0.0
 20
0.0
  0
CIRCLE
  5
30E
100
AcDbEntity
  8
PART_HOLES_LAYER_TOP
100
AcDbCircle
 10
13.12
 20
59.07
 30
0.0
 40
0.45
  0
HATCH
  5
30F
100
AcDbEntity
  8
PART_HOLES_LAYER_TOP
100
AcDbHatch
 10
0.0
 20
0.0
 30
0.0
210
0.0
220
0.0
230
1.0
  2
SOLID
 70
         1
 71
         1
 91
        1
 92
        1
 93
        1
 72
         2
 10
13.119999999999999
 20
59.07
 40
0.45
 50
0.0
 51
360.0
 73
         1
 97
        1
330
30E
 75
         0
 76
         1
 98
        1
 10
0.0
 20
0.0
  0
CIRCLE
  5
310
100
AcDbEntity
  8
PART_HOLES_LAYER_TOP
100
AcDbCircle
 10
53.76
 20
61.61
 30
0.0
 40
0.45
  0
HATCH
  5
311
100
AcDbEntity
  8
PART_HOLES_LAYER_TOP
100
AcDbHatch
 10
0.0
 20
0.0
 30
0.0
210
0.0
220
0.0
230
1.0
  2
SOLID
 70
         1
 71
         1
 91
        1
 92
        1
 93
        1
 72
         2
 10
53.759999999999998
 20
61.609999999999999
 40
0.45
 50
0.0
 51
360.0
 73
         1
 97
        1
330
310
 75
         0
 76
         1
 98
        1
 10
0.0
 20
0.0
  0
CIRCLE
  5
312
100
AcDbEntity
  8
PART_HOLES_LAYER_TOP
100
AcDbCircle
 10
53.76
 20
59.07
 30
0.0
 40
0.45
  0
HATCH
  5
313
100
AcDbEntity
  8
PART_HOLES_LAYER_TOP
100
AcDbHatch
 10
0.0
 20
0.0
 30
0.0
210
0.0
220
0.0
230
1.0
  2
SOLID
 70
         1
 71
         1
 91
        1
 92
        1
 93
        1
 72
         2
 10
53.759999999999998
 20
59.07
 40
0.45
 50
0.0
 51
360.0
 73
         1
 97
        1
330
312
 75
         0
 76
         1
 98
        1
 10
0.0
 20
0.0
  0
CIRCLE
  5
314
100
AcDbEntity
  8
PART_HOLES_LAYER_TOP
100
AcDbCircle
 10
51.22
 20
59.07
 30
0.0
 40
0.45
  0
HATCH
  5
315
100
AcDbEntity
  8
PART_HOLES_LAYER_TOP
100
AcDbHatch
 10
0.0
 20
0.0
 30
0.0
210
0.0
220
0.0
230
1.0
  2
SOLID
 70
         1
 71
         1
 91
        1
 92
        1
 93
        1
 72
         2
 10
51.219999999999999
 20
59.07
 40
0.45
 50
0.0
 51
360.0
 73
         1
 97
        1
330
314
 75
         0
 76
         1
 98
        1
 10
0.0
 20
0.0
  0
CIRCLE
  5
316
100
AcDbEntity
  8
PART_HOLES_LAYER_TOP
100
AcDbCircle
 10
51.22
 20
61.61
 30
0.0
 40
0.45
  0
HATCH
  5
317
100
AcDbEntity
  8
PART_HOLES_LAYER_TOP
100
AcDbHatch
 10
0.0
 20
0.0
 30
0.0
210
0.0
220
0.0
230
1.0
  2
SOLID
 70
         1
 71
         1
 91
        1
 92
        1
 93
        1
 72
         2
 10
51.219999999999999
 20
61.609999999999999
 40
0.45
 50
0.0
 51
360.0
 73
         1
 97
        1
330
316
 75
         0
 76
         1
 98
        1
 10
0.0
 20
0.0
  0
CIRCLE
  5
318
100
AcDbEntity
  8
PART_HOLES_LAYER_TOP
100
AcDbCircle
 10
23.28
 20
59.07
 30
0.0
 40
0.45
  0
HATCH
  5
319
100
AcDbEntity
  8
PART_HOLES_LAYER_TOP
100
AcDbHatch
 10
0.0
 20
0.0
 30
0.0
210
0.0
220
0.0
230
1.0
  2
SOLID
 70
         1
 71
         1
 91
        1
 92
        1
 93
        1
 72
         2
 10
23.280000000000001
 20
59.07
 40
0.45
 50
0.0
 51
360.0
 73
         1
 97
        1
330
318
 75
         0
 76
         1
 98
        1
 10
0.0
 20
0.0
  0
CIRCLE
  5
31A
100
AcDbEntity
  8
PART_HOLES_LAYER_TOP
100
AcDbCircle
 10
23.28
 20
61.61
 30
0.0
 40
0.45
  0
HATCH
  5
31B
100
AcDbEntity
  8
PART_HOLES_LAYER_TOP
100
AcDbHatch
 10
0.0
 20
0.0
 30
0.0
210
0.0
220
0.0
230
1.0
  2
SOLID
 70
         1
 71
         1
 91
        1
 92
        1
 93
        1
 72
         2
 10
23.280000000000001
 20
61.609999999999999
 40
0.45
 50
0.0
 51
360.0
 73
         1
 97
        1
330
31A
 75
         0
 76
         1
 98
        1
 10
0.0
 20
0.0
  0
CIRCLE
  5
31C
100
AcDbEntity
  8
PART_HOLES_LAYER_TOP
100
AcDbCircle
 10
101.015
 20
14.15
 30
0.0
 40
0.45
  0
HATCH
  5
31D
100
AcDbEntity
  8
PART_HOLES_LAYER_TOP
100
AcDbHatch
 10
0.0
 20
0.0
 30
0.0
210
0.0
220
0.0
230
1.0
  2
SOLID
 70
         1
 71
         1
 91
        1
 92
        1
 93
        1
 72
         2
 10
101.015
 20
14.15
 40
0.45
 50
0.0
 51
360.0
 73
         1
 97
        1
330
31C
 75
         0
 76
         1
 98
        1
 10
0.0
 20
0.0
  0
CIRCLE
  5
31E
100
AcDbEntity
  8
PART_HOLES_LAYER_TOP
100
AcDbCircle
 10
99.745
 20
16.69
 30
0.0
 40
0.45
  0
HATCH
  5
31F
100
AcDbEntity
  8
PART_HOLES_LAYER_TOP
100
AcDbHatch
 10
0.0
 20
0.0
 30
0.0
210
0.0
220
0.0
230
1.0
  2
SOLID
 70
         1
 71
         1
 91
        1
 92
        1
 93
        1
 72
         2
 10
99.745000000000005
 20
16.690000000000001
 40
0.45
 50
0.0
 51
360.0
 73
         1
 97
        1
330
31E
 75
         0
 76
         1
 98
        1
 10
0.0
 20
0.0
  0
CIRCLE
  5
320
100
AcDbEntity
  8
PART_HOLES_LAYER_TOP
100
AcDbCircle
 10
94.67
 20
7.8
 30
0.0
 40
1.625
  0
HATCH
  5
321
100
AcDbEntity
  8
PART_HOLES_LAYER_TOP
100
AcDbHatch
 10
0.0
 20
0.0
 30
0.0
210
0.0
220
0.0
230
1.0
  2
SOLID
 70
         1
 71
         1
 91
        1
 92
        1
 93
        1
 72
         2
 10
94.670000000000002
 20
7.7999999999999998
 40
1.625
 50
0.0
 51
360.0
 73
         1
 97
        1
330
320
 75
         0
 76
         1
 98
        1
 10
0.0
 20
0.0
  0
CIRCLE
  5
322
100
AcDbEntity
  8
PART_HOLES_LAYER_TOP
100
AcDbCircle
 10
106.09
 20
7.8
 30
0.0
 40
1.625
  0
HATCH
  5
323
100
AcDbEntity
  8
PART_HOLES_LAYER_TOP
100
AcDbHatch
 10
0.0
 20
0.0
 30
0.0
210
0.0
220
0.0
230
1.0
  2
SOLID
 70
         1
 71
         1
 91
        1
 92
        1
 93
        1
 72
         2
 10
106.09
 20
7.7999999999999998
 40
1.625
 50
0.0
 51
360.0
 73
         1
 97
        1
330
322
 75
         0
 76
         1
 98
        1
 10
0.0
 20
0.0
  0
CIRCLE
  5
324
100
AcDbEntity
  8
PART_HOLES_LAYER_TOP
100
AcDbCircle
 10
108.25
 20
10.85
 30
0.0
 40
0.95
  0
HATCH
  5
325
100
AcDbEntity
  8
PART_HOLES_LAYER_TOP
100
AcDbHatch
 10
0.0
 20
0.0
 30
0.0
210
0.0
220
0.0
230
1.0
  2
SOLID
 70
         1
 71
         1
 91
        1
 92
        1
 93
        1
 72
         2
 10
108.25
 20
10.85
 40
0.95
 50
0.0
 51
360.0
 73
         1
 97
        1
330
324
 75
         0
 76
         1
 98
        1
 10
0.0
 20
0.0
  0
CIRCLE
  5
326
100
AcDbEntity
  8
PART_HOLES_LAYER_TOP
100
AcDbCircle
 10
94.92
 20
21.52
 30
0.0
 40
0.75
  0
HATCH
  5
327
100
AcDbEntity
  8
PART_HOLES_LAYER_TOP
100
AcDbHatch
 10
0.0
 20
0.0
 30
0.0
210
0.0
220
0.0
230
1.0
  2
SOLID
 70
         1
 71
         1
 91
        1
 92
        1
 93
        1
 72
         2
 10
94.920000000000002
 20
21.52
 40
0.75
 50
0.0
 51
360.0
 73
         1
 97
        1
330
326
 75
         0
 76
         1
 98
        1
 10
0.0
 20
0.0
  0
CIRCLE
  5
328
100
AcDbEntity
  8
PART_HOLES_LAYER_TOP
100
AcDbCircle
 10
94.05
 20
2.72
 30
0.0
 40
0.6
  0
HATCH
  5
329
100
AcDbEntity
  8
PART_HOLES_LAYER_TOP
100
AcDbHatch
 10
0.0
 20
0.0
 30
0.0
210
0.0
220
0.0
230
1.0
  2
SOLID
 70
         1
 71
         1
 91
        1
 92
        1
 93
        1
 72
         2
 10
94.049999999999997
 20
2.7200000000000002
 40
0.6
 50
0.0
 51
360.0
 73
         1
 97
        1
330
328
 75
         0
 76
         1
 98
        1
 10
0.0
 20
0.0
  0
CIRCLE
  5
32A
100
AcDbEntity
  8
PART_HOLES_LAYER_TOP
100
AcDbCircle
 10
97.46
 20
21.52
 30
0.0
 40
0.75
  0
HATCH
  5
32B
100
AcDbEntity
  8
PART_HOLES_LAYER_TOP
100
AcDbHatch
 10
0.0
 20
0.0
 30
0.0
210
0.0
220
0.0
230
1.0
  2
SOLID
 70
         1
 71
         1
 91
        1
 92
        1
 93
        1
 72
         2
 10
97.459999999999994
 20
21.52
 40
0.75
 50
0.0
 51
360.0
 73
         1
 97
        1
330
32A
 75
         0
 76
         1
 98
        1
 10
0.0
 20
0.0
  0
CIRCLE
  5
32C
100
AcDbEntity
  8
PART_HOLES_LAYER_TOP
100
AcDbCircle
 10
96.59
 20
4.42
 30
0.0
 40
0.6
  0
HATCH
  5
32D
100
AcDbEntity
  8
PART_HOLES_LAYER_TOP
100
AcDbHatch
 10
0.0
 20
0.0
 30
0.0
210
0.0
220
0.0
230
1.0
  2
SOLID
 70
         1
 71
         1
 91
        1
 92
        1
 93
        1
 72
         2
 10
96.590000000000003
 20
4.4199999999999999
 40
0.6
 50
0.0
 51
360.0
 73
         1
 97
        1
330
32C
 75
         0
 76
         1
 98
        1
 10
0.0
 20
0.0
  0
CIRCLE
  5
32E
100
AcDbEntity
  8
PART_HOLES_LAYER_TOP
100
AcDbCircle
 10
103.3
 20
21.52
 30
0.0
 40
0.75
  0
HATCH
  5
32F
100
AcDbEntity
  8
PART_HOLES_LAYER_TOP
100
AcDbHatch
 10
0.0
 20
0.0
 30
0.0
210
0.0
220
0.0
230
1.0
  2
SOLID
 70
         1
 71
         1
 91
        1
 92
        1
 93
        1
 72
         2
 10
103.3
 20
21.52
 40
0.75
 50
0.0
 51
360.0
 73
         1
 97
        1
330
32E
 75
         0
 76
         1
 98
        1
 10
0.0
 20
0.0
  0
CIRCLE
  5
330
100
AcDbEntity
  8
PART_HOLES_LAYER_TOP
100
AcDbCircle
 10
104.17
 20
2.72
 30
0.0
 40
0.6
  0
HATCH
  5
331
100
AcDbEntity
  8
PART_HOLES_LAYER_TOP
100
AcDbHatch
 10
0.0
 20
0.0
 30
0.0
210
0.0
220
0.0
230
1.0
  2
SOLID
 70
         1
 71
         1
 91
        1
 92
        1
 93
        1
 72
         2
 10
104.17
 20
2.7200000000000002
 40
0.6
 50
0.0
 51
360.0
 73
         1
 97
        1
330
330
 75
         0
 76
         1
 98
        1
 10
0.0
 20
0.0
  0
CIRCLE
  5
332
100
AcDbEntity
  8
PART_HOLES_LAYER_TOP
100
AcDbCircle
 10
105.84
 20
21.52
 30
0.0
 40
0.75
  0
HATCH
  5
333
100
AcDbEntity
  8
PART_HOLES_LAYER_TOP
100
AcDbHatch
 10
0.0
 20
0.0
 30
0.0
210
0.0
220
0.0
230
1.0
  2
SOLID
 70
         1
 71
         1
 91
        1
 92
        1
 93
        1
 72
         2
 10
105.84
 20
21.52
 40
0.75
 50
0.0
 51
360.0
 73
         1
 97
        1
330
332
 75
         0
 76
         1
 98
        1
 10
0.0
 20
0.0
  0
CIRCLE
  5
334
100
AcDbEntity
  8
PART_HOLES_LAYER_TOP
100
AcDbCircle
 10
106.71
 20
4.42
 30
0.0
 40
0.6
  0
HATCH
  5
335
100
AcDbEntity
  8
PART_HOLES_LAYER_TOP
100
AcDbHatch
 10
0.0
 20
0.0
 30
0.0
210
0.0
220
0.0
230
1.0
  2
SOLID
 70
         1
 71
         1
 91
        1
 92
        1
 93
        1
 72
         2
 10
106.70999999999999
 20
4.4199999999999999
 40
0.6
 50
0.0
 51
360.0
 73
         1
 97
        1
330
334
 75
         0
 76
         1
 98
        1
 10
0.0
 20
0.0
  0
CIRCLE
  5
336
100
AcDbEntity
  8
PART_HOLES_LAYER_TOP
100
AcDbCircle
 10
95.935
 20
14.15
 30
0.0
 40
0.45
  0
HATCH
  5
337
100
AcDbEntity
  8
PART_HOLES_LAYER_TOP
100
AcDbHatch
 10
0.0
 20
0.0
 30
0.0
210
0.0
220
0.0
230
1.0
  2
SOLID
 70
         1
 71
         1
 91
        1
 92
        1
 93
        1
 72
         2
 10
95.935000000000002
 20
14.15
 40
0.45
 50
0.0
 51
360.0
 73
         1
 97
        1
330
336
 75
         0
 76
         1
 98
        1
 10
0.0
 20
0.0
  0
CIRCLE
  5
338
100
AcDbEntity
  8
PART_HOLES_LAYER_TOP
100
AcDbCircle
 10
104.825
 20
16.69
 30
0.0
 40
0.45
  0
HATCH
  5
339
100
AcDbEntity
  8
PART_HOLES_LAYER_TOP
100
AcDbHatch
 10
0.0
 20
0.0
 30
0.0
210
0.0
220
0.0
230
1.0
  2
SOLID
 70
         1
 71
         1
 91
        1
 92
        1
 93
        1
 72
         2
 10
104.825
 20
16.690000000000001
 40
0.45
 50
0.0
 51
360.0
 73
         1
 97
        1
330
338
 75
         0
 76
         1
 98
        1
 10
0.0
 20
0.0
  0
CIRCLE
  5
33A
100
AcDbEntity
  8
PART_HOLES_LAYER_TOP
100
AcDbCircle
 10
97.205
 20
16.69
 30
0.0
 40
0.45
  0
HATCH
  5
33B
100
AcDbEntity
  8
PART_HOLES_LAYER_TOP
100
AcDbHatch
 10
0.0
 20
0.0
 30
0.0
210
0.0
220
0.0
230
1.0
  2
SOLID
 70
         1
 71
         1
 91
        1
 92
        1
 93
        1
 72
         2
 10
97.204999999999998
 20
16.690000000000001
 40
0.45
 50
0.0
 51
360.0
 73
         1
 97
        1
330
33A
 75
         0
 76
         1
 98
        1
 10
0.0
 20
0.0
  0
CIRCLE
  5
33C
100
AcDbEntity
  8
PART_HOLES_LAYER_TOP
100
AcDbCircle
 10
92.51
 20
10.85
 30
0.0
 40
0.95
  0
HATCH
  5
33D
100
AcDbEntity
  8
PART_HOLES_LAYER_TOP
100
AcDbHatch
 10
0.0
 20
0.0
 30
0.0
210
0.0
220
0.0
230
1.0
  2
SOLID
 70
         1
 71
         1
 91
        1
 92
        1
 93
        1
 72
         2
 10
92.510000000000005
 20
10.85
 40
0.95
 50
0.0
 51
360.0
 73
         1
 97
        1
330
33C
 75
         0
 76
         1
 98
        1
 10
0.0
 20
0.0
  0
CIRCLE
  5
33E
100
AcDbEntity
  8
PART_HOLES_LAYER_TOP
100
AcDbCircle
 10
98.475
 20
14.15
 30
0.0
 40
0.45
  0
HATCH
  5
33F
100
AcDbEntity
  8
PART_HOLES_LAYER_TOP
100
AcDbHatch
 10
0.0
 20
0.0
 30
0.0
210
0.0
220
0.0
230
1.0
  2
SOLID
 70
         1
 71
         1
 91
        1
 92
        1
 93
        1
 72
         2
 10
98.474999999999994
 20
14.15
 40
0.45
 50
0.0
 51
360.0
 73
         1
 97
        1
330
33E
 75
         0
 76
         1
 98
        1
 10
0.0
 20
0.0
  0
CIRCLE
  5
340
100
AcDbEntity
  8
PART_HOLES_LAYER_TOP
100
AcDbCircle
 10
102.285
 20
16.69
 30
0.0
 40
0.45
  0
HATCH
  5
341
100
AcDbEntity
  8
PART_HOLES_LAYER_TOP
100
AcDbHatch
 10
0.0
 20
0.0
 30
0.0
210
0.0
220
0.0
230
1.0
  2
SOLID
 70
         1
 71
         1
 91
        1
 92
        1
 93
        1
 72
         2
 10
102.285
 20
16.690000000000001
 40
0.45
 50
0.0
 51
360.0
 73
         1
 97
        1
330
340
 75
         0
 76
         1
 98
        1
 10
0.0
 20
0.0
  0
CIRCLE
  5
342
100
AcDbEntity
  8
PART_HOLES_LAYER_TOP
100
AcDbCircle
 10
103.555
 20
14.15
 30
0.0
 40
0.45
  0
HATCH
  5
343
100
AcDbEntity
  8
PART_HOLES_LAYER_TOP
100
AcDbHatch
 10
0.0
 20
0.0
 30
0.0
210
0.0
220
0.0
230
1.0
  2
SOLID
 70
         1
 71
         1
 91
        1
 92
        1
 93
        1
 72
         2
 10
103.55500000000001
 20
14.15
 40
0.45
 50
0.0
 51
360.0
 73
         1
 97
        1
330
342
 75
         0
 76
         1
 98
        1
 10
0.0
 20
0.0
  0
ENDSEC
  0
SECTION
  2
OBJECTS
  0
DICTIONARY
  5
19
100
AcDbDictionary
  3
ACAD_GROUP
350
1A
  3
ACAD_MLINESTYLE
350
1B
  0
DICTIONARY
  5
1A
102
{ACAD_REACTORS
330
19
102
}
100
AcDbDictionary
  0
DICTIONARY
  5
1B
102
{ACAD_REACTORS
330
19
102
}
100
AcDbDictionary
  3
STANDARD
350
1C
  0
MLINESTYLE
  5
1C
102
{ACAD_REACTORS
330
1B
102
}
100
AcDbMlineStyle
  2
STANDARD
 70
         0
  3

 62
         0
 51
90.0
 52
90.0
 71
         2
 49
0.5
 62
       256
  6
BYLAYER
 49
-0.5
 62
       256
  6
BYLAYER
  0
DICTIONARY
  5
22
102
{ACAD_REACTORS
330
19
102
}
100
AcDbDictionary
  0
ENDSEC
  0
EOF
