  0
SECTION
  2
HEADER
  9
$ACADVER
  1
AC1014
  9
$ACADMAINTVER
 70
         0
  9
$DWGCODEPAGE
  3
ANSI_1252
  9
$INSBASE
 10
0.0
 20
0.0
 30
0.0
  9
$EXTMIN
 10
-9.59939
 20
-25.5
 30
0.0
  9
$EXTMAX
 10
150.097484
 20
71.632278
 30
0.0
  9
$LIMMIN
 10
0.0
 20
0.0
  9
$LIMMAX
 10
0.0
 20
0.0
  9
$ORTHOMODE
 70
         0
  9
$REGENMODE
 70
         1
  9
$FILLMODE
 70
         1
  9
$QTEXTMODE
 70
         0
  9
$MIRRTEXT
 70
         1
  9
$DRAGMODE
 70
         2
  9
$LTSCALE
 40
1.0
  9
$OSMODE
 70
         0
  9
$ATTMODE
 70
         1
  9
$TEXTSIZE
 40
0.2
  9
$TRACEWID
 40
0.05
  9
$TEXTSTYLE
  7
STANDARD
  9
$CLAYER
  8
0
  9
$CELTYPE
  6
CONTINUOUS
  9
$CECOLOR
 62
       256
  9
$CELTSCALE
 40
1.0
  9
$DELOBJ
 70
         1
  9
$DISPSILH
 70
         0
  9
$DIMSCALE
 40
1.0
  9
$DIMASZ
 40
0.18
  9
$DIMEXO
 40
0.0625
  9
$DIMDLI
 40
0.38
  9
$DIMRND
 40
0.0
  9
$DIMDLE
 40
0.0
  9
$DIMEXE
 40
0.18
  9
$DIMTP
 40
0.0
  9
$DIMTM
 40
0.0
  9
$DIMTXT
 40
0.18
  9
$DIMCEN
 40
0.09
  9
$DIMTSZ
 40
0.0
  9
$DIMTOL
 70
         0
  9
$DIMLIM
 70
         0
  9
$DIMTIH
 70
         1
  9
$DIMTOH
 70
         1
  9
$DIMSE1
 70
         0
  9
$DIMSE2
 70
         0
  9
$DIMTAD
 70
         0
  9
$DIMZIN
 70
         0
  9
$DIMBLK
  1

  9
$DIMASO
 70
         1
  9
$DIMSHO
 70
         1
  9
$DIMPOST
  1

  9
$DIMAPOST
  1

  9
$DIMALT
 70
         0
  9
$DIMALTD
 70
         2
  9
$DIMALTF
 40
25.4
  9
$DIMLFAC
 40
1.0
  9
$DIMTOFL
 70
         0
  9
$DIMTVP
 40
0.0
  9
$DIMTIX
 70
         0
  9
$DIMSOXD
 70
         0
  9
$DIMSAH
 70
         0
  9
$DIMBLK1
  1

  9
$DIMBLK2
  1

  9
$DIMSTYLE
  2
STANDARD
  9
$DIMCLRD
 70
         0
  9
$DIMCLRE
 70
         0
  9
$DIMCLRT
 70
         0
  9
$DIMTFAC
 40
1.0
  9
$DIMGAP
 40
0.09
  9
$DIMJUST
 70
         0
  9
$DIMSD1
 70
         0
  9
$DIMSD2
 70
         0
  9
$DIMTOLJ
 70
         1
  9
$DIMTZIN
 70
         0
  9
$DIMALTZ
 70
         0
  9
$DIMALTTZ
 70
         0
  9
$DIMFIT
 70
         3
  9
$DIMUPT
 70
         0
  9
$DIMUNIT
 70
         2
  9
$DIMDEC
 70
         4
  9
$DIMTDEC
 70
         4
  9
$DIMALTU
 70
         2
  9
$DIMALTTD
 70
         2
  9
$DIMTXSTY
  7
STANDARD
  9
$DIMAUNIT
 70
         0
  9
$LUNITS
 70
         2
  9
$LUPREC
 70
         4
  9
$SKETCHINC
 40
0.1
  9
$FILLETRAD
 40
0.0
  9
$AUNITS
 70
         0
  9
$AUPREC
 70
         0
  9
$MENU
  1
acad
  9
$ELEVATION
 40
0.0
  9
$PELEVATION
 40
0.0
  9
$THICKNESS
 40
0.0
  9
$LIMCHECK
 70
         0
  9
$BLIPMODE
 70
         1
  9
$CHAMFERA
 40
0.0
  9
$CHAMFERB
 40
0.0
  9
$CHAMFERC
 40
0.0
  9
$CHAMFERD
 40
0.0
  9
$SKPOLY
 70
         0
  9
$TDCREATE
 40
2455897.540891204
  9
$TDUPDATE
 40
0.000000000
  9
$TDINDWG
 40
0.0000000000
  9
$TDUSRTIMER
 40
0.0000000000
  9
$USRTIMER
 70
         1
  9
$ANGBASE
 50
0.0
  9
$ANGDIR
 70
         0
  9
$PDMODE
 70
         0
  9
$PDSIZE
 40
0.0
  9
$PLINEWID
 40
0.0
  9
$COORDS
 70
         0
  9
$SPLFRAME
 70
         0
  9
$SPLINETYPE
 70
         6
  9
$SPLINESEGS
 70
         8
  9
$ATTDIA
 70
         0
  9
$ATTREQ
 70
         1
  9
$HANDLING
 70
         1
  9
$HANDSEED
  5
2E0
  9
$SURFTAB1
 70
         6
  9
$SURFTAB2
 70
         6
  9
$SURFTYPE
 70
         6
  9
$SURFU
 70
         6
  9
$SURFV
 70
         6
  9
$UCSNAME
  2

  9
$UCSORG
 10
0.0
 20
0.0
 30
0.0
  9
$UCSXDIR
 10
1.0
 20
0.0
 30
0.0
  9
$UCSYDIR
 10
0.0
 20
1.0
 30
0.0
  9
$PUCSNAME
  2

  9
$PUCSORG
 10
0.0
 20
0.0
 30
0.0
  9
$PUCSXDIR
 10
1.0
 20
0.0
 30
0.0
  9
$PUCSYDIR
 10
0.0
 20
1.0
 30
0.0
  9
$USERI1
 70
        -3
  9
$USERI2
 70
         0
  9
$USERI3
 70
         0
  9
$USERI4
 70
         0
  9
$USERI5
 70
         0
  9
$USERR1
 40
0.0
  9
$USERR2
 40
0.0
  9
$USERR3
 40
0.0
  9
$USERR4
 40
0.0
  9
$USERR5
 40
0.0
  9
$WORLDVIEW
 70
         1
  9
$SHADEDGE
 70
         3
  9
$SHADEDIF
 70
        70
  9
$TILEMODE
 70
         1
  9
$MAXACTVP
 70
        16
  9
$PINSBASE
 10
0.0
 20
0.0
 30
0.0
  9
$PLIMCHECK
 70
         0
  9
$PEXTMIN
 10
1.0000000000E+20
 20
1.0000000000E+20
 30
1.0000000000E+20
  9
$PEXTMAX
 10
-1.0000000000E+20
 20
-1.0000000000E+20
 30
-1.0000000000E+20
  9
$PLIMMIN
 10
0.0
 20
0.0
  9
$PLIMMAX
 10
12.0
 20
9.0
  9
$UNITMODE
 70
         0
  9
$VISRETAIN
 70
         0
  9
$PLINEGEN
 70
         1
  9
$PSLTSCALE
 70
         0
  9
$TREEDEPTH
 70
      3020
  9
$PICKSTYLE
 70
         1
  9
$CMLSTYLE
  2
STANDARD
  9
$CMLJUST
 70
         0
  9
$CMLSCALE
 40
1.0
  9
$PROXYGRAPHICS
 70
         0
  9
$MEASUREMENT
 70
         0
  0
ENDSEC
  0
SECTION
  2
CLASSES
  0
CLASS
  1
LWPOLYLINE
  2
AcDbPolyline
  3
"AutoCAD"
 90
        0
280
         0
281
         1
  0
CLASS
  1
IMAGE
  2
AcDbRasterImage
  3
ISM
 90
      127
280
         0
281
         1
  0
CLASS
  1
OLE2FRAME
  2
AcDbOle2Frame
  3
""
 90
        0
280
         0
281
         1
  0
CLASS
  1
HATCH
  2
AcDbHatch
  3
"ACAD_SEDONA"
 90
        0
280
         0
281
         1
  0
CLASS
  1
DICTIONARYVAR
  2
AcDbDictionaryVar
  3
"AutoCAD"
 90
        0
280
         0
281
         0
  0
CLASS
  1
RASTERVARIABLES
  2
AcDbRasterVariables
  3
ISM
 90
        0
280
         0
281
         0
  0
CLASS
  1
IMAGEDEF
  2
AcDbRasterImageDef
  3
ISM
 90
        0
280
         0
281
         0
  0
CLASS
  1
IMAGEDEF_REACTOR
  2
AcDbRasterImageDefReactor
  3
ISM
 90
        1
280
         0
281
         0
  0
CLASS
  1
IDBUFFER
  2
AcDbIdBuffer
  3
"Acad"
 90
        0
280
         0
281
         0
  0
CLASS
  1
SPATIAL_FILTER
  2
AcDbSpatialFilter
  3
"Acad"
 90
        0
280
         0
281
         0
  0
CLASS
  1
XRECORD
  2
AcDbXrecord
  3
"<Built In>"
 90
        0
280
         0
281
         0
  0
CLASS
  1
SORTENTSTABLE
  2
AcDbSortentsTable
  3
"AutoCAD"
 90
        0
280
         0
281
         0
  0
CLASS
  1
LAYER_INDEX
  2
AcDbLayerIndex
  3
"Acad"
 90
        0
280
         0
281
         0
  0
CLASS
  1
SPATIAL_INDEX
  2
AcDbSpatialIndex
  3
"Acad"
 90
        0
280
         0
281
         0
  0
CLASS
  1
OBJECT_PTR
  2
CAseDLPNTableRecord
  3
"ASE-LPNTableRecord"
 90
        1
280
         0
281
         0
  0
CLASS
  1
LAYOUT
  2
AcDbLayout
  3
"AutoCAD 2000"
 90
        0
280
         0
281
         0
  0
CLASS
  1
PLOTSETTINGS
  2
AcDbPlotSettings
  3
"AutoCAD 2000"
 90
        0
280
         0
281
         0
  0
CLASS
  1
ACDBDICTIONARYWDFLT
  2
AcDbDictionaryWithDefault
  3
"AutoCAD 2000"
 90
        0
280
         0
281
         0
  0
CLASS
  1
ACDBPLACEHOLDER
  2
AcDbPlaceHolder
  3
"AutoCAD 2000"
 90
        0
280
         0
281
         0
  0
CLASS
  1
VBA_PROJECT
  2
AcDbVbaProject
  3
"acadvba"
 90
        0
280
         0
281
         0
  0
CLASS
  1
WIPEOUT
  2
AcDbWipeout
  3
WipeOut|AutoCAD Express Tool|expresstools@autodesk.com
 90
      127
280
         0
281
         1
  0
CLASS
  1
WIPEOUTVARIABLES
  2
AcDbWipeoutVariables
  3
WipeOut|AutoCAD Express Tool|expresstools@autodesk.com
 90
        0
280
         0
281
         0
  0
CLASS
  1
RTEXT
  2
RText
  3
RText|AutoCAD Express Tool|expresstools@autodesk.com
 90
        0
280
         0
281
         1
  0
CLASS
  1
ARCALIGNEDTEXT
  2
AcDbArcAlignedText
  3
ATEXT|AutoCAD Express Tool|expresstools@autodesk.com
 90
        0
280
         0
281
         1
  0
ENDSEC
  0
SECTION
  2
TABLES
  0
TABLE
  2
VPORT
  5
7
100
AcDbSymbolTable
 70
         1
  0
VPORT
  5
15
100
AcDbSymbolTableRecord
100
AcDbViewportTableRecord
  2
*ACTIVE
 70
         0
 10
0.0
 20
0.0
 11
1.0
 21
1.0
 12
6.591288
 22
4.579184
 13
0.0
 23
0.0
 14
1.0
 24
1.0
 15
0.0
 25
0.0
 16
0.0
 26
0.0
 36
1.0
 17
0.0
 27
0.0
 37
0.0
 40
9.158369
 41
0.688564
 42
50.0
 43
0.0
 44
0.0
 50
0.0
 51
0.0
 71
         0
 72
       100
 73
         1
 74
         1
 75
         0
 76
         0
 77
         0
 78
         0
  0
ENDTAB
  0
TABLE
  2
LTYPE
  5
4
100
AcDbSymbolTable
 70
         3
  0
LTYPE
  5
11
100
AcDbSymbolTableRecord
100
AcDbLinetypeTableRecord
  2
BYBLOCK
 70
        64
  3

 72
        65
 73
         0
 40
0.0
  0
LTYPE
  5
12
100
AcDbSymbolTableRecord
100
AcDbLinetypeTableRecord
  2
BYLAYER
 70
        64
  3

 72
        65
 73
         0
 40
0.0
  0
LTYPE
  5
13
100
AcDbSymbolTableRecord
100
AcDbLinetypeTableRecord
  2
CONTINUOUS
 70
        64
  3
Solid line
 72
        65
 73
         0
 40
0.0
  0
ENDTAB
  0
TABLE
  2
LAYER
  5
2
100
AcDbSymbolTable
 70
         6
  0
LAYER
  5
14
100
AcDbSymbolTableRecord
100
AcDbLayerTableRecord
  2
0
 70
         0
 62
         7
  6
CONTINUOUS
  0
LAYER
  5
24
100
AcDbSymbolTableRecord
100
AcDbLayerTableRecord
  2
ASSEMBLY_OUTLINES_TOP
 70
         0
 62
       102
  6
CONTINUOUS
  0
LAYER
  5
25
100
AcDbSymbolTableRecord
100
AcDbLayerTableRecord
  2
ASSEMBLY_REF_DES_TOP
 70
         0
 62
       102
  6
CONTINUOUS
  0
LAYER
  5
26
100
AcDbSymbolTableRecord
100
AcDbLayerTableRecord
  2
BOARD_OUTLINE
 70
         0
 62
        10
  6
CONTINUOUS
  0
LAYER
  5
27
100
AcDbSymbolTableRecord
100
AcDbLayerTableRecord
  2
MOUNTING_HOLES_LAYER_TOP
 70
         0
 62
        42
  6
CONTINUOUS
  0
LAYER
  5
28
100
AcDbSymbolTableRecord
100
AcDbLayerTableRecord
  2
PART_HOLES_LAYER_TOP
 70
         0
 62
        30
  6
CONTINUOUS
  0
ENDTAB
  0
TABLE
  2
STYLE
  5
3
100
AcDbSymbolTable
 70
         4
  0
STYLE
  5
17
100
AcDbSymbolTableRecord
100
AcDbTextStyleTableRecord
  2
STANDARD
 70
         0
 40
0.0
 41
1.0
 50
0.0
 71
         0
 42
0.0
  3
txt
  4

  0
STYLE
  5
9B
100
AcDbSymbolTableRecord
100
AcDbTextStyleTableRecord
  2
VERIBEST_GERBER_1
 70
         0
 40
0.0
 41
1.0
 50
0.0
 71
         0
 42
0.0
  3
C:\Windows\Fonts\VBest1.ttf
  4

  0
STYLE
  5
18C
100
AcDbSymbolTableRecord
100
AcDbTextStyleTableRecord
  2
GOST_TYPE_B
 70
         0
 40
0.0
 41
1.0
 50
0.0
 71
         0
 42
0.0
  3
gost_2.ttf
  4

  0
STYLE
  5
1BB
100
AcDbSymbolTableRecord
100
AcDbTextStyleTableRecord
  2
VERIBEST_GERBER_0
 70
         0
 40
0.0
 41
1.0
 50
0.0
 71
         0
 42
0.0
  3
C:\Windows\Fonts\VBest0.ttf
  4

  0
ENDTAB
  0
TABLE
  2
VIEW
  5
5
100
AcDbSymbolTable
 70
         0
  0
ENDTAB
  0
TABLE
  2
UCS
  5
6
100
AcDbSymbolTable
 70
         0
  0
ENDTAB
  0
TABLE
  2
APPID
  5
8
100
AcDbSymbolTable
 70
         1
  0
APPID
  5
16
100
AcDbSymbolTableRecord
100
AcDbRegAppTableRecord
  2
ACAD
 70
         0
  0
ENDTAB
  0
TABLE
  2
DIMSTYLE
  5
9
100
AcDbSymbolTable
 70
         1
  0
DIMSTYLE
105
18
100
AcDbSymbolTableRecord
100
AcDbDimStyleTableRecord
  2
STANDARD
 70
         0
  3

  4

  5

  6

  7

 40
1.0
 41
0.18
 42
0.0625
 43
0.38
 44
0.18
 45
0.0
 46
0.0
 47
0.0
 48
0.0
 71
         0
 72
         0
 73
         1
 74
         1
 75
         0
 76
         0
 77
         0
 78
         0
140
0.18
141
0.09
142
0.0
143
25.4
144
1.0
145
0.0
146
1.0
147
0.09
170
         0
171
         2
172
         0
173
         0
174
         0
175
         0
176
         0
177
         0
178
         0
270
         2
271
         4
272
         4
273
         2
274
         2
275
         0
280
         0
281
         0
282
         0
283
         1
284
         0
285
         0
286
         0
287
         3
288
         0
340
17
  0
ENDTAB
  0
TABLE
  2
BLOCK_RECORD
  5
1
100
AcDbSymbolTable
 70
         0
  0
BLOCK_RECORD
  5
A
100
AcDbSymbolTableRecord
100
AcDbBlockTableRecord
  2
*MODEL_SPACE
  0
BLOCK_RECORD
  5
B
100
AcDbSymbolTableRecord
100
AcDbBlockTableRecord
  2
*PAPER_SPACE
  0
ENDTAB
  0
ENDSEC
  0
SECTION
  2
BLOCKS
  0
BLOCK
  5
D
100
AcDbEntity
  8
0
100
AcDbBlockBegin
  2
*MODEL_SPACE
 70
         0
 10
0.0
 20
0.0
 30
0.0
  3
*MODEL_SPACE
  1

  0
ENDBLK
  5
E
100
AcDbEntity
  8
0
100
AcDbBlockEnd
  0
BLOCK
  5
F
100
AcDbEntity
 67
         1
  8
0
100
AcDbBlockBegin
  2
*PAPER_SPACE
 70
         0
 10
0.0
 20
0.0
 30
0.0
  3
*PAPER_SPACE
  1

  0
ENDBLK
  5
10
100
AcDbEntity
 67
         1
  8
0
100
AcDbBlockEnd
  0
ENDSEC
  0
SECTION
  2
ENTITIES
  0
LWPOLYLINE
  5
29
100
AcDbEntity
  8
ASSEMBLY_OUTLINES_TOP
100
AcDbPolyline
 90
        3
 70
         1
 10
11.0
 20
-5.327482
 10
9.857
 20
-5.898981
 10
9.857001
 20
-4.755982
  0
HATCH
  5
2A
100
AcDbEntity
  8
ASSEMBLY_OUTLINES_TOP
100
AcDbHatch
 10
0.0
 20
0.0
 30
0.0
210
0.0
220
0.0
230
1.0
  2
SOLID
 70
         1
 71
         1
 91
        1
 92
        2
 72
         0
 73
         1
 93
        3
 10
11.0
 20
-5.3274819999999998
 10
9.8569999999999993
 20
-5.898981
 10
9.8570010000000003
 20
-4.7559820000000004
 97
        1
330
29
 75
         0
 76
         1
 98
        1
 10
0.0
 20
0.0
  0
LWPOLYLINE
  5
2B
100
AcDbEntity
  8
ASSEMBLY_OUTLINES_TOP
100
AcDbPolyline
 90
        3
 70
         1
 10
2.0
 20
-5.327482
 10
3.143
 20
-4.755982
 10
3.143
 20
-5.898982
  0
HATCH
  5
2C
100
AcDbEntity
  8
ASSEMBLY_OUTLINES_TOP
100
AcDbHatch
 10
0.0
 20
0.0
 30
0.0
210
0.0
220
0.0
230
1.0
  2
SOLID
 70
         1
 71
         1
 91
        1
 92
        2
 72
         0
 73
         1
 93
        3
 10
2.0
 20
-5.3274819999999998
 10
3.1429999999999998
 20
-4.7559820000000004
 10
3.1429999999999998
 20
-5.8989820000000002
 97
        1
330
2B
 75
         0
 76
         1
 98
        1
 10
0.0
 20
0.0
  0
LWPOLYLINE
  5
2D
100
AcDbEntity
  8
ASSEMBLY_OUTLINES_TOP
100
AcDbPolyline
 90
        2
 70
         0
 43
0.2032
 10
8.622519
 20
-5.327482
 10
10.4285
 20
-5.327482
  0
LWPOLYLINE
  5
2E
100
AcDbEntity
  8
ASSEMBLY_OUTLINES_TOP
100
AcDbPolyline
 90
        2
 70
         0
 43
0.2032
 10
2.5715
 20
-5.327482
 10
4.377481
 20
-5.327482
  0
LWPOLYLINE
  5
2F
100
AcDbEntity
  8
ASSEMBLY_OUTLINES_TOP
100
AcDbPolyline
 90
        2
 70
         0
 43
0.2032
 10
11.0
 20
14.492
 10
11.0
 20
-5.835482
  0
LWPOLYLINE
  5
30
100
AcDbEntity
  8
ASSEMBLY_OUTLINES_TOP
100
AcDbPolyline
 90
        2
 70
         0
 43
0.2032
 10
2.0
 20
-0.508
 10
2.0
 20
-5.835482
  0
LWPOLYLINE
  5
31
100
AcDbEntity
  8
ASSEMBLY_OUTLINES_TOP
100
AcDbPolyline
 90
        3
 70
         1
 10
-4.350538
 20
0.0
 10
-4.922038
 20
1.143
 10
-3.779038
 20
1.143
  0
HATCH
  5
32
100
AcDbEntity
  8
ASSEMBLY_OUTLINES_TOP
100
AcDbHatch
 10
0.0
 20
0.0
 30
0.0
210
0.0
220
0.0
230
1.0
  2
SOLID
 70
         1
 71
         1
 91
        1
 92
        2
 72
         0
 73
         1
 93
        3
 10
-4.3505380000000002
 20
0.0
 10
-4.9220379999999997
 20
1.143
 10
-3.7790379999999999
 20
1.143
 97
        1
330
31
 75
         0
 76
         1
 98
        1
 10
0.0
 20
0.0
  0
LWPOLYLINE
  5
33
100
AcDbEntity
  8
ASSEMBLY_OUTLINES_TOP
100
AcDbPolyline
 90
        3
 70
         1
 10
-4.350538
 20
15.0
 10
-3.779039
 20
13.857
 10
-4.922038
 20
13.857001
  0
HATCH
  5
34
100
AcDbEntity
  8
ASSEMBLY_OUTLINES_TOP
100
AcDbHatch
 10
0.0
 20
0.0
 30
0.0
210
0.0
220
0.0
230
1.0
  2
SOLID
 70
         1
 71
         1
 91
        1
 92
        2
 72
         0
 73
         1
 93
        3
 10
-4.3505380000000002
 20
15.0
 10
-3.779039
 20
13.856999999999999
 10
-4.9220379999999997
 20
13.857001
 97
        1
330
33
 75
         0
 76
         1
 98
        1
 10
0.0
 20
0.0
  0
LWPOLYLINE
  5
35
100
AcDbEntity
  8
ASSEMBLY_OUTLINES_TOP
100
AcDbPolyline
 90
        2
 70
         0
 43
0.2032
 10
-4.350538
 20
4.820743
 10
-4.350538
 20
0.5715
  0
LWPOLYLINE
  5
36
100
AcDbEntity
  8
ASSEMBLY_OUTLINES_TOP
100
AcDbPolyline
 90
        2
 70
         0
 43
0.2032
 10
-4.350538
 20
14.4285
 10
-4.350538
 20
10.179254
  0
LWPOLYLINE
  5
37
100
AcDbEntity
  8
ASSEMBLY_OUTLINES_TOP
100
AcDbPolyline
 90
        2
 70
         0
 43
0.2032
 10
1.492
 20
0.0
 10
-4.858538
 20
0.0
  0
LWPOLYLINE
  5
38
100
AcDbEntity
  8
ASSEMBLY_OUTLINES_TOP
100
AcDbPolyline
 90
        2
 70
         0
 43
0.2032
 10
10.492
 20
15.0
 10
-4.858538
 20
15.0
  0
LWPOLYLINE
  5
39
100
AcDbEntity
  8
ASSEMBLY_OUTLINES_TOP
100
AcDbPolyline
 90
        3
 70
         1
 10
6.0
 20
67.020345
 10
7.143
 20
67.591845
 10
7.143
 20
66.448845
  0
HATCH
  5
3A
100
AcDbEntity
  8
ASSEMBLY_OUTLINES_TOP
100
AcDbHatch
 10
0.0
 20
0.0
 30
0.0
210
0.0
220
0.0
230
1.0
  2
SOLID
 70
         1
 71
         1
 91
        1
 92
        2
 72
         0
 73
         1
 93
        3
 10
6.0
 20
67.020345000000006
 10
7.1429999999999998
 20
67.591845000000006
 10
7.1429999999999998
 20
66.448845000000006
 97
        1
330
39
 75
         0
 76
         1
 98
        1
 10
0.0
 20
0.0
  0
LWPOLYLINE
  5
3B
100
AcDbEntity
  8
ASSEMBLY_OUTLINES_TOP
100
AcDbPolyline
 90
        3
 70
         1
 10
2.0
 20
67.020345
 10
0.857
 20
66.448846
 10
0.857001
 20
67.591845
  0
HATCH
  5
3C
100
AcDbEntity
  8
ASSEMBLY_OUTLINES_TOP
100
AcDbHatch
 10
0.0
 20
0.0
 30
0.0
210
0.0
220
0.0
230
1.0
  2
SOLID
 70
         1
 71
         1
 91
        1
 92
        2
 72
         0
 73
         1
 93
        3
 10
2.0
 20
67.020345000000006
 10
0.857
 20
66.448846000000003
 10
0.857001
 20
67.591845000000006
 97
        1
330
3B
 75
         0
 76
         1
 98
        1
 10
0.0
 20
0.0
  0
LWPOLYLINE
  5
3D
100
AcDbEntity
  8
ASSEMBLY_OUTLINES_TOP
100
AcDbPolyline
 90
        2
 70
         0
 43
0.2032
 10
6.5715
 20
67.020345
 10
8.8575
 20
67.020345
  0
LWPOLYLINE
  5
3E
100
AcDbEntity
  8
ASSEMBLY_OUTLINES_TOP
100
AcDbPolyline
 90
        2
 70
         0
 43
0.2032
 10
1.4285
 20
67.020345
 10
-0.8575
 20
67.020345
  0
LWPOLYLINE
  5
3F
100
AcDbEntity
  8
ASSEMBLY_OUTLINES_TOP
100
AcDbPolyline
 90
        2
 70
         0
 43
0.2032
 10
6.0
 20
60.008
 10
6.0
 20
67.528345
  0
LWPOLYLINE
  5
40
100
AcDbEntity
  8
ASSEMBLY_OUTLINES_TOP
100
AcDbPolyline
 90
        2
 70
         0
 43
0.2032
 10
2.0
 20
64.008
 10
2.0
 20
67.528345
  0
LWPOLYLINE
  5
41
100
AcDbEntity
  8
ASSEMBLY_OUTLINES_TOP
100
AcDbPolyline
 90
        3
 70
         1
 10
-8.98979
 20
59.5
 10
-8.418291
 20
58.357
 10
-9.56129
 20
58.357001
  0
HATCH
  5
42
100
AcDbEntity
  8
ASSEMBLY_OUTLINES_TOP
100
AcDbHatch
 10
0.0
 20
0.0
 30
0.0
210
0.0
220
0.0
230
1.0
  2
SOLID
 70
         1
 71
         1
 91
        1
 92
        2
 72
         0
 73
         1
 93
        3
 10
-8.9897899999999993
 20
59.5
 10
-8.418291
 20
58.356999999999999
 10
-9.5612899999999996
 20
58.357000999999997
 97
        1
330
41
 75
         0
 76
         1
 98
        1
 10
0.0
 20
0.0
  0
LWPOLYLINE
  5
43
100
AcDbEntity
  8
ASSEMBLY_OUTLINES_TOP
100
AcDbPolyline
 90
        3
 70
         1
 10
-8.98979
 20
63.5
 10
-9.56129
 20
64.643
 10
-8.41829
 20
64.643
  0
HATCH
  5
44
100
AcDbEntity
  8
ASSEMBLY_OUTLINES_TOP
100
AcDbHatch
 10
0.0
 20
0.0
 30
0.0
210
0.0
220
0.0
230
1.0
  2
SOLID
 70
         1
 71
         1
 91
        1
 92
        2
 72
         0
 73
         1
 93
        3
 10
-8.9897899999999993
 20
63.5
 10
-9.5612899999999996
 20
64.643000000000001
 10
-8.4182900000000007
 20
64.643000000000001
 97
        1
330
43
 75
         0
 76
         1
 98
        1
 10
0.0
 20
0.0
  0
LWPOLYLINE
  5
45
100
AcDbEntity
  8
ASSEMBLY_OUTLINES_TOP
100
AcDbPolyline
 90
        2
 70
         0
 43
0.2032
 10
-8.98979
 20
58.9285
 10
-8.98979
 20
56.6425
  0
LWPOLYLINE
  5
46
100
AcDbEntity
  8
ASSEMBLY_OUTLINES_TOP
100
AcDbPolyline
 90
        2
 70
         0
 43
0.2032
 10
-8.98979
 20
64.0715
 10
-8.98979
 20
66.3575
  0
LWPOLYLINE
  5
47
100
AcDbEntity
  8
ASSEMBLY_OUTLINES_TOP
100
AcDbPolyline
 90
        2
 70
         0
 43
0.2032
 10
5.492
 20
59.5
 10
-9.49779
 20
59.5
  0
LWPOLYLINE
  5
48
100
AcDbEntity
  8
ASSEMBLY_OUTLINES_TOP
100
AcDbPolyline
 90
        2
 70
         0
 43
0.2032
 10
1.492
 20
63.5
 10
-9.49779
 20
63.5
  0
LWPOLYLINE
  5
49
100
AcDbEntity
  8
ASSEMBLY_OUTLINES_TOP
100
AcDbPolyline
 90
        3
 70
         1
 10
139.5
 20
68.171724
 10
138.357
 20
67.600225
 10
138.357001
 20
68.743224
  0
HATCH
  5
4A
100
AcDbEntity
  8
ASSEMBLY_OUTLINES_TOP
100
AcDbHatch
 10
0.0
 20
0.0
 30
0.0
210
0.0
220
0.0
230
1.0
  2
SOLID
 70
         1
 71
         1
 91
        1
 92
        2
 72
         0
 73
         1
 93
        3
 10
139.5
 20
68.171723999999998
 10
138.357
 20
67.600224999999995
 10
138.357001
 20
68.743223999999998
 97
        1
330
49
 75
         0
 76
         1
 98
        1
 10
0.0
 20
0.0
  0
LWPOLYLINE
  5
4B
100
AcDbEntity
  8
ASSEMBLY_OUTLINES_TOP
100
AcDbPolyline
 90
        3
 70
         1
 10
2.0
 20
68.171724
 10
3.143
 20
68.743224
 10
3.143
 20
67.600224
  0
HATCH
  5
4C
100
AcDbEntity
  8
ASSEMBLY_OUTLINES_TOP
100
AcDbHatch
 10
0.0
 20
0.0
 30
0.0
210
0.0
220
0.0
230
1.0
  2
SOLID
 70
         1
 71
         1
 91
        1
 92
        2
 72
         0
 73
         1
 93
        3
 10
2.0
 20
68.171723999999998
 10
3.1429999999999998
 20
68.743223999999998
 10
3.1429999999999998
 20
67.600223999999997
 97
        1
330
4B
 75
         0
 76
         1
 98
        1
 10
0.0
 20
0.0
  0
LWPOLYLINE
  5
4D
100
AcDbEntity
  8
ASSEMBLY_OUTLINES_TOP
100
AcDbPolyline
 90
        2
 70
         0
 43
0.2032
 10
75.166139
 20
68.171724
 10
138.9285
 20
68.171724
  0
LWPOLYLINE
  5
4E
100
AcDbEntity
  8
ASSEMBLY_OUTLINES_TOP
100
AcDbPolyline
 90
        2
 70
         0
 43
0.2032
 10
2.5715
 20
68.171724
 10
66.333861
 20
68.171724
  0
LWPOLYLINE
  5
4F
100
AcDbEntity
  8
ASSEMBLY_OUTLINES_TOP
100
AcDbPolyline
 90
        2
 70
         0
 43
0.2032
 10
139.5
 20
64.008
 10
139.5
 20
68.679724
  0
LWPOLYLINE
  5
50
100
AcDbEntity
  8
ASSEMBLY_OUTLINES_TOP
100
AcDbPolyline
 90
        2
 70
         0
 43
0.2032
 10
2.0
 20
64.008
 10
2.0
 20
68.679724
  0
LWPOLYLINE
  5
51
100
AcDbEntity
  8
ASSEMBLY_OUTLINES_TOP
100
AcDbPolyline
 90
        3
 70
         1
 10
145.305084
 20
0.0
 10
144.733584
 20
1.143
 10
145.876584
 20
1.143
  0
HATCH
  5
52
100
AcDbEntity
  8
ASSEMBLY_OUTLINES_TOP
100
AcDbHatch
 10
0.0
 20
0.0
 30
0.0
210
0.0
220
0.0
230
1.0
  2
SOLID
 70
         1
 71
         1
 91
        1
 92
        2
 72
         0
 73
         1
 93
        3
 10
145.30508399999999
 20
0.0
 10
144.73358400000001
 20
1.143
 10
145.87658400000001
 20
1.143
 97
        1
330
51
 75
         0
 76
         1
 98
        1
 10
0.0
 20
0.0
  0
LWPOLYLINE
  5
53
100
AcDbEntity
  8
ASSEMBLY_OUTLINES_TOP
100
AcDbPolyline
 90
        3
 70
         1
 10
145.305084
 20
63.5
 10
145.876583
 20
62.357
 10
144.733584
 20
62.357001
  0
HATCH
  5
54
100
AcDbEntity
  8
ASSEMBLY_OUTLINES_TOP
100
AcDbHatch
 10
0.0
 20
0.0
 30
0.0
210
0.0
220
0.0
230
1.0
  2
SOLID
 70
         1
 71
         1
 91
        1
 92
        2
 72
         0
 73
         1
 93
        3
 10
145.30508399999999
 20
63.5
 10
145.87658300000001
 20
62.356999999999999
 10
144.73358400000001
 20
62.357000999999997
 97
        1
330
53
 75
         0
 76
         1
 98
        1
 10
0.0
 20
0.0
  0
LWPOLYLINE
  5
55
100
AcDbEntity
  8
ASSEMBLY_OUTLINES_TOP
100
AcDbPolyline
 90
        2
 70
         0
 43
0.2032
 10
145.305084
 20
27.890597
 10
145.305084
 20
0.5715
  0
LWPOLYLINE
  5
56
100
AcDbEntity
  8
ASSEMBLY_OUTLINES_TOP
100
AcDbPolyline
 90
        2
 70
         0
 43
0.2032
 10
145.305084
 20
62.9285
 10
145.305084
 20
35.609402
  0
LWPOLYLINE
  5
57
100
AcDbEntity
  8
ASSEMBLY_OUTLINES_TOP
100
AcDbPolyline
 90
        2
 70
         0
 43
0.2032
 10
140.008
 20
0.0
 10
145.813084
 20
0.0
  0
LWPOLYLINE
  5
58
100
AcDbEntity
  8
ASSEMBLY_OUTLINES_TOP
100
AcDbPolyline
 90
        2
 70
         0
 43
0.2032
 10
140.008
 20
63.5
 10
145.813084
 20
63.5
  0
LWPOLYLINE
  5
59
100
AcDbEntity
  8
ASSEMBLY_OUTLINES_TOP
100
AcDbPolyline
 90
        4
 70
         1
 10
67.5
 20
-25.5
 10
67.5
 20
-1.0
 10
92.5
 20
-1.0
 10
92.5
 20
-25.5
  0
LWPOLYLINE
  5
5A
100
AcDbEntity
  8
ASSEMBLY_OUTLINES_TOP
100
AcDbPolyline
 90
        4
 70
         1
 10
42.5
 20
-25.5
 10
42.5
 20
-1.0
 10
67.5
 20
-1.0
 10
67.5
 20
-25.5
  0
LWPOLYLINE
  5
5B
100
AcDbEntity
  8
ASSEMBLY_OUTLINES_TOP
100
AcDbPolyline
 90
        2
 70
         0
 43
0.2032
 10
2.508
 20
0.0
 10
64.785057
 20
0.0
  0
LWPOLYLINE
  5
5C
100
AcDbEntity
  8
ASSEMBLY_OUTLINES_TOP
100
AcDbPolyline
 90
        2
 70
         0
 43
0.2032
 10
49.318
 20
-3.0
 10
64.785057
 20
-3.0
  0
LWPOLYLINE
  5
5D
100
AcDbEntity
  8
ASSEMBLY_OUTLINES_TOP
100
AcDbPolyline
 90
        2
 70
         0
 43
0.2032
 10
64.277057
 20
0.5715
 10
64.277057
 20
2.8575
  0
LWPOLYLINE
  5
5E
100
AcDbEntity
  8
ASSEMBLY_OUTLINES_TOP
100
AcDbPolyline
 90
        2
 70
         0
 43
0.2032
 10
64.277057
 20
-3.5715
 10
64.277057
 20
-5.8575
  0
LWPOLYLINE
  5
5F
100
AcDbEntity
  8
ASSEMBLY_OUTLINES_TOP
100
AcDbPolyline
 90
        3
 70
         1
 10
64.277057
 20
0.0
 10
63.705557
 20
1.143
 10
64.848557
 20
1.143
  0
HATCH
  5
60
100
AcDbEntity
  8
ASSEMBLY_OUTLINES_TOP
100
AcDbHatch
 10
0.0
 20
0.0
 30
0.0
210
0.0
220
0.0
230
1.0
  2
SOLID
 70
         1
 71
         1
 91
        1
 92
        2
 72
         0
 73
         1
 93
        3
 10
64.277056999999999
 20
0.0
 10
63.705556999999999
 20
1.143
 10
64.848557
 20
1.143
 97
        1
330
5F
 75
         0
 76
         1
 98
        1
 10
0.0
 20
0.0
  0
LWPOLYLINE
  5
61
100
AcDbEntity
  8
ASSEMBLY_OUTLINES_TOP
100
AcDbPolyline
 90
        3
 70
         1
 10
64.277057
 20
-3.0
 10
64.848556
 20
-4.143
 10
63.705557
 20
-4.142999
  0
HATCH
  5
62
100
AcDbEntity
  8
ASSEMBLY_OUTLINES_TOP
100
AcDbHatch
 10
0.0
 20
0.0
 30
0.0
210
0.0
220
0.0
230
1.0
  2
SOLID
 70
         1
 71
         1
 91
        1
 92
        2
 72
         0
 73
         1
 93
        3
 10
64.277056999999999
 20
-3.0
 10
64.848556000000002
 20
-4.1429999999999998
 10
63.705556999999999
 20
-4.1429989999999997
 97
        1
330
61
 75
         0
 76
         1
 98
        1
 10
0.0
 20
0.0
  0
LWPOLYLINE
  5
63
100
AcDbEntity
  8
ASSEMBLY_OUTLINES_TOP
100
AcDbPolyline
 90
        2
 70
         0
 43
0.2032
 10
138.992
 20
0.0
 10
69.796471
 20
0.0
  0
LWPOLYLINE
  5
64
100
AcDbEntity
  8
ASSEMBLY_OUTLINES_TOP
100
AcDbPolyline
 90
        2
 70
         0
 43
0.2032
 10
73.112
 20
-3.0
 10
69.796471
 20
-3.0
  0
LWPOLYLINE
  5
65
100
AcDbEntity
  8
ASSEMBLY_OUTLINES_TOP
100
AcDbPolyline
 90
        2
 70
         0
 43
0.2032
 10
70.304471
 20
0.5715
 10
70.304471
 20
2.8575
  0
LWPOLYLINE
  5
66
100
AcDbEntity
  8
ASSEMBLY_OUTLINES_TOP
100
AcDbPolyline
 90
        2
 70
         0
 43
0.2032
 10
70.304471
 20
-3.5715
 10
70.304471
 20
-5.8575
  0
LWPOLYLINE
  5
67
100
AcDbEntity
  8
ASSEMBLY_OUTLINES_TOP
100
AcDbPolyline
 90
        3
 70
         1
 10
70.304471
 20
0.0
 10
69.732971
 20
1.143
 10
70.875971
 20
1.143
  0
HATCH
  5
68
100
AcDbEntity
  8
ASSEMBLY_OUTLINES_TOP
100
AcDbHatch
 10
0.0
 20
0.0
 30
0.0
210
0.0
220
0.0
230
1.0
  2
SOLID
 70
         1
 71
         1
 91
        1
 92
        2
 72
         0
 73
         1
 93
        3
 10
70.304471000000007
 20
0.0
 10
69.732971000000006
 20
1.143
 10
70.875971000000007
 20
1.143
 97
        1
330
67
 75
         0
 76
         1
 98
        1
 10
0.0
 20
0.0
  0
LWPOLYLINE
  5
69
100
AcDbEntity
  8
ASSEMBLY_OUTLINES_TOP
100
AcDbPolyline
 90
        3
 70
         1
 10
70.304471
 20
-3.0
 10
70.87597
 20
-4.143
 10
69.732971
 20
-4.142999
  0
HATCH
  5
6A
100
AcDbEntity
  8
ASSEMBLY_OUTLINES_TOP
100
AcDbHatch
 10
0.0
 20
0.0
 30
0.0
210
0.0
220
0.0
230
1.0
  2
SOLID
 70
         1
 71
         1
 91
        1
 92
        2
 72
         0
 73
         1
 93
        3
 10
70.304471000000007
 20
-3.0
 10
70.875969999999995
 20
-4.1429999999999998
 10
69.732971000000006
 20
-4.1429989999999997
 97
        1
330
69
 75
         0
 76
         1
 98
        1
 10
0.0
 20
0.0
  0
LWPOLYLINE
  5
6B
100
AcDbEntity
  8
ASSEMBLY_OUTLINES_TOP
100
AcDbPolyline
 90
        2
 70
         0
 43
0.2032
 10
1.492
 20
0.0
 10
-1.110791
 20
0.0
  0
LWPOLYLINE
  5
6C
100
AcDbEntity
  8
ASSEMBLY_OUTLINES_TOP
100
AcDbPolyline
 90
        2
 70
         0
 43
0.2032
 10
1.862002
 20
-3.000002
 10
-1.110791
 20
-3.000002
  0
LWPOLYLINE
  5
6D
100
AcDbEntity
  8
ASSEMBLY_OUTLINES_TOP
100
AcDbPolyline
 90
        2
 70
         0
 43
0.2032
 10
-0.602791
 20
0.5715
 10
-0.602791
 20
2.8575
  0
LWPOLYLINE
  5
6E
100
AcDbEntity
  8
ASSEMBLY_OUTLINES_TOP
100
AcDbPolyline
 90
        2
 70
         0
 43
0.2032
 10
-0.602791
 20
-3.571502
 10
-0.602791
 20
-5.857502
  0
LWPOLYLINE
  5
6F
100
AcDbEntity
  8
ASSEMBLY_OUTLINES_TOP
100
AcDbPolyline
 90
        3
 70
         1
 10
-0.602791
 20
0.0
 10
-1.174291
 20
1.143
 10
-0.031291
 20
1.143
  0
HATCH
  5
70
100
AcDbEntity
  8
ASSEMBLY_OUTLINES_TOP
100
AcDbHatch
 10
0.0
 20
0.0
 30
0.0
210
0.0
220
0.0
230
1.0
  2
SOLID
 70
         1
 71
         1
 91
        1
 92
        2
 72
         0
 73
         1
 93
        3
 10
-0.602791
 20
0.0
 10
-1.174291
 20
1.143
 10
-0.031291
 20
1.143
 97
        1
330
6F
 75
         0
 76
         1
 98
        1
 10
0.0
 20
0.0
  0
LWPOLYLINE
  5
71
100
AcDbEntity
  8
ASSEMBLY_OUTLINES_TOP
100
AcDbPolyline
 90
        3
 70
         1
 10
-0.602791
 20
-3.000002
 10
-0.031292
 20
-4.143002
 10
-1.174291
 20
-4.143001
  0
HATCH
  5
72
100
AcDbEntity
  8
ASSEMBLY_OUTLINES_TOP
100
AcDbHatch
 10
0.0
 20
0.0
 30
0.0
210
0.0
220
0.0
230
1.0
  2
SOLID
 70
         1
 71
         1
 91
        1
 92
        2
 72
         0
 73
         1
 93
        3
 10
-0.602791
 20
-3.0000019999999998
 10
-0.031292
 20
-4.1430020000000001
 10
-1.174291
 20
-4.1430009999999999
 97
        1
330
71
 75
         0
 76
         1
 98
        1
 10
0.0
 20
0.0
  0
LWPOLYLINE
  5
73
100
AcDbEntity
  8
ASSEMBLY_OUTLINES_TOP
100
AcDbPolyline
 90
        2
 70
         0
 43
0.2032
 10
135.5
 20
14.492
 10
135.5
 20
-8.963646
  0
LWPOLYLINE
  5
74
100
AcDbEntity
  8
ASSEMBLY_OUTLINES_TOP
100
AcDbPolyline
 90
        2
 70
         0
 43
0.2032
 10
139.5
 20
-0.508
 10
139.5
 20
-8.963646
  0
LWPOLYLINE
  5
75
100
AcDbEntity
  8
ASSEMBLY_OUTLINES_TOP
100
AcDbPolyline
 90
        2
 70
         0
 43
0.2032
 10
134.9285
 20
-8.455646
 10
132.6425
 20
-8.455646
  0
LWPOLYLINE
  5
76
100
AcDbEntity
  8
ASSEMBLY_OUTLINES_TOP
100
AcDbPolyline
 90
        2
 70
         0
 43
0.2032
 10
140.0715
 20
-8.455646
 10
142.3575
 20
-8.455646
  0
LWPOLYLINE
  5
77
100
AcDbEntity
  8
ASSEMBLY_OUTLINES_TOP
100
AcDbPolyline
 90
        3
 70
         1
 10
135.5
 20
-8.455646
 10
134.357
 20
-9.027145
 10
134.357001
 20
-7.884146
  0
HATCH
  5
78
100
AcDbEntity
  8
ASSEMBLY_OUTLINES_TOP
100
AcDbHatch
 10
0.0
 20
0.0
 30
0.0
210
0.0
220
0.0
230
1.0
  2
SOLID
 70
         1
 71
         1
 91
        1
 92
        2
 72
         0
 73
         1
 93
        3
 10
135.5
 20
-8.4556459999999998
 10
134.357
 20
-9.0271450000000009
 10
134.357001
 20
-7.8841460000000003
 97
        1
330
77
 75
         0
 76
         1
 98
        1
 10
0.0
 20
0.0
  0
LWPOLYLINE
  5
79
100
AcDbEntity
  8
ASSEMBLY_OUTLINES_TOP
100
AcDbPolyline
 90
        3
 70
         1
 10
139.5
 20
-8.455646
 10
140.643
 20
-7.884146
 10
140.643
 20
-9.027146
  0
HATCH
  5
7A
100
AcDbEntity
  8
ASSEMBLY_OUTLINES_TOP
100
AcDbHatch
 10
0.0
 20
0.0
 30
0.0
210
0.0
220
0.0
230
1.0
  2
SOLID
 70
         1
 71
         1
 91
        1
 92
        2
 72
         0
 73
         1
 93
        3
 10
139.5
 20
-8.4556459999999998
 10
140.643
 20
-7.8841460000000003
 10
140.643
 20
-9.0271460000000001
 97
        1
330
79
 75
         0
 76
         1
 98
        1
 10
0.0
 20
0.0
  0
LWPOLYLINE
  5
7B
100
AcDbEntity
  8
ASSEMBLY_OUTLINES_TOP
100
AcDbPolyline
 90
        2
 70
         0
 43
0.2032
 10
136.008
 20
15.0
 10
144.236281
 20
15.0
  0
LWPOLYLINE
  5
7C
100
AcDbEntity
  8
ASSEMBLY_OUTLINES_TOP
100
AcDbPolyline
 90
        2
 70
         0
 43
0.2032
 10
140.008
 20
0.0
 10
144.236281
 20
0.0
  0
LWPOLYLINE
  5
7D
100
AcDbEntity
  8
ASSEMBLY_OUTLINES_TOP
100
AcDbPolyline
 90
        2
 70
         0
 43
0.2032
 10
143.728281
 20
14.4285
 10
143.728281
 20
10.179255
  0
LWPOLYLINE
  5
7E
100
AcDbEntity
  8
ASSEMBLY_OUTLINES_TOP
100
AcDbPolyline
 90
        2
 70
         0
 43
0.2032
 10
143.728281
 20
4.820745
 10
143.728281
 20
0.5715
  0
LWPOLYLINE
  5
7F
100
AcDbEntity
  8
ASSEMBLY_OUTLINES_TOP
100
AcDbPolyline
 90
        3
 70
         1
 10
143.728281
 20
15.0
 10
144.29978
 20
13.857
 10
143.156781
 20
13.857001
  0
HATCH
  5
80
100
AcDbEntity
  8
ASSEMBLY_OUTLINES_TOP
100
AcDbHatch
 10
0.0
 20
0.0
 30
0.0
210
0.0
220
0.0
230
1.0
  2
SOLID
 70
         1
 71
         1
 91
        1
 92
        2
 72
         0
 73
         1
 93
        3
 10
143.72828100000001
 20
15.0
 10
144.29978
 20
13.856999999999999
 10
143.156781
 20
13.857001
 97
        1
330
7F
 75
         0
 76
         1
 98
        1
 10
0.0
 20
0.0
  0
LWPOLYLINE
  5
81
100
AcDbEntity
  8
ASSEMBLY_OUTLINES_TOP
100
AcDbPolyline
 90
        3
 70
         1
 10
143.728281
 20
0.0
 10
143.156781
 20
1.143
 10
144.299781
 20
1.143
  0
HATCH
  5
82
100
AcDbEntity
  8
ASSEMBLY_OUTLINES_TOP
100
AcDbHatch
 10
0.0
 20
0.0
 30
0.0
210
0.0
220
0.0
230
1.0
  2
SOLID
 70
         1
 71
         1
 91
        1
 92
        2
 72
         0
 73
         1
 93
        3
 10
143.72828100000001
 20
0.0
 10
143.156781
 20
1.143
 10
144.299781
 20
1.143
 97
        1
330
81
 75
         0
 76
         1
 98
        1
 10
0.0
 20
0.0
  0
LWPOLYLINE
  5
83
100
AcDbEntity
  8
ASSEMBLY_OUTLINES_TOP
100
AcDbPolyline
 90
        2
 70
         0
 43
0.2032
 10
2.0
 20
64.008
 10
2.0
 20
67.021696
  0
LWPOLYLINE
  5
84
100
AcDbEntity
  8
ASSEMBLY_OUTLINES_TOP
100
AcDbPolyline
 90
        2
 70
         0
 43
0.2032
 10
63.5
 20
60.008
 10
63.5
 20
67.021696
  0
LWPOLYLINE
  5
85
100
AcDbEntity
  8
ASSEMBLY_OUTLINES_TOP
100
AcDbPolyline
 90
        2
 70
         0
 43
0.2032
 10
2.5715
 20
66.513696
 10
28.96394
 20
66.513696
  0
LWPOLYLINE
  5
86
100
AcDbEntity
  8
ASSEMBLY_OUTLINES_TOP
100
AcDbPolyline
 90
        2
 70
         0
 43
0.2032
 10
36.536061
 20
66.513696
 10
62.9285
 20
66.513696
  0
LWPOLYLINE
  5
87
100
AcDbEntity
  8
ASSEMBLY_OUTLINES_TOP
100
AcDbPolyline
 90
        3
 70
         1
 10
2.0
 20
66.513696
 10
3.143
 20
67.085196
 10
3.143
 20
65.942196
  0
HATCH
  5
88
100
AcDbEntity
  8
ASSEMBLY_OUTLINES_TOP
100
AcDbHatch
 10
0.0
 20
0.0
 30
0.0
210
0.0
220
0.0
230
1.0
  2
SOLID
 70
         1
 71
         1
 91
        1
 92
        2
 72
         0
 73
         1
 93
        3
 10
2.0
 20
66.513695999999996
 10
3.1429999999999998
 20
67.085195999999996
 10
3.1429999999999998
 20
65.942195999999996
 97
        1
330
87
 75
         0
 76
         1
 98
        1
 10
0.0
 20
0.0
  0
LWPOLYLINE
  5
89
100
AcDbEntity
  8
ASSEMBLY_OUTLINES_TOP
100
AcDbPolyline
 90
        3
 70
         1
 10
63.5
 20
66.513696
 10
62.357
 20
65.942197
 10
62.357001
 20
67.085196
  0
HATCH
  5
8A
100
AcDbEntity
  8
ASSEMBLY_OUTLINES_TOP
100
AcDbHatch
 10
0.0
 20
0.0
 30
0.0
210
0.0
220
0.0
230
1.0
  2
SOLID
 70
         1
 71
         1
 91
        1
 92
        2
 72
         0
 73
         1
 93
        3
 10
63.5
 20
66.513695999999996
 10
62.356999999999999
 20
65.942196999999993
 10
62.357000999999997
 20
67.085195999999996
 97
        1
330
89
 75
         0
 76
         1
 98
        1
 10
0.0
 20
0.0
  0
LWPOLYLINE
  5
8B
100
AcDbEntity
  8
ASSEMBLY_OUTLINES_TOP
100
AcDbPolyline
 90
        2
 70
         0
 43
0.2032
 10
128.5
 20
52.508
 10
128.5
 20
71.530678
  0
LWPOLYLINE
  5
8C
100
AcDbEntity
  8
ASSEMBLY_OUTLINES_TOP
100
AcDbPolyline
 90
        2
 70
         0
 43
0.2032
 10
139.5
 20
64.008
 10
139.5
 20
71.530678
  0
LWPOLYLINE
  5
8D
100
AcDbEntity
  8
ASSEMBLY_OUTLINES_TOP
100
AcDbPolyline
 90
        2
 70
         0
 43
0.2032
 10
129.0715
 20
71.022678
 10
131.394087
 20
71.022678
  0
LWPOLYLINE
  5
8E
100
AcDbEntity
  8
ASSEMBLY_OUTLINES_TOP
100
AcDbPolyline
 90
        2
 70
         0
 43
0.2032
 10
136.605913
 20
71.022678
 10
138.9285
 20
71.022678
  0
LWPOLYLINE
  5
8F
100
AcDbEntity
  8
ASSEMBLY_OUTLINES_TOP
100
AcDbPolyline
 90
        3
 70
         1
 10
128.5
 20
71.022678
 10
129.643
 20
71.594178
 10
129.643
 20
70.451178
  0
HATCH
  5
90
100
AcDbEntity
  8
ASSEMBLY_OUTLINES_TOP
100
AcDbHatch
 10
0.0
 20
0.0
 30
0.0
210
0.0
220
0.0
230
1.0
  2
SOLID
 70
         1
 71
         1
 91
        1
 92
        2
 72
         0
 73
         1
 93
        3
 10
128.5
 20
71.022677999999999
 10
129.643
 20
71.594177999999999
 10
129.643
 20
70.451177999999999
 97
        1
330
8F
 75
         0
 76
         1
 98
        1
 10
0.0
 20
0.0
  0
LWPOLYLINE
  5
91
100
AcDbEntity
  8
ASSEMBLY_OUTLINES_TOP
100
AcDbPolyline
 90
        3
 70
         1
 10
139.5
 20
71.022678
 10
138.357
 20
70.451179
 10
138.357001
 20
71.594178
  0
HATCH
  5
92
100
AcDbEntity
  8
ASSEMBLY_OUTLINES_TOP
100
AcDbHatch
 10
0.0
 20
0.0
 30
0.0
210
0.0
220
0.0
230
1.0
  2
SOLID
 70
         1
 71
         1
 91
        1
 92
        2
 72
         0
 73
         1
 93
        3
 10
139.5
 20
71.022677999999999
 10
138.357
 20
70.451178999999996
 10
138.357001
 20
71.594177999999999
 97
        1
330
91
 75
         0
 76
         1
 98
        1
 10
0.0
 20
0.0
  0
LWPOLYLINE
  5
93
100
AcDbEntity
  8
ASSEMBLY_OUTLINES_TOP
100
AcDbPolyline
 90
        2
 70
         0
 43
0.2032
 10
140.008
 20
63.5
 10
149.995884
 20
63.5
  0
LWPOLYLINE
  5
94
100
AcDbEntity
  8
ASSEMBLY_OUTLINES_TOP
100
AcDbPolyline
 90
        2
 70
         0
 43
0.2032
 10
129.008
 20
52.0
 10
149.995884
 20
52.0
  0
LWPOLYLINE
  5
95
100
AcDbEntity
  8
ASSEMBLY_OUTLINES_TOP
100
AcDbPolyline
 90
        2
 70
         0
 43
0.2032
 10
149.487884
 20
62.9285
 10
149.487884
 20
61.462717
  0
LWPOLYLINE
  5
96
100
AcDbEntity
  8
ASSEMBLY_OUTLINES_TOP
100
AcDbPolyline
 90
        2
 70
         0
 43
0.2032
 10
149.487884
 20
54.037282
 10
149.487884
 20
52.5715
  0
LWPOLYLINE
  5
97
100
AcDbEntity
  8
ASSEMBLY_OUTLINES_TOP
100
AcDbPolyline
 90
        3
 70
         1
 10
149.487884
 20
63.5
 10
150.059383
 20
62.357
 10
148.916384
 20
62.357001
  0
HATCH
  5
98
100
AcDbEntity
  8
ASSEMBLY_OUTLINES_TOP
100
AcDbHatch
 10
0.0
 20
0.0
 30
0.0
210
0.0
220
0.0
230
1.0
  2
SOLID
 70
         1
 71
         1
 91
        1
 92
        2
 72
         0
 73
         1
 93
        3
 10
149.48788400000001
 20
63.5
 10
150.059383
 20
62.356999999999999
 10
148.91638399999999
 20
62.357000999999997
 97
        1
330
97
 75
         0
 76
         1
 98
        1
 10
0.0
 20
0.0
  0
LWPOLYLINE
  5
99
100
AcDbEntity
  8
ASSEMBLY_OUTLINES_TOP
100
AcDbPolyline
 90
        3
 70
         1
 10
149.487884
 20
52.0
 10
148.916384
 20
53.143
 10
150.059384
 20
53.143
  0
HATCH
  5
9A
100
AcDbEntity
  8
ASSEMBLY_OUTLINES_TOP
100
AcDbHatch
 10
0.0
 20
0.0
 30
0.0
210
0.0
220
0.0
230
1.0
  2
SOLID
 70
         1
 71
         1
 91
        1
 92
        2
 72
         0
 73
         1
 93
        3
 10
149.48788400000001
 20
52.0
 10
148.91638399999999
 20
53.143000000000001
 10
150.05938399999999
 20
53.143000000000001
 97
        1
330
99
 75
         0
 76
         1
 98
        1
 10
0.0
 20
0.0
  0
TEXT
  5
9C
100
AcDbEntity
  8
ASSEMBLY_OUTLINES_TOP
100
AcDbText
 10
4.702315
 20
-5.962482
 30
0.0
 40
1.27
  1
9mm
  7
VERIBEST_GERBER_1
 72
         1
 11
6.5
 21
-5.327482
 31
0.0
100
AcDbText
 73
         2
  0
TEXT
  5
9D
100
AcDbEntity
  8
ASSEMBLY_OUTLINES_TOP
100
AcDbText
 10
-3.715538
 20
5.17209
 30
0.0
 40
1.27
  1
15mm
 50
90.0
  7
VERIBEST_GERBER_1
 72
         1
 11
-4.350538
 21
7.5
 31
0.0
100
AcDbText
 73
         2
  0
TEXT
  5
9E
100
AcDbEntity
  8
ASSEMBLY_OUTLINES_TOP
100
AcDbText
 10
-4.676104
 20
66.385345
 30
0.0
 40
1.27
  1
4mm
  7
VERIBEST_GERBER_1
 72
         1
 11
-2.878419
 21
67.020345
 31
0.0
100
AcDbText
 73
         2
  0
TEXT
  5
9F
100
AcDbEntity
  8
ASSEMBLY_OUTLINES_TOP
100
AcDbText
 10
-8.35479
 20
66.580734
 30
0.0
 40
1.27
  1
4mm
 50
90.0
  7
VERIBEST_GERBER_1
 72
         1
 11
-8.98979
 21
68.378419
 31
0.0
100
AcDbText
 73
         2
  0
TEXT
  5
A0
100
AcDbEntity
  8
ASSEMBLY_OUTLINES_TOP
100
AcDbText
 10
66.767915
 20
67.536724
 30
0.0
 40
1.27
  1
137.5mm
  7
VERIBEST_GERBER_1
 72
         1
 11
70.75
 21
68.171724
 31
0.0
100
AcDbText
 73
         2
  0
TEXT
  5
A1
100
AcDbEntity
  8
ASSEMBLY_OUTLINES_TOP
100
AcDbText
 10
145.940084
 20
28.298141
 30
0.0
 40
1.27
  1
63.5mm
 50
90.0
  7
VERIBEST_GERBER_1
 72
         1
 11
145.305084
 21
31.750001
 31
0.0
100
AcDbText
 73
         2
  0
TEXT
  5
A2
100
AcDbEntity
  8
ASSEMBLY_OUTLINES_TOP
100
AcDbText
 10
64.912057
 20
3.080734
 30
0.0
 40
1.27
  1
3mm
 50
90.0
  7
VERIBEST_GERBER_1
 72
         1
 11
64.277057
 21
4.878419
 31
0.0
100
AcDbText
 73
         2
  0
TEXT
  5
A3
100
AcDbEntity
  8
ASSEMBLY_OUTLINES_TOP
100
AcDbText
 10
70.939471
 20
3.080734
 30
0.0
 40
1.27
  1
3mm
 50
90.0
  7
VERIBEST_GERBER_1
 72
         1
 11
70.304471
 21
4.878419
 31
0.0
100
AcDbText
 73
         2
  0
TEXT
  5
A4
100
AcDbEntity
  8
ASSEMBLY_OUTLINES_TOP
100
AcDbText
 10
0.032209
 20
3.080734
 30
0.0
 40
1.27
  1
3mm
 50
90.0
  7
VERIBEST_GERBER_1
 72
         1
 11
-0.602791
 21
4.878419
 31
0.0
100
AcDbText
 73
         2
  0
TEXT
  5
A5
100
AcDbEntity
  8
ASSEMBLY_OUTLINES_TOP
100
AcDbText
 10
128.823896
 20
-9.090646
 30
0.0
 40
1.27
  1
4mm
  7
VERIBEST_GERBER_1
 72
         1
 11
130.621581
 21
-8.455646
 31
0.0
100
AcDbText
 73
         2
  0
TEXT
  5
A6
100
AcDbEntity
  8
ASSEMBLY_OUTLINES_TOP
100
AcDbText
 10
144.36328
 20
5.17209
 30
0.0
 40
1.27
  1
15mm
 50
90.0
  7
VERIBEST_GERBER_1
 72
         1
 11
143.72828
 21
7.5
 31
0.0
100
AcDbText
 73
         2
  0
TEXT
  5
A7
100
AcDbEntity
  8
ASSEMBLY_OUTLINES_TOP
100
AcDbText
 10
29.36799
 20
65.878696
 30
0.0
 40
1.27
  1
61.5mm
  7
VERIBEST_GERBER_1
 72
         1
 11
32.75
 21
66.513696
 31
0.0
100
AcDbText
 73
         2
  0
TEXT
  5
A8
100
AcDbEntity
  8
ASSEMBLY_OUTLINES_TOP
100
AcDbText
 10
131.74194
 20
70.387678
 30
0.0
 40
1.27
  1
11mm
  7
VERIBEST_GERBER_1
 72
         1
 11
134.0
 21
71.022678
 31
0.0
100
AcDbText
 73
         2
  0
TEXT
  5
A9
100
AcDbEntity
  8
ASSEMBLY_OUTLINES_TOP
100
AcDbText
 10
150.122884
 20
54.437841
 30
0.0
 40
1.27
  1
11.5mm
 50
90.0
  7
VERIBEST_GERBER_1
 72
         1
 11
149.487884
 21
57.750001
 31
0.0
100
AcDbText
 73
         2
  0
LWPOLYLINE
  5
AA
100
AcDbEntity
  8
ASSEMBLY_OUTLINES_TOP
100
AcDbPolyline
 90
        4
 70
         1
 43
0.1
 10
94.21
 20
36.8
 10
94.21
 20
44.5
 10
99.49
 20
44.5
 10
99.49
 20
36.8
  0
LWPOLYLINE
  5
AB
100
AcDbEntity
  8
ASSEMBLY_OUTLINES_TOP
100
AcDbPolyline
 90
        2
 70
         0
 43
0.1
 10
94.21
 20
44.4
 10
94.31
 20
44.5
  0
LWPOLYLINE
  5
AC
100
AcDbEntity
  8
ASSEMBLY_OUTLINES_TOP
100
AcDbPolyline
 90
        2
 70
         0
 43
0.1
 10
94.21
 20
44.3
 10
94.41
 20
44.5
  0
LWPOLYLINE
  5
AD
100
AcDbEntity
  8
ASSEMBLY_OUTLINES_TOP
100
AcDbPolyline
 90
        2
 70
         0
 43
0.1
 10
94.21
 20
44.2
 10
94.51
 20
44.5
  0
LWPOLYLINE
  5
AE
100
AcDbEntity
  8
ASSEMBLY_OUTLINES_TOP
100
AcDbPolyline
 90
        2
 70
         0
 43
0.1
 10
94.21
 20
44.1
 10
94.61
 20
44.5
  0
LWPOLYLINE
  5
AF
100
AcDbEntity
  8
ASSEMBLY_OUTLINES_TOP
100
AcDbPolyline
 90
        2
 70
         0
 43
0.1
 10
94.21
 20
44.0
 10
94.71
 20
44.5
  0
LWPOLYLINE
  5
B0
100
AcDbEntity
  8
ASSEMBLY_OUTLINES_TOP
100
AcDbPolyline
 90
        2
 70
         0
 43
0.1
 10
94.21
 20
43.9
 10
94.81
 20
44.5
  0
LWPOLYLINE
  5
B1
100
AcDbEntity
  8
ASSEMBLY_OUTLINES_TOP
100
AcDbPolyline
 90
        4
 70
         1
 43
0.1
 10
95.275
 20
32.325
 10
95.275
 20
34.075
 10
98.325
 20
34.075
 10
98.325
 20
32.325
  0
LWPOLYLINE
  5
B2
100
AcDbEntity
  8
ASSEMBLY_OUTLINES_TOP
100
AcDbPolyline
 90
        2
 70
         0
 43
0.1
 10
95.375
 20
32.325
 10
95.275
 20
32.425
  0
LWPOLYLINE
  5
B3
100
AcDbEntity
  8
ASSEMBLY_OUTLINES_TOP
100
AcDbPolyline
 90
        2
 70
         0
 43
0.1
 10
95.475
 20
32.325
 10
95.275
 20
32.525
  0
LWPOLYLINE
  5
B4
100
AcDbEntity
  8
ASSEMBLY_OUTLINES_TOP
100
AcDbPolyline
 90
        2
 70
         0
 43
0.1
 10
95.575
 20
32.325
 10
95.275
 20
32.625
  0
LWPOLYLINE
  5
B5
100
AcDbEntity
  8
ASSEMBLY_OUTLINES_TOP
100
AcDbPolyline
 90
        2
 70
         0
 43
0.1
 10
95.675
 20
32.325
 10
95.275
 20
32.725
  0
LWPOLYLINE
  5
B6
100
AcDbEntity
  8
ASSEMBLY_OUTLINES_TOP
100
AcDbPolyline
 90
        2
 70
         0
 43
0.1
 10
95.775
 20
32.325
 10
95.275
 20
32.825
  0
LWPOLYLINE
  5
B7
100
AcDbEntity
  8
ASSEMBLY_OUTLINES_TOP
100
AcDbPolyline
 90
        2
 70
         0
 43
0.1
 10
95.875
 20
32.325
 10
95.275
 20
32.925
  0
LWPOLYLINE
  5
B8
100
AcDbEntity
  8
ASSEMBLY_OUTLINES_TOP
100
AcDbPolyline
 90
        6
 70
         1
 43
0.15
 10
80.5
 20
35.0
 10
86.2
 20
35.0
 10
86.2
 20
52.0
 10
82.2
 20
52.0
 10
82.2
 20
51.2
 10
80.5
 20
51.2
  0
LWPOLYLINE
  5
B9
100
AcDbEntity
  8
ASSEMBLY_OUTLINES_TOP
100
AcDbPolyline
 90
        2
 70
         0
 43
0.5
 10
83.5
 20
47.9
 10
83.5
 20
38.8
  0
LWPOLYLINE
  5
BA
100
AcDbEntity
  8
ASSEMBLY_OUTLINES_TOP
100
AcDbPolyline
 90
        2
 70
         0
 43
0.5
 10
83.5
 20
38.8
 10
84.9
 20
38.8
  0
LWPOLYLINE
  5
BB
100
AcDbEntity
  8
ASSEMBLY_OUTLINES_TOP
100
AcDbPolyline
 90
        4
 70
         1
 43
0.1
 10
55.3
 20
27.6
 10
55.3
 20
46.6
 10
74.3
 20
46.6
 10
74.3
 20
27.6
  0
LWPOLYLINE
  5
BC
100
AcDbEntity
  8
ASSEMBLY_OUTLINES_TOP
100
AcDbPolyline
 90
        2
 70
         0
 43
0.1
 10
74.2
 20
46.6
 10
74.3
 20
46.5
  0
LWPOLYLINE
  5
BD
100
AcDbEntity
  8
ASSEMBLY_OUTLINES_TOP
100
AcDbPolyline
 90
        2
 70
         0
 43
0.1
 10
74.1
 20
46.6
 10
74.3
 20
46.4
  0
LWPOLYLINE
  5
BE
100
AcDbEntity
  8
ASSEMBLY_OUTLINES_TOP
100
AcDbPolyline
 90
        2
 70
         0
 43
0.1
 10
74.0
 20
46.6
 10
74.3
 20
46.3
  0
LWPOLYLINE
  5
BF
100
AcDbEntity
  8
ASSEMBLY_OUTLINES_TOP
100
AcDbPolyline
 90
        2
 70
         0
 43
0.1
 10
73.9
 20
46.6
 10
74.3
 20
46.2
  0
LWPOLYLINE
  5
C0
100
AcDbEntity
  8
ASSEMBLY_OUTLINES_TOP
100
AcDbPolyline
 90
        2
 70
         0
 43
0.1
 10
73.8
 20
46.6
 10
74.3
 20
46.1
  0
LWPOLYLINE
  5
C1
100
AcDbEntity
  8
ASSEMBLY_OUTLINES_TOP
100
AcDbPolyline
 90
        2
 70
         0
 43
0.1
 10
73.7
 20
46.6
 10
74.3
 20
46.0
  0
LWPOLYLINE
  5
C2
100
AcDbEntity
  8
ASSEMBLY_OUTLINES_TOP
100
AcDbPolyline
 90
        8
 70
         1
 43
0.1
 10
10.1
 20
35.85
 10
10.1
 20
32.55
 42
0.4142135624
 10
11.1
 20
31.55
 10
14.3
 20
31.55
 42
0.4142135624
 10
15.3
 20
32.55
 10
15.3
 20
35.85
 42
0.4142135624
 10
14.3
 20
36.85
 10
11.1
 20
36.85
 42
0.4142135624
  0
LWPOLYLINE
  5
C3
100
AcDbEntity
  8
ASSEMBLY_OUTLINES_TOP
100
AcDbPolyline
 90
        4
 70
         1
 43
0.1
 10
44.6
 20
47.4
 10
44.6
 20
52.4
 10
48.6
 20
52.4
 10
48.6
 20
47.4
  0
LWPOLYLINE
  5
C4
100
AcDbEntity
  8
ASSEMBLY_OUTLINES_TOP
100
AcDbPolyline
 90
        2
 70
         1
 43
0.1
 10
47.1
 20
48.4
 42
-1.0
 10
48.1
 20
48.4
 42
-1.0
  0
LWPOLYLINE
  5
C5
100
AcDbEntity
  8
ASSEMBLY_OUTLINES_TOP
100
AcDbPolyline
 90
        4
 70
         1
 43
0.1
 10
102.175
 20
47.475
 10
102.175
 20
50.525
 10
105.225
 20
50.525
 10
105.225
 20
47.475
  0
LWPOLYLINE
  5
C6
100
AcDbEntity
  8
ASSEMBLY_OUTLINES_TOP
100
AcDbPolyline
 90
        2
 70
         1
 43
0.1
 10
102.448616
 20
50.025
 42
-1.0
 10
102.901384
 20
50.025
 42
-1.0
  0
LWPOLYLINE
  5
C7
100
AcDbEntity
  8
ASSEMBLY_OUTLINES_TOP
100
AcDbPolyline
 90
        4
 70
         1
 10
121.1
 20
61.37
 10
121.1
 20
68.37
 10
129.5
 20
68.37
 10
129.5
 20
61.37
  0
LWPOLYLINE
  5
C8
100
AcDbEntity
  8
ASSEMBLY_OUTLINES_TOP
100
AcDbPolyline
 90
        4
 70
         1
 10
119.5
 20
54.87
 10
119.5
 20
61.37
 10
131.0
 20
61.37
 10
131.0
 20
54.87
  0
LWPOLYLINE
  5
C9
100
AcDbEntity
  8
ASSEMBLY_OUTLINES_TOP
100
AcDbPolyline
 90
        4
 70
         1
 10
73.62
 20
-3.0
 10
73.62
 20
11.0
 10
86.82
 20
11.0
 10
86.82
 20
-3.0
  0
LWPOLYLINE
  5
CA
100
AcDbEntity
  8
ASSEMBLY_OUTLINES_TOP
100
AcDbPolyline
 90
        4
 70
         1
 10
92.38
 20
-3.0
 10
92.38
 20
22.4
 10
108.38
 20
22.4
 10
108.38
 20
-3.0
  0
LWPOLYLINE
  5
CB
100
AcDbEntity
  8
ASSEMBLY_OUTLINES_TOP
100
AcDbPolyline
 90
        2
 70
         0
 10
50.46
 20
40.86
 10
50.46
 20
33.36
  0
LWPOLYLINE
  5
CC
100
AcDbEntity
  8
ASSEMBLY_OUTLINES_TOP
100
AcDbPolyline
 90
        2
 70
         0
 10
54.46
 20
40.86
 10
54.46
 20
33.36
  0
LWPOLYLINE
  5
CD
100
AcDbEntity
  8
ASSEMBLY_OUTLINES_TOP
100
AcDbPolyline
 90
        2
 70
         0
 10
50.46
 20
33.36
 42
1.0
 10
54.46
 20
33.36
  0
LWPOLYLINE
  5
CE
100
AcDbEntity
  8
ASSEMBLY_OUTLINES_TOP
100
AcDbPolyline
 90
        2
 70
         0
 10
54.46
 20
40.86
 42
1.0
 10
50.46
 20
40.86
  0
LWPOLYLINE
  5
CF
100
AcDbEntity
  8
ASSEMBLY_OUTLINES_TOP
100
AcDbPolyline
 90
        4
 70
         1
 10
124.15
 20
14.4
 10
124.15
 20
39.9
 10
129.15
 20
39.9
 10
129.15
 20
14.4
  0
LWPOLYLINE
  5
D0
100
AcDbEntity
  8
ASSEMBLY_OUTLINES_TOP
100
AcDbPolyline
 90
        4
 70
         1
 10
116.11
 20
-5.94
 10
116.11
 20
-0.04
 10
132.11
 20
-0.04
 10
132.11
 20
-5.94
  0
LWPOLYLINE
  5
D1
100
AcDbEntity
  8
ASSEMBLY_OUTLINES_TOP
100
AcDbPolyline
 90
        4
 70
         1
 10
108.71
 20
-0.04
 10
108.71
 20
12.36
 10
139.51
 20
12.36
 10
139.51
 20
-0.04
  0
LWPOLYLINE
  5
D2
100
AcDbEntity
  8
ASSEMBLY_OUTLINES_TOP
100
AcDbPolyline
 90
        4
 70
         1
 10
37.74
 20
47.78
 10
37.74
 20
50.32
 10
42.82
 20
50.32
 10
42.82
 20
47.78
  0
LWPOLYLINE
  5
D3
100
AcDbEntity
  8
ASSEMBLY_OUTLINES_TOP
100
AcDbPolyline
 90
        4
 70
         1
 43
0.1
 10
18.7
 20
20.5
 10
18.7
 20
23.5
 10
22.4
 20
23.5
 10
22.4
 20
20.5
  0
LWPOLYLINE
  5
D4
100
AcDbEntity
  8
ASSEMBLY_OUTLINES_TOP
100
AcDbPolyline
 90
        2
 70
         0
 43
0.1
 10
18.8
 20
20.5
 10
18.8
 20
23.5
  0
LWPOLYLINE
  5
D5
100
AcDbEntity
  8
ASSEMBLY_OUTLINES_TOP
100
AcDbPolyline
 90
        2
 70
         0
 43
0.1
 10
18.9
 20
20.5
 10
18.9
 20
23.5
  0
LWPOLYLINE
  5
D6
100
AcDbEntity
  8
ASSEMBLY_OUTLINES_TOP
100
AcDbPolyline
 90
        2
 70
         0
 43
0.1
 10
19.0
 20
20.5
 10
19.0
 20
23.5
  0
LWPOLYLINE
  5
D7
100
AcDbEntity
  8
ASSEMBLY_OUTLINES_TOP
100
AcDbPolyline
 90
        2
 70
         0
 43
0.1
 10
19.1
 20
20.5
 10
19.1
 20
23.5
  0
LWPOLYLINE
  5
D8
100
AcDbEntity
  8
ASSEMBLY_OUTLINES_TOP
100
AcDbPolyline
 90
        2
 70
         0
 43
0.1
 10
19.2
 20
20.5
 10
19.2
 20
23.5
  0
LWPOLYLINE
  5
D9
100
AcDbEntity
  8
ASSEMBLY_OUTLINES_TOP
100
AcDbPolyline
 90
        2
 70
         0
 43
0.1
 10
19.3
 20
20.5
 10
19.3
 20
23.5
  0
LWPOLYLINE
  5
DA
100
AcDbEntity
  8
ASSEMBLY_OUTLINES_TOP
100
AcDbPolyline
 90
        2
 70
         0
 43
0.1
 10
19.4
 20
20.5
 10
19.4
 20
23.5
  0
LWPOLYLINE
  5
DB
100
AcDbEntity
  8
ASSEMBLY_OUTLINES_TOP
100
AcDbPolyline
 90
        2
 70
         0
 43
0.1
 10
19.5
 20
20.5
 10
19.5
 20
23.5
  0
LWPOLYLINE
  5
DC
100
AcDbEntity
  8
ASSEMBLY_OUTLINES_TOP
100
AcDbPolyline
 90
        4
 70
         1
 43
0.1
 10
84.2
 20
25.6
 10
84.2
 20
32.6
 10
91.2
 20
32.6
 10
91.2
 20
25.6
  0
LWPOLYLINE
  5
DD
100
AcDbEntity
  8
ASSEMBLY_OUTLINES_TOP
100
AcDbPolyline
 90
        2
 70
         1
 43
0.1
 10
89.7
 20
31.6
 42
-1.0
 10
90.7
 20
31.6
 42
-1.0
  0
LWPOLYLINE
  5
DE
100
AcDbEntity
  8
ASSEMBLY_OUTLINES_TOP
100
AcDbPolyline
 90
        4
 70
         1
 43
0.1
 10
132.4
 20
21.7
 10
132.4
 20
31.5
 10
136.9
 20
31.5
 10
136.9
 20
21.7
  0
LWPOLYLINE
  5
DF
100
AcDbEntity
  8
ASSEMBLY_OUTLINES_TOP
100
AcDbPolyline
 90
        2
 70
         1
 43
0.1
 10
132.9
 20
30.5
 42
-1.0
 10
133.9
 20
30.5
 42
-1.0
  0
LWPOLYLINE
  5
E0
100
AcDbEntity
  8
ASSEMBLY_OUTLINES_TOP
100
AcDbPolyline
 90
        4
 70
         1
 10
103.3
 20
39.1
 10
103.3
 20
45.4
 10
108.3
 20
45.4
 10
108.3
 20
39.1
  0
LWPOLYLINE
  5
E1
100
AcDbEntity
  8
ASSEMBLY_OUTLINES_TOP
100
AcDbPolyline
 90
        4
 70
         1
 10
67.17
 20
58.35
 10
67.17
 20
63.35
 10
118.07
 20
63.35
 10
118.07
 20
58.35
  0
LWPOLYLINE
  5
E2
100
AcDbEntity
  8
ASSEMBLY_OUTLINES_TOP
100
AcDbPolyline
 90
        8
 70
         1
 43
0.1
 10
12.9
 20
22.35
 10
16.2
 20
22.35
 42
0.4142135624
 10
17.2
 20
23.35
 10
17.2
 20
26.55
 42
0.4142135624
 10
16.2
 20
27.55
 10
12.9
 20
27.55
 42
0.4142135624
 10
11.9
 20
26.55
 10
11.9
 20
23.35
 42
0.4142135624
  0
LWPOLYLINE
  5
E3
100
AcDbEntity
  8
ASSEMBLY_OUTLINES_TOP
100
AcDbPolyline
 90
        4
 70
         1
 10
50.39
 20
11.23
 10
50.39
 20
13.77
 10
60.39
 20
13.77
 10
60.39
 20
11.23
  0
LWPOLYLINE
  5
E4
100
AcDbEntity
  8
ASSEMBLY_OUTLINES_TOP
100
AcDbPolyline
 90
        4
 70
         1
 43
0.1
 10
3.32
 20
16.36
 10
3.32
 20
20.16
 10
8.92
 20
20.16
 10
8.92
 20
16.36
  0
LWPOLYLINE
  5
E5
100
AcDbEntity
  8
ASSEMBLY_OUTLINES_TOP
100
AcDbPolyline
 90
        2
 70
         0
 43
0.1
 10
8.82
 20
20.16
 10
8.82
 20
16.36
  0
LWPOLYLINE
  5
E6
100
AcDbEntity
  8
ASSEMBLY_OUTLINES_TOP
100
AcDbPolyline
 90
        2
 70
         0
 43
0.1
 10
8.72
 20
20.16
 10
8.72
 20
16.36
  0
LWPOLYLINE
  5
E7
100
AcDbEntity
  8
ASSEMBLY_OUTLINES_TOP
100
AcDbPolyline
 90
        2
 70
         0
 43
0.1
 10
8.62
 20
20.16
 10
8.62
 20
16.36
  0
LWPOLYLINE
  5
E8
100
AcDbEntity
  8
ASSEMBLY_OUTLINES_TOP
100
AcDbPolyline
 90
        2
 70
         0
 43
0.1
 10
8.52
 20
20.16
 10
8.52
 20
16.36
  0
LWPOLYLINE
  5
E9
100
AcDbEntity
  8
ASSEMBLY_OUTLINES_TOP
100
AcDbPolyline
 90
        2
 70
         0
 43
0.1
 10
8.42
 20
20.16
 10
8.42
 20
16.36
  0
LWPOLYLINE
  5
EA
100
AcDbEntity
  8
ASSEMBLY_OUTLINES_TOP
100
AcDbPolyline
 90
        2
 70
         0
 43
0.1
 10
8.32
 20
20.16
 10
8.32
 20
16.36
  0
LWPOLYLINE
  5
EB
100
AcDbEntity
  8
ASSEMBLY_OUTLINES_TOP
100
AcDbPolyline
 90
        2
 70
         0
 43
0.1
 10
8.22
 20
20.16
 10
8.22
 20
16.36
  0
LWPOLYLINE
  5
EC
100
AcDbEntity
  8
ASSEMBLY_OUTLINES_TOP
100
AcDbPolyline
 90
        2
 70
         0
 43
0.1
 10
8.12
 20
20.16
 10
8.12
 20
16.36
  0
LWPOLYLINE
  5
ED
100
AcDbEntity
  8
ASSEMBLY_OUTLINES_TOP
100
AcDbPolyline
 90
        4
 70
         1
 10
35.36
 20
50.33
 10
35.36
 20
52.87
 10
42.86
 20
52.87
 10
42.86
 20
50.33
  0
LWPOLYLINE
  5
EE
100
AcDbEntity
  8
ASSEMBLY_OUTLINES_TOP
100
AcDbPolyline
 90
        4
 70
         1
 10
63.79
 20
8.43
 10
63.79
 20
10.97
 10
68.87
 20
10.97
 10
68.87
 20
8.43
  0
LWPOLYLINE
  5
EF
100
AcDbEntity
  8
ASSEMBLY_OUTLINES_TOP
100
AcDbPolyline
 90
        6
 70
         1
 43
0.1
 10
115.3
 20
27.55
 10
116.95
 20
29.2
 10
121.9
 20
29.2
 10
121.9
 20
22.6
 10
116.95
 20
22.6
 10
115.3
 20
24.25
  0
LWPOLYLINE
  5
F0
100
AcDbEntity
  8
ASSEMBLY_OUTLINES_TOP
100
AcDbPolyline
 90
        4
 70
         1
 43
0.1
 10
51.65
 20
16.25
 10
51.65
 20
23.75
 10
64.15
 20
23.75
 10
64.15
 20
16.25
  0
LWPOLYLINE
  5
F1
100
AcDbEntity
  8
ASSEMBLY_OUTLINES_TOP
100
AcDbPolyline
 90
        4
 70
         1
 43
0.1
 10
50.9
 20
14.25
 10
50.9
 20
25.75
 10
64.9
 20
25.75
 10
64.9
 20
14.25
  0
LWPOLYLINE
  5
F2
100
AcDbEntity
  8
ASSEMBLY_OUTLINES_TOP
100
AcDbPolyline
 90
        2
 70
         0
 43
0.1
 10
51.0
 20
14.25
 10
50.9
 20
14.35
  0
LWPOLYLINE
  5
F3
100
AcDbEntity
  8
ASSEMBLY_OUTLINES_TOP
100
AcDbPolyline
 90
        2
 70
         0
 43
0.1
 10
51.1
 20
14.25
 10
50.9
 20
14.45
  0
LWPOLYLINE
  5
F4
100
AcDbEntity
  8
ASSEMBLY_OUTLINES_TOP
100
AcDbPolyline
 90
        2
 70
         0
 43
0.1
 10
51.2
 20
14.25
 10
50.9
 20
14.55
  0
LWPOLYLINE
  5
F5
100
AcDbEntity
  8
ASSEMBLY_OUTLINES_TOP
100
AcDbPolyline
 90
        2
 70
         0
 43
0.1
 10
51.3
 20
14.25
 10
50.9
 20
14.65
  0
LWPOLYLINE
  5
F6
100
AcDbEntity
  8
ASSEMBLY_OUTLINES_TOP
100
AcDbPolyline
 90
        2
 70
         0
 43
0.1
 10
51.4
 20
14.25
 10
50.9
 20
14.75
  0
LWPOLYLINE
  5
F7
100
AcDbEntity
  8
ASSEMBLY_OUTLINES_TOP
100
AcDbPolyline
 90
        2
 70
         0
 43
0.1
 10
51.5
 20
14.25
 10
50.9
 20
14.85
  0
LWPOLYLINE
  5
F8
100
AcDbEntity
  8
ASSEMBLY_OUTLINES_TOP
100
AcDbPolyline
 90
        4
 70
         1
 10
63.43
 20
0.89
 10
63.43
 20
5.97
 10
65.97
 20
5.97
 10
65.97
 20
0.89
  0
CIRCLE
  5
F9
100
AcDbEntity
  8
ASSEMBLY_OUTLINES_TOP
100
AcDbCircle
 10
52.5
 20
45.5
 30
0.0
 40
2.0
  0
LWPOLYLINE
  5
FA
100
AcDbEntity
  8
ASSEMBLY_OUTLINES_TOP
100
AcDbPolyline
 90
        4
 70
         1
 10
131.54
 20
46.18
 10
131.54
 20
48.72
 10
139.04
 20
48.72
 10
139.04
 20
46.18
  0
LWPOLYLINE
  5
FB
100
AcDbEntity
  8
ASSEMBLY_OUTLINES_TOP
100
AcDbPolyline
 90
        4
 70
         1
 43
0.1
 10
37.65
 20
26.35
 10
37.65
 20
44.85
 10
49.75
 20
44.85
 10
49.75
 20
26.35
  0
LWPOLYLINE
  5
FC
100
AcDbEntity
  8
ASSEMBLY_OUTLINES_TOP
100
AcDbPolyline
 90
        2
 70
         1
 43
0.1
 10
38.15
 20
27.35
 42
-1.0
 10
39.15
 20
27.35
 42
-1.0
  0
LWPOLYLINE
  5
FD
100
AcDbEntity
  8
ASSEMBLY_OUTLINES_TOP
100
AcDbPolyline
 90
        4
 70
         1
 43
0.1
 10
5.125
 20
38.525
 10
5.125
 20
43.675
 10
10.275
 20
43.675
 10
10.275
 20
38.525
  0
LWPOLYLINE
  5
FE
100
AcDbEntity
  8
ASSEMBLY_OUTLINES_TOP
100
AcDbPolyline
 90
        2
 70
         0
 43
0.1
 10
5.225
 20
38.525
 10
5.125
 20
38.625
  0
LWPOLYLINE
  5
FF
100
AcDbEntity
  8
ASSEMBLY_OUTLINES_TOP
100
AcDbPolyline
 90
        2
 70
         0
 43
0.1
 10
5.325
 20
38.525
 10
5.125
 20
38.725
  0
LWPOLYLINE
  5
100
100
AcDbEntity
  8
ASSEMBLY_OUTLINES_TOP
100
AcDbPolyline
 90
        2
 70
         0
 43
0.1
 10
5.425
 20
38.525
 10
5.125
 20
38.825
  0
LWPOLYLINE
  5
101
100
AcDbEntity
  8
ASSEMBLY_OUTLINES_TOP
100
AcDbPolyline
 90
        2
 70
         0
 43
0.1
 10
5.525
 20
38.525
 10
5.125
 20
38.925
  0
LWPOLYLINE
  5
102
100
AcDbEntity
  8
ASSEMBLY_OUTLINES_TOP
100
AcDbPolyline
 90
        2
 70
         0
 43
0.1
 10
5.625
 20
38.525
 10
5.125
 20
39.025
  0
LWPOLYLINE
  5
103
100
AcDbEntity
  8
ASSEMBLY_OUTLINES_TOP
100
AcDbPolyline
 90
        2
 70
         0
 43
0.1
 10
5.725
 20
38.525
 10
5.125
 20
39.125
  0
LWPOLYLINE
  5
104
100
AcDbEntity
  8
ASSEMBLY_OUTLINES_TOP
100
AcDbPolyline
 90
        4
 70
         1
 43
0.1
 10
12.75
 20
42.05
 10
12.75
 20
45.05
 10
16.45
 20
45.05
 10
16.45
 20
42.05
  0
LWPOLYLINE
  5
105
100
AcDbEntity
  8
ASSEMBLY_OUTLINES_TOP
100
AcDbPolyline
 90
        2
 70
         0
 43
0.1
 10
12.85
 20
42.05
 10
12.85
 20
45.05
  0
LWPOLYLINE
  5
106
100
AcDbEntity
  8
ASSEMBLY_OUTLINES_TOP
100
AcDbPolyline
 90
        2
 70
         0
 43
0.1
 10
12.95
 20
42.05
 10
12.95
 20
45.05
  0
LWPOLYLINE
  5
107
100
AcDbEntity
  8
ASSEMBLY_OUTLINES_TOP
100
AcDbPolyline
 90
        2
 70
         0
 43
0.1
 10
13.05
 20
42.05
 10
13.05
 20
45.05
  0
LWPOLYLINE
  5
108
100
AcDbEntity
  8
ASSEMBLY_OUTLINES_TOP
100
AcDbPolyline
 90
        2
 70
         0
 43
0.1
 10
13.15
 20
42.05
 10
13.15
 20
45.05
  0
LWPOLYLINE
  5
109
100
AcDbEntity
  8
ASSEMBLY_OUTLINES_TOP
100
AcDbPolyline
 90
        2
 70
         0
 43
0.1
 10
13.25
 20
42.05
 10
13.25
 20
45.05
  0
LWPOLYLINE
  5
10A
100
AcDbEntity
  8
ASSEMBLY_OUTLINES_TOP
100
AcDbPolyline
 90
        2
 70
         0
 43
0.1
 10
13.35
 20
42.05
 10
13.35
 20
45.05
  0
LWPOLYLINE
  5
10B
100
AcDbEntity
  8
ASSEMBLY_OUTLINES_TOP
100
AcDbPolyline
 90
        2
 70
         0
 43
0.1
 10
13.45
 20
42.05
 10
13.45
 20
45.05
  0
LWPOLYLINE
  5
10C
100
AcDbEntity
  8
ASSEMBLY_OUTLINES_TOP
100
AcDbPolyline
 90
        2
 70
         0
 43
0.1
 10
13.55
 20
42.05
 10
13.55
 20
45.05
  0
LWPOLYLINE
  5
10D
100
AcDbEntity
  8
ASSEMBLY_OUTLINES_TOP
100
AcDbPolyline
 90
        4
 70
         1
 43
0.1
 10
44.25
 20
13.0
 10
44.25
 20
14.7
 10
47.35
 20
14.7
 10
47.35
 20
13.0
  0
LWPOLYLINE
  5
10E
100
AcDbEntity
  8
ASSEMBLY_OUTLINES_TOP
100
AcDbPolyline
 90
        2
 70
         0
 43
0.1
 10
47.25
 20
14.7
 10
47.25
 20
13.0
  0
LWPOLYLINE
  5
10F
100
AcDbEntity
  8
ASSEMBLY_OUTLINES_TOP
100
AcDbPolyline
 90
        2
 70
         0
 43
0.1
 10
47.15
 20
14.7
 10
47.15
 20
13.0
  0
LWPOLYLINE
  5
110
100
AcDbEntity
  8
ASSEMBLY_OUTLINES_TOP
100
AcDbPolyline
 90
        2
 70
         0
 43
0.1
 10
47.05
 20
14.7
 10
47.05
 20
13.0
  0
LWPOLYLINE
  5
111
100
AcDbEntity
  8
ASSEMBLY_OUTLINES_TOP
100
AcDbPolyline
 90
        2
 70
         0
 43
0.1
 10
46.95
 20
14.7
 10
46.95
 20
13.0
  0
LWPOLYLINE
  5
112
100
AcDbEntity
  8
ASSEMBLY_OUTLINES_TOP
100
AcDbPolyline
 90
        2
 70
         0
 43
0.1
 10
46.85
 20
14.7
 10
46.85
 20
13.0
  0
LWPOLYLINE
  5
113
100
AcDbEntity
  8
ASSEMBLY_OUTLINES_TOP
100
AcDbPolyline
 90
        2
 70
         0
 43
0.1
 10
46.75
 20
14.7
 10
46.75
 20
13.0
  0
LWPOLYLINE
  5
114
100
AcDbEntity
  8
ASSEMBLY_OUTLINES_TOP
100
AcDbPolyline
 90
        4
 70
         1
 43
0.1
 10
3.85
 20
28.25
 10
3.85
 20
31.25
 10
7.55
 20
31.25
 10
7.55
 20
28.25
  0
LWPOLYLINE
  5
115
100
AcDbEntity
  8
ASSEMBLY_OUTLINES_TOP
100
AcDbPolyline
 90
        2
 70
         0
 43
0.1
 10
3.95
 20
28.25
 10
3.95
 20
31.25
  0
LWPOLYLINE
  5
116
100
AcDbEntity
  8
ASSEMBLY_OUTLINES_TOP
100
AcDbPolyline
 90
        2
 70
         0
 43
0.1
 10
4.05
 20
28.25
 10
4.05
 20
31.25
  0
LWPOLYLINE
  5
117
100
AcDbEntity
  8
ASSEMBLY_OUTLINES_TOP
100
AcDbPolyline
 90
        2
 70
         0
 43
0.1
 10
4.15
 20
28.25
 10
4.15
 20
31.25
  0
LWPOLYLINE
  5
118
100
AcDbEntity
  8
ASSEMBLY_OUTLINES_TOP
100
AcDbPolyline
 90
        2
 70
         0
 43
0.1
 10
4.25
 20
28.25
 10
4.25
 20
31.25
  0
LWPOLYLINE
  5
119
100
AcDbEntity
  8
ASSEMBLY_OUTLINES_TOP
100
AcDbPolyline
 90
        2
 70
         0
 43
0.1
 10
4.35
 20
28.25
 10
4.35
 20
31.25
  0
LWPOLYLINE
  5
11A
100
AcDbEntity
  8
ASSEMBLY_OUTLINES_TOP
100
AcDbPolyline
 90
        2
 70
         0
 43
0.1
 10
4.45
 20
28.25
 10
4.45
 20
31.25
  0
LWPOLYLINE
  5
11B
100
AcDbEntity
  8
ASSEMBLY_OUTLINES_TOP
100
AcDbPolyline
 90
        2
 70
         0
 43
0.1
 10
4.55
 20
28.25
 10
4.55
 20
31.25
  0
LWPOLYLINE
  5
11C
100
AcDbEntity
  8
ASSEMBLY_OUTLINES_TOP
100
AcDbPolyline
 90
        2
 70
         0
 43
0.1
 10
4.65
 20
28.25
 10
4.65
 20
31.25
  0
LWPOLYLINE
  5
11D
100
AcDbEntity
  8
ASSEMBLY_OUTLINES_TOP
100
AcDbPolyline
 90
        6
 70
         1
 43
0.1
 10
3.58
 20
25.87
 10
5.23
 20
27.52
 10
10.18
 20
27.52
 10
10.18
 20
20.92
 10
5.23
 20
20.92
 10
3.58
 20
22.57
  0
LWPOLYLINE
  5
11E
100
AcDbEntity
  8
ASSEMBLY_OUTLINES_TOP
100
AcDbPolyline
 90
        4
 70
         1
 43
0.1
 10
47.35
 20
16.95
 10
47.35
 20
20.65
 10
50.35
 20
20.65
 10
50.35
 20
16.95
  0
LWPOLYLINE
  5
11F
100
AcDbEntity
  8
ASSEMBLY_OUTLINES_TOP
100
AcDbPolyline
 90
        2
 70
         0
 43
0.1
 10
47.35
 20
20.55
 10
50.35
 20
20.55
  0
LWPOLYLINE
  5
120
100
AcDbEntity
  8
ASSEMBLY_OUTLINES_TOP
100
AcDbPolyline
 90
        2
 70
         0
 43
0.1
 10
47.35
 20
20.45
 10
50.35
 20
20.45
  0
LWPOLYLINE
  5
121
100
AcDbEntity
  8
ASSEMBLY_OUTLINES_TOP
100
AcDbPolyline
 90
        2
 70
         0
 43
0.1
 10
47.35
 20
20.35
 10
50.35
 20
20.35
  0
LWPOLYLINE
  5
122
100
AcDbEntity
  8
ASSEMBLY_OUTLINES_TOP
100
AcDbPolyline
 90
        2
 70
         0
 43
0.1
 10
47.35
 20
20.25
 10
50.35
 20
20.25
  0
LWPOLYLINE
  5
123
100
AcDbEntity
  8
ASSEMBLY_OUTLINES_TOP
100
AcDbPolyline
 90
        2
 70
         0
 43
0.1
 10
47.35
 20
20.15
 10
50.35
 20
20.15
  0
LWPOLYLINE
  5
124
100
AcDbEntity
  8
ASSEMBLY_OUTLINES_TOP
100
AcDbPolyline
 90
        2
 70
         0
 43
0.1
 10
47.35
 20
20.05
 10
50.35
 20
20.05
  0
LWPOLYLINE
  5
125
100
AcDbEntity
  8
ASSEMBLY_OUTLINES_TOP
100
AcDbPolyline
 90
        2
 70
         0
 43
0.1
 10
47.35
 20
19.95
 10
50.35
 20
19.95
  0
LWPOLYLINE
  5
126
100
AcDbEntity
  8
ASSEMBLY_OUTLINES_TOP
100
AcDbPolyline
 90
        2
 70
         0
 43
0.1
 10
47.35
 20
19.85
 10
50.35
 20
19.85
  0
LWPOLYLINE
  5
127
100
AcDbEntity
  8
ASSEMBLY_OUTLINES_TOP
100
AcDbPolyline
 90
        4
 70
         1
 43
0.1
 10
10.8
 20
28.25
 10
10.8
 20
31.25
 10
14.5
 20
31.25
 10
14.5
 20
28.25
  0
LWPOLYLINE
  5
128
100
AcDbEntity
  8
ASSEMBLY_OUTLINES_TOP
100
AcDbPolyline
 90
        2
 70
         0
 43
0.1
 10
14.4
 20
31.25
 10
14.4
 20
28.25
  0
LWPOLYLINE
  5
129
100
AcDbEntity
  8
ASSEMBLY_OUTLINES_TOP
100
AcDbPolyline
 90
        2
 70
         0
 43
0.1
 10
14.3
 20
31.25
 10
14.3
 20
28.25
  0
LWPOLYLINE
  5
12A
100
AcDbEntity
  8
ASSEMBLY_OUTLINES_TOP
100
AcDbPolyline
 90
        2
 70
         0
 43
0.1
 10
14.2
 20
31.25
 10
14.2
 20
28.25
  0
LWPOLYLINE
  5
12B
100
AcDbEntity
  8
ASSEMBLY_OUTLINES_TOP
100
AcDbPolyline
 90
        2
 70
         0
 43
0.1
 10
14.1
 20
31.25
 10
14.1
 20
28.25
  0
LWPOLYLINE
  5
12C
100
AcDbEntity
  8
ASSEMBLY_OUTLINES_TOP
100
AcDbPolyline
 90
        2
 70
         0
 43
0.1
 10
14.0
 20
31.25
 10
14.0
 20
28.25
  0
LWPOLYLINE
  5
12D
100
AcDbEntity
  8
ASSEMBLY_OUTLINES_TOP
100
AcDbPolyline
 90
        2
 70
         0
 43
0.1
 10
13.9
 20
31.25
 10
13.9
 20
28.25
  0
LWPOLYLINE
  5
12E
100
AcDbEntity
  8
ASSEMBLY_OUTLINES_TOP
100
AcDbPolyline
 90
        2
 70
         0
 43
0.1
 10
13.8
 20
31.25
 10
13.8
 20
28.25
  0
LWPOLYLINE
  5
12F
100
AcDbEntity
  8
ASSEMBLY_OUTLINES_TOP
100
AcDbPolyline
 90
        2
 70
         0
 43
0.1
 10
13.7
 20
31.25
 10
13.7
 20
28.25
  0
LWPOLYLINE
  5
130
100
AcDbEntity
  8
ASSEMBLY_OUTLINES_TOP
100
AcDbPolyline
 90
        4
 70
         1
 10
86.13
 20
17.43
 10
86.13
 20
19.97
 10
91.21
 20
19.97
 10
91.21
 20
17.43
  0
LWPOLYLINE
  5
131
100
AcDbEntity
  8
ASSEMBLY_OUTLINES_TOP
100
AcDbPolyline
 90
        4
 70
         1
 43
0.1
 10
111.47
 20
14.95
 10
111.47
 20
18.95
 10
121.47
 20
18.95
 10
121.47
 20
14.95
  0
LWPOLYLINE
  5
132
100
AcDbEntity
  8
ASSEMBLY_OUTLINES_TOP
100
AcDbPolyline
 90
        2
 70
         1
 43
0.1
 10
119.97
 20
17.95
 42
-1.0
 10
120.97
 20
17.95
 42
-1.0
  0
LWPOLYLINE
  5
133
100
AcDbEntity
  8
ASSEMBLY_OUTLINES_TOP
100
AcDbPolyline
 90
        4
 70
         1
 10
2.370002
 20
-3.000002
 10
2.370002
 20
11.499998
 10
11.370002
 20
11.499998
 10
11.370002
 20
-3.000002
  0
LWPOLYLINE
  5
134
100
AcDbEntity
  8
ASSEMBLY_OUTLINES_TOP
100
AcDbPolyline
 90
        4
 70
         1
 10
131.54
 20
43.58
 10
131.54
 20
46.12
 10
139.04
 20
46.12
 10
139.04
 20
43.58
  0
LWPOLYLINE
  5
135
100
AcDbEntity
  8
ASSEMBLY_OUTLINES_TOP
100
AcDbPolyline
 90
        4
 70
         1
 43
0.1
 10
77.4
 20
34.9
 10
77.4
 20
36.5
 10
78.2
 20
36.5
 10
78.2
 20
34.9
  0
LWPOLYLINE
  5
136
100
AcDbEntity
  8
ASSEMBLY_OUTLINES_TOP
100
AcDbPolyline
 90
        4
 70
         1
 10
9.3
 20
58.35
 10
9.3
 20
63.35
 10
60.2
 20
63.35
 10
60.2
 20
58.35
  0
LWPOLYLINE
  5
137
100
AcDbEntity
  8
ASSEMBLY_OUTLINES_TOP
100
AcDbPolyline
 90
        8
 70
         1
 43
0.1
 10
2.85
 20
49.0
 10
2.85
 20
45.7
 42
0.4142135624
 10
3.85
 20
44.7
 10
7.05
 20
44.7
 42
0.4142135624
 10
8.05
 20
45.7
 10
8.05
 20
49.0
 42
0.4142135624
 10
7.05
 20
50.0
 10
3.85
 20
50.0
 42
0.4142135624
  0
LWPOLYLINE
  5
138
100
AcDbEntity
  8
ASSEMBLY_OUTLINES_TOP
100
AcDbPolyline
 90
        4
 70
         1
 10
26.62
 20
23.97
 10
26.62
 20
56.97
 10
35.32
 20
56.97
 10
35.32
 20
23.97
  0
LWPOLYLINE
  5
139
100
AcDbEntity
  8
ASSEMBLY_OUTLINES_TOP
100
AcDbPolyline
 90
        4
 70
         1
 10
26.62
 20
37.4
 10
26.62
 20
43.9
 10
27.2
 20
43.9
 10
27.2
 20
37.4
  0
LWPOLYLINE
  5
13A
100
AcDbEntity
  8
ASSEMBLY_OUTLINES_TOP
100
AcDbPolyline
 90
        4
 70
         1
 10
9.79
 20
54.33
 10
9.79
 20
56.87
 10
17.29
 20
56.87
 10
17.29
 20
54.33
  0
LWPOLYLINE
  5
13B
100
AcDbEntity
  8
ASSEMBLY_OUTLINES_TOP
100
AcDbPolyline
 90
        4
 70
         1
 10
5.83
 20
51.29
 10
5.83
 20
56.37
 10
8.37
 20
56.37
 10
8.37
 20
51.29
  0
LWPOLYLINE
  5
13C
100
AcDbEntity
  8
ASSEMBLY_OUTLINES_TOP
100
AcDbPolyline
 90
        4
 70
         1
 10
23.15
 20
21.05
 10
23.15
 20
23.05
 10
38.15
 20
23.05
 10
38.15
 20
21.05
  0
LWPOLYLINE
  5
13D
100
AcDbEntity
  8
ASSEMBLY_OUTLINES_TOP
100
AcDbPolyline
 90
        8
 70
         0
 10
113.75
 20
52.25
 42
-2.549150321
 10
113.75
 20
42.05
 10
113.75
 20
40.15
 10
111.75
 20
40.15
 10
111.75
 20
54.15
 10
113.75
 20
54.15
 10
113.75
 20
52.25
 10
113.75
 20
52.35
  0
LWPOLYLINE
  5
13E
100
AcDbEntity
  8
ASSEMBLY_OUTLINES_TOP
100
AcDbPolyline
 90
        4
 70
         1
 43
0.1
 10
79.9
 20
16.75
 10
79.9
 20
20.45
 10
82.9
 20
20.45
 10
82.9
 20
16.75
  0
LWPOLYLINE
  5
13F
100
AcDbEntity
  8
ASSEMBLY_OUTLINES_TOP
100
AcDbPolyline
 90
        2
 70
         0
 43
0.1
 10
79.9
 20
20.35
 10
82.9
 20
20.35
  0
LWPOLYLINE
  5
140
100
AcDbEntity
  8
ASSEMBLY_OUTLINES_TOP
100
AcDbPolyline
 90
        2
 70
         0
 43
0.1
 10
79.9
 20
20.25
 10
82.9
 20
20.25
  0
LWPOLYLINE
  5
141
100
AcDbEntity
  8
ASSEMBLY_OUTLINES_TOP
100
AcDbPolyline
 90
        2
 70
         0
 43
0.1
 10
79.9
 20
20.15
 10
82.9
 20
20.15
  0
LWPOLYLINE
  5
142
100
AcDbEntity
  8
ASSEMBLY_OUTLINES_TOP
100
AcDbPolyline
 90
        2
 70
         0
 43
0.1
 10
79.9
 20
20.05
 10
82.9
 20
20.05
  0
LWPOLYLINE
  5
143
100
AcDbEntity
  8
ASSEMBLY_OUTLINES_TOP
100
AcDbPolyline
 90
        2
 70
         0
 43
0.1
 10
79.9
 20
19.95
 10
82.9
 20
19.95
  0
LWPOLYLINE
  5
144
100
AcDbEntity
  8
ASSEMBLY_OUTLINES_TOP
100
AcDbPolyline
 90
        2
 70
         0
 43
0.1
 10
79.9
 20
19.85
 10
82.9
 20
19.85
  0
LWPOLYLINE
  5
145
100
AcDbEntity
  8
ASSEMBLY_OUTLINES_TOP
100
AcDbPolyline
 90
        2
 70
         0
 43
0.1
 10
79.9
 20
19.75
 10
82.9
 20
19.75
  0
LWPOLYLINE
  5
146
100
AcDbEntity
  8
ASSEMBLY_OUTLINES_TOP
100
AcDbPolyline
 90
        2
 70
         0
 43
0.1
 10
79.9
 20
19.65
 10
82.9
 20
19.65
  0
CIRCLE
  5
147
100
AcDbEntity
  8
ASSEMBLY_OUTLINES_TOP
100
AcDbCircle
 10
98.4
 20
48.85
 30
0.0
 40
2.0
  0
LWPOLYLINE
  5
148
100
AcDbEntity
  8
ASSEMBLY_OUTLINES_TOP
100
AcDbPolyline
 90
        4
 70
         1
 10
17.67
 20
23.97
 10
17.67
 20
56.97
 10
26.37
 20
56.97
 10
26.37
 20
23.97
  0
LWPOLYLINE
  5
149
100
AcDbEntity
  8
ASSEMBLY_OUTLINES_TOP
100
AcDbPolyline
 90
        4
 70
         1
 10
17.67
 20
37.4
 10
17.67
 20
43.9
 10
18.25
 20
43.9
 10
18.25
 20
37.4
  0
LWPOLYLINE
  5
14A
100
AcDbEntity
  8
ASSEMBLY_OUTLINES_TOP
100
AcDbPolyline
 90
        4
 70
         1
 43
0.1
 10
2.45
 20
38.05
 10
2.45
 20
41.35
 10
4.25
 20
41.35
 10
4.25
 20
38.05
  0
LWPOLYLINE
  5
14B
100
AcDbEntity
  8
ASSEMBLY_OUTLINES_TOP
100
AcDbPolyline
 90
        5
 70
         1
 10
17.4
 20
14.4
 10
17.4
 20
-18.6
 10
41.4
 20
-18.6
 10
41.4
 20
10.15
 10
36.9
 20
14.4
  0
LWPOLYLINE
  5
14C
100
AcDbEntity
  8
ASSEMBLY_OUTLINES_TOP
100
AcDbPolyline
 90
        4
 70
         1
 10
14.3
 20
-0.1
 10
14.3
 20
16.45
 10
42.9
 20
16.45
 10
42.9
 20
-0.1
  0
LWPOLYLINE
  5
14D
100
AcDbEntity
  8
ASSEMBLY_OUTLINES_TOP
100
AcDbPolyline
 90
        4
 70
         1
 43
0.1
 10
86.76
 20
37.45
 10
86.76
 20
45.15
 10
92.04
 20
45.15
 10
92.04
 20
37.45
  0
LWPOLYLINE
  5
14E
100
AcDbEntity
  8
ASSEMBLY_OUTLINES_TOP
100
AcDbPolyline
 90
        2
 70
         0
 43
0.1
 10
86.76
 20
45.05
 10
86.86
 20
45.15
  0
LWPOLYLINE
  5
14F
100
AcDbEntity
  8
ASSEMBLY_OUTLINES_TOP
100
AcDbPolyline
 90
        2
 70
         0
 43
0.1
 10
86.76
 20
44.95
 10
86.96
 20
45.15
  0
LWPOLYLINE
  5
150
100
AcDbEntity
  8
ASSEMBLY_OUTLINES_TOP
100
AcDbPolyline
 90
        2
 70
         0
 43
0.1
 10
86.76
 20
44.85
 10
87.06
 20
45.15
  0
LWPOLYLINE
  5
151
100
AcDbEntity
  8
ASSEMBLY_OUTLINES_TOP
100
AcDbPolyline
 90
        2
 70
         0
 43
0.1
 10
86.76
 20
44.75
 10
87.16
 20
45.15
  0
LWPOLYLINE
  5
152
100
AcDbEntity
  8
ASSEMBLY_OUTLINES_TOP
100
AcDbPolyline
 90
        2
 70
         0
 43
0.1
 10
86.76
 20
44.65
 10
87.26
 20
45.15
  0
LWPOLYLINE
  5
153
100
AcDbEntity
  8
ASSEMBLY_OUTLINES_TOP
100
AcDbPolyline
 90
        2
 70
         0
 43
0.1
 10
86.76
 20
44.55
 10
87.36
 20
45.15
  0
LWPOLYLINE
  5
154
100
AcDbEntity
  8
ASSEMBLY_OUTLINES_TOP
100
AcDbPolyline
 90
        2
 70
         0
 10
138.4
 20
63.0
 10
132.4
 20
63.0
  0
LWPOLYLINE
  5
155
100
AcDbEntity
  8
ASSEMBLY_OUTLINES_TOP
100
AcDbPolyline
 90
        2
 70
         0
 10
138.8
 20
63.0
 10
132.8
 20
63.0
  0
LWPOLYLINE
  5
156
100
AcDbEntity
  8
ASSEMBLY_OUTLINES_TOP
100
AcDbPolyline
 90
        6
 70
         1
 10
139.3
 20
66.8
 10
133.3
 20
66.8
 10
133.3
 20
63.0
 10
131.2
 20
63.0
 10
131.2
 20
48.8
 10
139.3
 20
48.8
  0
LWPOLYLINE
  5
157
100
AcDbEntity
  8
ASSEMBLY_OUTLINES_TOP
100
AcDbPolyline
 90
        6
 70
         1
 43
0.1
 10
115.3
 20
35.15
 10
116.95
 20
36.8
 10
121.9
 20
36.8
 10
121.9
 20
30.2
 10
116.95
 20
30.2
 10
115.3
 20
31.85
  0
LWPOLYLINE
  5
158
100
AcDbEntity
  8
ASSEMBLY_OUTLINES_TOP
100
AcDbPolyline
 90
        4
 70
         1
 10
48.81
 20
-3.0
 10
48.81
 20
11.0
 10
62.01
 20
11.0
 10
62.01
 20
-3.0
  0
LWPOLYLINE
  5
159
100
AcDbEntity
  8
ASSEMBLY_OUTLINES_TOP
100
AcDbPolyline
 90
        2
 70
         0
 10
136.7
 20
33.9
 10
136.7
 20
41.4
  0
LWPOLYLINE
  5
15A
100
AcDbEntity
  8
ASSEMBLY_OUTLINES_TOP
100
AcDbPolyline
 90
        2
 70
         0
 10
132.7
 20
33.9
 10
132.7
 20
41.4
  0
LWPOLYLINE
  5
15B
100
AcDbEntity
  8
ASSEMBLY_OUTLINES_TOP
100
AcDbPolyline
 90
        2
 70
         0
 10
136.7
 20
41.4
 42
1.0
 10
132.7
 20
41.4
  0
LWPOLYLINE
  5
15C
100
AcDbEntity
  8
ASSEMBLY_OUTLINES_TOP
100
AcDbPolyline
 90
        2
 70
         0
 10
132.7
 20
33.9
 42
1.0
 10
136.7
 20
33.9
  0
LWPOLYLINE
  5
15D
100
AcDbEntity
  8
ASSEMBLY_OUTLINES_TOP
100
AcDbPolyline
 90
        4
 70
         1
 43
0.1
 10
101.8
 20
29.0
 10
101.8
 20
36.0
 10
108.8
 20
36.0
 10
108.8
 20
29.0
  0
LWPOLYLINE
  5
15E
100
AcDbEntity
  8
ASSEMBLY_OUTLINES_TOP
100
AcDbPolyline
 90
        2
 70
         1
 43
0.1
 10
102.3
 20
30.0
 42
-1.0
 10
103.3
 20
30.0
 42
-1.0
  0
LWPOLYLINE
  5
15F
100
AcDbEntity
  8
ASSEMBLY_OUTLINES_TOP
100
AcDbPolyline
 90
        4
 70
         1
 43
0.1
 10
8.4
 20
45.7
 10
8.4
 20
49.4
 10
11.4
 20
49.4
 10
11.4
 20
45.7
  0
LWPOLYLINE
  5
160
100
AcDbEntity
  8
ASSEMBLY_OUTLINES_TOP
100
AcDbPolyline
 90
        2
 70
         0
 43
0.1
 10
8.4
 20
49.3
 10
11.4
 20
49.3
  0
LWPOLYLINE
  5
161
100
AcDbEntity
  8
ASSEMBLY_OUTLINES_TOP
100
AcDbPolyline
 90
        2
 70
         0
 43
0.1
 10
8.4
 20
49.2
 10
11.4
 20
49.2
  0
LWPOLYLINE
  5
162
100
AcDbEntity
  8
ASSEMBLY_OUTLINES_TOP
100
AcDbPolyline
 90
        2
 70
         0
 43
0.1
 10
8.4
 20
49.1
 10
11.4
 20
49.1
  0
LWPOLYLINE
  5
163
100
AcDbEntity
  8
ASSEMBLY_OUTLINES_TOP
100
AcDbPolyline
 90
        2
 70
         0
 43
0.1
 10
8.4
 20
49.0
 10
11.4
 20
49.0
  0
LWPOLYLINE
  5
164
100
AcDbEntity
  8
ASSEMBLY_OUTLINES_TOP
100
AcDbPolyline
 90
        2
 70
         0
 43
0.1
 10
8.4
 20
48.9
 10
11.4
 20
48.9
  0
LWPOLYLINE
  5
165
100
AcDbEntity
  8
ASSEMBLY_OUTLINES_TOP
100
AcDbPolyline
 90
        2
 70
         0
 43
0.1
 10
8.4
 20
48.8
 10
11.4
 20
48.8
  0
LWPOLYLINE
  5
166
100
AcDbEntity
  8
ASSEMBLY_OUTLINES_TOP
100
AcDbPolyline
 90
        2
 70
         0
 43
0.1
 10
8.4
 20
48.7
 10
11.4
 20
48.7
  0
LWPOLYLINE
  5
167
100
AcDbEntity
  8
ASSEMBLY_OUTLINES_TOP
100
AcDbPolyline
 90
        2
 70
         0
 43
0.1
 10
8.4
 20
48.6
 10
11.4
 20
48.6
  0
LWPOLYLINE
  5
168
100
AcDbEntity
  8
ASSEMBLY_OUTLINES_TOP
100
AcDbPolyline
 90
        2
 70
         0
 10
109.25
 20
26.85
 10
101.75
 20
26.85
  0
LWPOLYLINE
  5
169
100
AcDbEntity
  8
ASSEMBLY_OUTLINES_TOP
100
AcDbPolyline
 90
        2
 70
         0
 10
109.25
 20
22.85
 10
101.75
 20
22.85
  0
LWPOLYLINE
  5
16A
100
AcDbEntity
  8
ASSEMBLY_OUTLINES_TOP
100
AcDbPolyline
 90
        2
 70
         0
 10
101.75
 20
26.85
 42
1.0
 10
101.75
 20
22.85
  0
LWPOLYLINE
  5
16B
100
AcDbEntity
  8
ASSEMBLY_OUTLINES_TOP
100
AcDbPolyline
 90
        2
 70
         0
 10
109.25
 20
22.85
 42
1.0
 10
109.25
 20
26.85
  0
LWPOLYLINE
  5
16C
100
AcDbEntity
  8
ASSEMBLY_OUTLINES_TOP
100
AcDbPolyline
 90
        8
 70
         1
 43
0.1
 10
8.35
 20
32.5
 10
8.35
 20
35.8
 42
0.4142135624
 10
7.35
 20
36.8
 10
4.15
 20
36.8
 42
0.4142135624
 10
3.15
 20
35.8
 10
3.15
 20
32.5
 42
0.4142135624
 10
4.15
 20
31.5
 10
7.35
 20
31.5
 42
0.4142135624
  0
LWPOLYLINE
  5
16D
100
AcDbEntity
  8
ASSEMBLY_OUTLINES_TOP
100
AcDbPolyline
 90
        4
 70
         1
 10
45.34
 20
22.03
 10
45.34
 20
24.57
 10
50.42
 20
24.57
 10
50.42
 20
22.03
  0
LWPOLYLINE
  5
16E
100
AcDbEntity
  8
ASSEMBLY_OUTLINES_TOP
100
AcDbPolyline
 90
        4
 70
         1
 43
0.1
 10
12.75
 20
38.55
 10
12.75
 20
41.55
 10
16.45
 20
41.55
 10
16.45
 20
38.55
  0
LWPOLYLINE
  5
16F
100
AcDbEntity
  8
ASSEMBLY_OUTLINES_TOP
100
AcDbPolyline
 90
        2
 70
         0
 43
0.1
 10
12.85
 20
38.55
 10
12.85
 20
41.55
  0
LWPOLYLINE
  5
170
100
AcDbEntity
  8
ASSEMBLY_OUTLINES_TOP
100
AcDbPolyline
 90
        2
 70
         0
 43
0.1
 10
12.95
 20
38.55
 10
12.95
 20
41.55
  0
LWPOLYLINE
  5
171
100
AcDbEntity
  8
ASSEMBLY_OUTLINES_TOP
100
AcDbPolyline
 90
        2
 70
         0
 43
0.1
 10
13.05
 20
38.55
 10
13.05
 20
41.55
  0
LWPOLYLINE
  5
172
100
AcDbEntity
  8
ASSEMBLY_OUTLINES_TOP
100
AcDbPolyline
 90
        2
 70
         0
 43
0.1
 10
13.15
 20
38.55
 10
13.15
 20
41.55
  0
LWPOLYLINE
  5
173
100
AcDbEntity
  8
ASSEMBLY_OUTLINES_TOP
100
AcDbPolyline
 90
        2
 70
         0
 43
0.1
 10
13.25
 20
38.55
 10
13.25
 20
41.55
  0
LWPOLYLINE
  5
174
100
AcDbEntity
  8
ASSEMBLY_OUTLINES_TOP
100
AcDbPolyline
 90
        2
 70
         0
 43
0.1
 10
13.35
 20
38.55
 10
13.35
 20
41.55
  0
LWPOLYLINE
  5
175
100
AcDbEntity
  8
ASSEMBLY_OUTLINES_TOP
100
AcDbPolyline
 90
        2
 70
         0
 43
0.1
 10
13.45
 20
38.55
 10
13.45
 20
41.55
  0
LWPOLYLINE
  5
176
100
AcDbEntity
  8
ASSEMBLY_OUTLINES_TOP
100
AcDbPolyline
 90
        2
 70
         0
 43
0.1
 10
13.55
 20
38.55
 10
13.55
 20
41.55
  0
LWPOLYLINE
  5
177
100
AcDbEntity
  8
ASSEMBLY_OUTLINES_TOP
100
AcDbPolyline
 90
        4
 70
         1
 10
43.93
 20
4.43
 10
43.93
 20
9.51
 10
46.47
 20
9.51
 10
46.47
 20
4.43
  0
LWPOLYLINE
  5
178
100
AcDbEntity
  8
ASSEMBLY_OUTLINES_TOP
100
AcDbPolyline
 90
        4
 70
         1
 43
0.1
 10
66.35
 20
16.25
 10
66.35
 20
23.75
 10
78.85
 20
23.75
 10
78.85
 20
16.25
  0
LWPOLYLINE
  5
179
100
AcDbEntity
  8
ASSEMBLY_OUTLINES_TOP
100
AcDbPolyline
 90
        4
 70
         1
 43
0.1
 10
65.6
 20
14.25
 10
65.6
 20
25.75
 10
79.6
 20
25.75
 10
79.6
 20
14.25
  0
LWPOLYLINE
  5
17A
100
AcDbEntity
  8
ASSEMBLY_OUTLINES_TOP
100
AcDbPolyline
 90
        2
 70
         0
 43
0.1
 10
79.5
 20
25.75
 10
79.6
 20
25.65
  0
LWPOLYLINE
  5
17B
100
AcDbEntity
  8
ASSEMBLY_OUTLINES_TOP
100
AcDbPolyline
 90
        2
 70
         0
 43
0.1
 10
79.4
 20
25.75
 10
79.6
 20
25.55
  0
LWPOLYLINE
  5
17C
100
AcDbEntity
  8
ASSEMBLY_OUTLINES_TOP
100
AcDbPolyline
 90
        2
 70
         0
 43
0.1
 10
79.3
 20
25.75
 10
79.6
 20
25.45
  0
LWPOLYLINE
  5
17D
100
AcDbEntity
  8
ASSEMBLY_OUTLINES_TOP
100
AcDbPolyline
 90
        2
 70
         0
 43
0.1
 10
79.2
 20
25.75
 10
79.6
 20
25.35
  0
LWPOLYLINE
  5
17E
100
AcDbEntity
  8
ASSEMBLY_OUTLINES_TOP
100
AcDbPolyline
 90
        2
 70
         0
 43
0.1
 10
79.1
 20
25.75
 10
79.6
 20
25.25
  0
LWPOLYLINE
  5
17F
100
AcDbEntity
  8
ASSEMBLY_OUTLINES_TOP
100
AcDbPolyline
 90
        2
 70
         0
 43
0.1
 10
79.0
 20
25.75
 10
79.6
 20
25.15
  0
LWPOLYLINE
  5
180
100
AcDbEntity
  8
ASSEMBLY_OUTLINES_TOP
100
AcDbPolyline
 90
        4
 70
         1
 10
70.93
 20
0.89
 10
70.93
 20
5.97
 10
73.47
 20
5.97
 10
73.47
 20
0.89
  0
LWPOLYLINE
  5
181
100
AcDbEntity
  8
ASSEMBLY_OUTLINES_TOP
100
AcDbPolyline
 90
        4
 70
         1
 43
0.1
 10
11.925
 20
18.975
 10
11.925
 20
20.725
 10
14.975
 20
20.725
 10
14.975
 20
18.975
  0
LWPOLYLINE
  5
182
100
AcDbEntity
  8
ASSEMBLY_OUTLINES_TOP
100
AcDbPolyline
 90
        2
 70
         0
 43
0.1
 10
14.875
 20
20.725
 10
14.975
 20
20.625
  0
LWPOLYLINE
  5
183
100
AcDbEntity
  8
ASSEMBLY_OUTLINES_TOP
100
AcDbPolyline
 90
        2
 70
         0
 43
0.1
 10
14.775
 20
20.725
 10
14.975
 20
20.525
  0
LWPOLYLINE
  5
184
100
AcDbEntity
  8
ASSEMBLY_OUTLINES_TOP
100
AcDbPolyline
 90
        2
 70
         0
 43
0.1
 10
14.675
 20
20.725
 10
14.975
 20
20.425
  0
LWPOLYLINE
  5
185
100
AcDbEntity
  8
ASSEMBLY_OUTLINES_TOP
100
AcDbPolyline
 90
        2
 70
         0
 43
0.1
 10
14.575
 20
20.725
 10
14.975
 20
20.325
  0
LWPOLYLINE
  5
186
100
AcDbEntity
  8
ASSEMBLY_OUTLINES_TOP
100
AcDbPolyline
 90
        2
 70
         0
 43
0.1
 10
14.475
 20
20.725
 10
14.975
 20
20.225
  0
LWPOLYLINE
  5
187
100
AcDbEntity
  8
ASSEMBLY_OUTLINES_TOP
100
AcDbPolyline
 90
        2
 70
         0
 43
0.1
 10
14.375
 20
20.725
 10
14.975
 20
20.125
  0
LWPOLYLINE
  5
188
100
AcDbEntity
  8
ASSEMBLY_OUTLINES_TOP
100
AcDbPolyline
 90
        4
 70
         1
 10
39.43
 20
21.63
 10
39.43
 20
24.17
 10
44.51
 20
24.17
 10
44.51
 20
21.63
  0
LWPOLYLINE
  5
189
100
AcDbEntity
  8
ASSEMBLY_OUTLINES_TOP
100
AcDbPolyline
 90
        4
 70
         1
 10
86.13
 20
20.03
 10
86.13
 20
22.57
 10
91.21
 20
22.57
 10
91.21
 20
20.03
  0
LWPOLYLINE
  5
18A
100
AcDbEntity
  8
ASSEMBLY_OUTLINES_TOP
100
AcDbPolyline
 90
        4
 70
         1
 10
23.6
 20
0.0
 10
23.6
 20
12.1
 10
37.0
 20
12.1
 10
37.0
 20
0.0
  0
LWPOLYLINE
  5
18B
100
AcDbEntity
  8
ASSEMBLY_OUTLINES_TOP
100
AcDbPolyline
 90
        4
 70
         1
 10
24.3
 20
-7.0
 10
24.3
 20
0.0
 10
35.3
 20
0.0
 10
35.3
 20
-7.0
  0
TEXT
  5
18D
100
AcDbEntity
  8
ASSEMBLY_REF_DES_TOP
100
AcDbText
 10
96.3565
 20
41.8715
 30
0.0
 40
1.0
  1
DA4
 50
270.0
  7
GOST_TYPE_B
 72
         1
 11
96.85
 21
40.65
 31
0.0
100
AcDbText
 73
         2
  0
TEXT
  5
18E
100
AcDbEntity
  8
ASSEMBLY_REF_DES_TOP
100
AcDbText
 10
95.628
 20
32.7065
 30
0.0
 40
1.0
  1
DA5
  7
GOST_TYPE_B
 72
         1
 11
96.8
 21
33.2
 31
0.0
100
AcDbText
 73
         2
  0
TEXT
  5
18F
100
AcDbEntity
  8
ASSEMBLY_REF_DES_TOP
100
AcDbText
 10
82.513148
 20
49.09304
 30
0.0
 40
1.0
  1
X5
  7
GOST_TYPE_B
 72
         2
 11
84.076148
 21
49.09304
 31
0.0
100
AcDbText
 73
         1
  0
TEXT
  5
190
100
AcDbEntity
  8
ASSEMBLY_REF_DES_TOP
100
AcDbText
 10
63.677
 20
36.6065
 30
0.0
 40
1.0
  1
DD2
  7
GOST_TYPE_B
 72
         1
 11
64.8
 21
37.1
 31
0.0
100
AcDbText
 73
         2
  0
TEXT
  5
191
100
AcDbEntity
  8
ASSEMBLY_REF_DES_TOP
100
AcDbText
 10
12.066
 20
33.7565
 30
0.0
 40
1.0
  1
L3
  7
GOST_TYPE_B
 72
         1
 11
12.75
 21
34.25
 31
0.0
100
AcDbText
 73
         2
  0
TEXT
  5
192
100
AcDbEntity
  8
ASSEMBLY_REF_DES_TOP
100
AcDbText
 10
45.534225
 20
50.748275
 30
0.0
 40
1.0
  1
DA1
  7
GOST_TYPE_B
 72
         1
 11
46.608225
 21
51.241775
 31
0.0
100
AcDbText
 73
         2
  0
TEXT
  5
193
100
AcDbEntity
  8
ASSEMBLY_REF_DES_TOP
100
AcDbText
 10
102.6904
 20
48.4719
 30
0.0
 40
1.0
  1
DD1
  7
GOST_TYPE_B
 72
         1
 11
103.7154
 21
48.9654
 31
0.0
100
AcDbText
 73
         2
  0
TEXT
  5
194
100
AcDbEntity
  8
ASSEMBLY_REF_DES_TOP
100
AcDbText
 10
124.437
 20
57.62
 30
0.0
 40
1.0
  1
X3
  7
GOST_TYPE_B
 72
         2
 11
126.0
 21
57.62
 31
0.0
100
AcDbText
 73
         1
  0
TEXT
  5
195
100
AcDbEntity
  8
ASSEMBLY_REF_DES_TOP
100
AcDbText
 10
78.919
 20
5.2
 30
0.0
 40
1.0
  1
X16
  7
GOST_TYPE_B
 72
         2
 11
80.97
 21
5.2
 31
0.0
100
AcDbText
 73
         1
  0
TEXT
  5
196
100
AcDbEntity
  8
ASSEMBLY_REF_DES_TOP
100
AcDbText
 10
99.4955
 20
11.1565
 30
0.0
 40
1.0
  1
T1
  7
GOST_TYPE_B
 72
         1
 11
100.13
 21
11.65
 31
0.0
100
AcDbText
 73
         2
  0
TEXT
  5
197
100
AcDbEntity
  8
ASSEMBLY_REF_DES_TOP
100
AcDbText
 10
51.318
 20
36.66
 30
0.0
 40
1.0
  1
ZQ3
  7
GOST_TYPE_B
 72
         2
 11
53.76
 21
36.66
 31
0.0
100
AcDbText
 73
         1
  0
TEXT
  5
198
100
AcDbEntity
  8
ASSEMBLY_REF_DES_TOP
100
AcDbText
 10
125.917644
 20
26.548855
 30
0.0
 40
1.0
  1
X8
  7
GOST_TYPE_B
 72
         1
 11
126.747644
 21
27.042355
 31
0.0
100
AcDbText
 73
         2
  0
TEXT
  5
199
100
AcDbEntity
  8
ASSEMBLY_REF_DES_TOP
100
AcDbText
 10
123.449
 20
6.21
 30
0.0
 40
1.0
  1
X12
  7
GOST_TYPE_B
 72
         2
 11
125.5
 21
6.21
 31
0.0
100
AcDbText
 73
         1
  0
TEXT
  5
19A
100
AcDbEntity
  8
ASSEMBLY_REF_DES_TOP
100
AcDbText
 10
39.418725
 20
48.682275
 30
0.0
 40
1.0
  1
J4
  7
GOST_TYPE_B
 72
         2
 11
40.785725
 21
48.682275
 31
0.0
100
AcDbText
 73
         1
  0
TEXT
  5
19B
100
AcDbEntity
  8
ASSEMBLY_REF_DES_TOP
100
AcDbText
 10
19.680225
 20
21.448275
 30
0.0
 40
1.0
  1
C10
  7
GOST_TYPE_B
 72
         1
 11
20.608225
 21
21.941775
 31
0.0
100
AcDbText
 73
         2
  0
TEXT
  5
19C
100
AcDbEntity
  8
ASSEMBLY_REF_DES_TOP
100
AcDbText
 10
86.577
 20
28.6065
 30
0.0
 40
1.0
  1
DD5
  7
GOST_TYPE_B
 72
         1
 11
87.7
 21
29.1
 31
0.0
100
AcDbText
 73
         2
  0
TEXT
  5
19D
100
AcDbEntity
  8
ASSEMBLY_REF_DES_TOP
100
AcDbText
 10
133.527
 20
26.1065
 30
0.0
 40
1.0
  1
DD6
  7
GOST_TYPE_B
 72
         1
 11
134.65
 21
26.6
 31
0.0
100
AcDbText
 73
         2
  0
TEXT
  5
19E
100
AcDbEntity
  8
ASSEMBLY_REF_DES_TOP
100
AcDbText
 10
104.756
 20
41.9
 30
0.0
 40
1.0
  1
SW1
  7
GOST_TYPE_B
 72
         2
 11
107.1
 21
41.9
 31
0.0
100
AcDbText
 73
         1
  0
TEXT
  5
19F
100
AcDbEntity
  8
ASSEMBLY_REF_DES_TOP
100
AcDbText
 10
92.046145
 20
60.354144
 30
0.0
 40
1.0
  1
X2
  7
GOST_TYPE_B
 72
         1
 11
92.827645
 21
60.847644
 31
0.0
100
AcDbText
 73
         2
  0
TEXT
  5
1A0
100
AcDbEntity
  8
ASSEMBLY_REF_DES_TOP
100
AcDbText
 10
13.769725
 20
24.631275
 30
0.0
 40
1.0
  1
L4
  7
GOST_TYPE_B
 72
         2
 11
15.234725
 21
24.631275
 31
0.0
100
AcDbText
 73
         1
  0
TEXT
  5
1A1
100
AcDbEntity
  8
ASSEMBLY_REF_DES_TOP
100
AcDbText
 10
54.399
 20
11.95
 30
0.0
 40
1.0
  1
X10
  7
GOST_TYPE_B
 72
         2
 11
56.45
 21
11.95
 31
0.0
100
AcDbText
 73
         1
  0
TEXT
  5
1A2
100
AcDbEntity
  8
ASSEMBLY_REF_DES_TOP
100
AcDbText
 10
5.046
 20
17.7665
 30
0.0
 40
1.0
  1
VD1
  7
GOST_TYPE_B
 72
         1
 11
6.12
 21
18.26
 31
0.0
100
AcDbText
 73
         2
  0
TEXT
  5
1A3
100
AcDbEntity
  8
ASSEMBLY_REF_DES_TOP
100
AcDbText
 10
38.716725
 20
51.283275
 30
0.0
 40
1.0
  1
J3
  7
GOST_TYPE_B
 72
         2
 11
39.986725
 21
51.283275
 31
0.0
100
AcDbText
 73
         1
  0
TEXT
  5
1A4
100
AcDbEntity
  8
ASSEMBLY_REF_DES_TOP
100
AcDbText
 10
65.638
 20
9.3
 30
0.0
 40
1.0
  1
J11
  7
GOST_TYPE_B
 72
         2
 11
67.2
 21
9.3
 31
0.0
100
AcDbText
 73
         1
  0
TEXT
  5
1A5
100
AcDbEntity
  8
ASSEMBLY_REF_DES_TOP
100
AcDbText
 10
117.916
 20
25.4065
 30
0.0
 40
1.0
  1
C9
  7
GOST_TYPE_B
 72
         1
 11
118.6
 21
25.9
 31
0.0
100
AcDbText
 73
         2
  0
TEXT
  5
1A6
100
AcDbEntity
  8
ASSEMBLY_REF_DES_TOP
100
AcDbText
 10
56.777
 20
19.5065
 30
0.0
 40
1.0
  1
DD7
  7
GOST_TYPE_B
 72
         1
 11
57.9
 21
20.0
 31
0.0
100
AcDbText
 73
         2
  0
TEXT
  5
1A7
100
AcDbEntity
  8
ASSEMBLY_REF_DES_TOP
100
AcDbText
 10
63.842
 20
2.9
 30
0.0
 40
1.0
  1
J13
  7
GOST_TYPE_B
 72
         2
 11
65.6
 21
2.9
 31
0.0
100
AcDbText
 73
         1
  0
TEXT
  5
1A8
100
AcDbEntity
  8
ASSEMBLY_REF_DES_TOP
100
AcDbText
 10
51.208
 20
45.1
 30
0.0
 40
1.0
  1
ZQ2
  7
GOST_TYPE_B
 72
         2
 11
53.65
 21
45.1
 31
0.0
100
AcDbText
 73
         1
  0
TEXT
  5
1A9
100
AcDbEntity
  8
ASSEMBLY_REF_DES_TOP
100
AcDbText
 10
134.68
 20
46.95
 30
0.0
 40
1.0
  1
J5
  7
GOST_TYPE_B
 72
         2
 11
135.95
 21
46.95
 31
0.0
100
AcDbText
 73
         1
  0
TEXT
  5
1AA
100
AcDbEntity
  8
ASSEMBLY_REF_DES_TOP
100
AcDbText
 10
42.577
 20
35.1065
 30
0.0
 40
1.0
  1
DD3
  7
GOST_TYPE_B
 72
         1
 11
43.7
 21
35.6
 31
0.0
100
AcDbText
 73
         2
  0
TEXT
  5
1AB
100
AcDbEntity
  8
ASSEMBLY_REF_DES_TOP
100
AcDbText
 10
6.636225
 20
41.348275
 30
0.0
 40
1.0
  1
DA2
  7
GOST_TYPE_B
 72
         1
 11
7.808225
 21
41.841775
 31
0.0
100
AcDbText
 73
         2
  0
TEXT
  5
1AC
100
AcDbEntity
  8
ASSEMBLY_REF_DES_TOP
100
AcDbText
 10
13.574
 20
42.80975
 30
0.0
 40
1.5
  1
C2
  7
GOST_TYPE_B
 72
         1
 11
14.6
 21
43.55
 31
0.0
100
AcDbText
 73
         2
  0
TEXT
  5
1AD
100
AcDbEntity
  8
ASSEMBLY_REF_DES_TOP
100
AcDbText
 10
44.5235
 20
13.3565
 30
0.0
 40
1.0
  1
HL1
  7
GOST_TYPE_B
 72
         1
 11
45.5
 21
13.85
 31
0.0
100
AcDbText
 73
         2
  0
TEXT
  5
1AE
100
AcDbEntity
  8
ASSEMBLY_REF_DES_TOP
100
AcDbText
 10
4.674
 20
29.00975
 30
0.0
 40
1.5
  1
C6
  7
GOST_TYPE_B
 72
         1
 11
5.7
 21
29.75
 31
0.0
100
AcDbText
 73
         2
  0
TEXT
  5
1AF
100
AcDbEntity
  8
ASSEMBLY_REF_DES_TOP
100
AcDbText
 10
6.205725
 20
23.668275
 30
0.0
 40
1.0
  1
C8
  7
GOST_TYPE_B
 72
         1
 11
6.938225
 21
24.161775
 31
0.0
100
AcDbText
 73
         2
  0
TEXT
  5
1B0
100
AcDbEntity
  8
ASSEMBLY_REF_DES_TOP
100
AcDbText
 10
48.078225
 20
18.248275
 30
0.0
 40
1.0
  1
C11
  7
GOST_TYPE_B
 72
         1
 11
48.908225
 21
18.741775
 31
0.0
100
AcDbText
 73
         2
  0
TEXT
  5
1B1
100
AcDbEntity
  8
ASSEMBLY_REF_DES_TOP
100
AcDbText
 10
11.624
 20
29.00975
 30
0.0
 40
1.5
  1
C7
  7
GOST_TYPE_B
 72
         1
 11
12.65
 21
29.75
 31
0.0
100
AcDbText
 73
         2
  0
TEXT
  5
1B2
100
AcDbEntity
  8
ASSEMBLY_REF_DES_TOP
100
AcDbText
 10
87.742
 20
18.2
 30
0.0
 40
1.0
  1
J10
  7
GOST_TYPE_B
 72
         2
 11
89.5
 21
18.2
 31
0.0
100
AcDbText
 73
         1
  0
TEXT
  5
1B3
100
AcDbEntity
  8
ASSEMBLY_REF_DES_TOP
100
AcDbText
 10
115.298
 20
16.4565
 30
0.0
 40
1.0
  1
DA7
  7
GOST_TYPE_B
 72
         1
 11
116.47
 21
16.95
 31
0.0
100
AcDbText
 73
         2
  0
TEXT
  5
1B4
100
AcDbEntity
  8
ASSEMBLY_REF_DES_TOP
100
AcDbText
 10
5.069002
 20
7.999998
 30
0.0
 40
1.0
  1
X13
  7
GOST_TYPE_B
 72
         2
 11
7.120002
 21
7.999998
 31
0.0
100
AcDbText
 73
         1
  0
TEXT
  5
1B5
100
AcDbEntity
  8
ASSEMBLY_REF_DES_TOP
100
AcDbText
 10
134.68
 20
44.35
 30
0.0
 40
1.0
  1
J6
  7
GOST_TYPE_B
 72
         2
 11
135.95
 21
44.35
 31
0.0
100
AcDbText
 73
         1
  0
TEXT
  5
1B6
100
AcDbEntity
  8
ASSEMBLY_REF_DES_TOP
100
AcDbText
 10
77.1655
 20
36.9065
 30
0.0
 40
1.0
  1
R1
  7
GOST_TYPE_B
 72
         1
 11
77.8
 21
37.4
 31
0.0
100
AcDbText
 73
         2
  0
TEXT
  5
1B7
100
AcDbEntity
  8
ASSEMBLY_REF_DES_TOP
100
AcDbText
 10
34.274145
 20
60.354144
 30
0.0
 40
1.0
  1
X1
  7
GOST_TYPE_B
 72
         1
 11
34.957645
 21
60.847644
 31
0.0
100
AcDbText
 73
         2
  0
TEXT
  5
1B8
100
AcDbEntity
  8
ASSEMBLY_REF_DES_TOP
100
AcDbText
 10
4.914
 20
46.9065
 30
0.0
 40
1.0
  1
L1
  7
GOST_TYPE_B
 72
         1
 11
5.5
 21
47.4
 31
0.0
100
AcDbText
 73
         2
  0
TEXT
  5
1B9
100
AcDbEntity
  8
ASSEMBLY_REF_DES_TOP
100
AcDbText
 10
30.270225
 20
39.929775
 30
0.0
 40
1.0
  1
X7
  7
GOST_TYPE_B
 72
         2
 11
31.833225
 21
39.929775
 31
0.0
100
AcDbText
 73
         1
  0
TEXT
  5
1BA
100
AcDbEntity
  8
ASSEMBLY_REF_DES_TOP
100
AcDbText
 10
12.826
 20
55.15
 30
0.0
 40
1.0
  1
J1
  7
GOST_TYPE_B
 72
         2
 11
13.9
 21
55.15
 31
0.0
100
AcDbText
 73
         1
  0
TEXT
  5
1BC
100
AcDbEntity
  8
ASSEMBLY_REF_DES_TOP
100
AcDbText
 10
6.7
 20
54.74
 30
0.0
 40
1.0
  1
J2
 50
270.0
  7
VERIBEST_GERBER_0
 72
         2
 11
6.7
 21
52.85
 31
0.0
100
AcDbText
 73
         1
  0
TEXT
  5
1BD
100
AcDbEntity
  8
ASSEMBLY_REF_DES_TOP
100
AcDbText
 10
29.837
 20
21.5
 30
0.0
 40
1.0
  1
X9
  7
GOST_TYPE_B
 72
         2
 11
31.4
 21
21.5
 31
0.0
100
AcDbText
 73
         1
  0
TEXT
  5
1BE
100
AcDbEntity
  8
ASSEMBLY_REF_DES_TOP
100
AcDbText
 10
117.9
 20
46.313
 30
0.0
 40
1.0
  1
Bat1
  7
GOST_TYPE_B
 11
117.9
 21
47.3
 31
0.0
100
AcDbText
 73
         3
  0
TEXT
  5
1BF
100
AcDbEntity
  8
ASSEMBLY_REF_DES_TOP
100
AcDbText
 10
80.472
 20
18.1065
 30
0.0
 40
1.0
  1
C12
  7
GOST_TYPE_B
 72
         1
 11
81.4
 21
18.6
 31
0.0
100
AcDbText
 73
         2
  0
TEXT
  5
1C0
100
AcDbEntity
  8
ASSEMBLY_REF_DES_TOP
100
AcDbText
 10
97.228725
 20
51.321275
 30
0.0
 40
1.0
  1
ZQ1
  7
GOST_TYPE_B
 72
         2
 11
99.474725
 21
51.321275
 31
0.0
100
AcDbText
 73
         1
  0
TEXT
  5
1C1
100
AcDbEntity
  8
ASSEMBLY_REF_DES_TOP
100
AcDbText
 10
20.970225
 20
39.879775
 30
0.0
 40
1.0
  1
X6
  7
GOST_TYPE_B
 72
         2
 11
22.533225
 21
39.879775
 31
0.0
100
AcDbText
 73
         1
  0
TEXT
  5
1C2
100
AcDbEntity
  8
ASSEMBLY_REF_DES_TOP
100
AcDbText
 10
2.8565
 20
40.433
 30
0.0
 40
1.0
  1
C4
 50
270.0
  7
GOST_TYPE_B
 72
         1
 11
3.35
 21
39.7
 31
0.0
100
AcDbText
 73
         2
  0
TEXT
  5
1C3
100
AcDbEntity
  8
ASSEMBLY_REF_DES_TOP
100
AcDbText
 10
31.17
 20
3.15
 30
0.0
 40
1.0
  1
X11
  7
GOST_TYPE_B
 72
         2
 11
33.025
 21
3.15
 31
0.0
100
AcDbText
 73
         1
  0
TEXT
  5
1C4
100
AcDbEntity
  8
ASSEMBLY_REF_DES_TOP
100
AcDbText
 10
88.9065
 20
42.4725
 30
0.0
 40
1.0
  1
DA3
 50
270.0
  7
GOST_TYPE_B
 72
         1
 11
89.4
 21
41.3
 31
0.0
100
AcDbText
 73
         2
  0
TEXT
  5
1C5
100
AcDbEntity
  8
ASSEMBLY_REF_DES_TOP
100
AcDbText
 10
134.54
 20
56.1
 30
0.0
 40
1.0
  1
X4
  7
GOST_TYPE_B
 72
         2
 11
136.2
 21
56.1
 31
0.0
100
AcDbText
 73
         1
  0
TEXT
  5
1C6
100
AcDbEntity
  8
ASSEMBLY_REF_DES_TOP
100
AcDbText
 10
117.916
 20
33.0065
 30
0.0
 40
1.0
  1
C5
  7
GOST_TYPE_B
 72
         1
 11
118.6
 21
33.5
 31
0.0
100
AcDbText
 73
         2
  0
TEXT
  5
1C7
100
AcDbEntity
  8
ASSEMBLY_REF_DES_TOP
100
AcDbText
 10
54.109
 20
5.6
 30
0.0
 40
1.0
  1
X15
  7
GOST_TYPE_B
 72
         2
 11
56.16
 21
5.6
 31
0.0
100
AcDbText
 73
         1
  0
TEXT
  5
1C8
100
AcDbEntity
  8
ASSEMBLY_REF_DES_TOP
100
AcDbText
 10
133.1805
 20
37.1565
 30
0.0
 40
1.0
  1
ZQ4
  7
GOST_TYPE_B
 72
         1
 11
134.45
 21
37.65
 31
0.0
100
AcDbText
 73
         2
  0
TEXT
  5
1C9
100
AcDbEntity
  8
ASSEMBLY_REF_DES_TOP
100
AcDbText
 10
104.1285
 20
32.0065
 30
0.0
 40
1.0
  1
DD4
  7
GOST_TYPE_B
 72
         1
 11
105.3
 21
32.5
 31
0.0
100
AcDbText
 73
         2
  0
TEXT
  5
1CA
100
AcDbEntity
  8
ASSEMBLY_REF_DES_TOP
100
AcDbText
 10
9.15975
 20
48.429
 30
0.0
 40
1.5
  1
C1
 50
270.0
  7
GOST_TYPE_B
 72
         1
 11
9.9
 21
47.55
 31
0.0
100
AcDbText
 73
         2
  0
TEXT
  5
1CB
100
AcDbEntity
  8
ASSEMBLY_REF_DES_TOP
100
AcDbText
 10
104.279
 20
24.1065
 30
0.0
 40
1.0
  1
ZQ5
  7
GOST_TYPE_B
 72
         1
 11
105.5
 21
24.6
 31
0.0
100
AcDbText
 73
         2
  0
TEXT
  5
1CC
100
AcDbEntity
  8
ASSEMBLY_REF_DES_TOP
100
AcDbText
 10
5.016
 20
33.6065
 30
0.0
 40
1.0
  1
L2
  7
GOST_TYPE_B
 72
         1
 11
5.7
 21
34.1
 31
0.0
100
AcDbText
 73
         2
  0
TEXT
  5
1CD
100
AcDbEntity
  8
ASSEMBLY_REF_DES_TOP
100
AcDbText
 10
47.283
 20
22.9
 30
0.0
 40
1.0
  1
J8
  7
GOST_TYPE_B
 72
         2
 11
48.65
 21
22.9
 31
0.0
100
AcDbText
 73
         1
  0
TEXT
  5
1CE
100
AcDbEntity
  8
ASSEMBLY_REF_DES_TOP
100
AcDbText
 10
13.574
 20
39.30975
 30
0.0
 40
1.5
  1
C3
  7
GOST_TYPE_B
 72
         1
 11
14.6
 21
40.05
 31
0.0
100
AcDbText
 73
         2
  0
TEXT
  5
1CF
100
AcDbEntity
  8
ASSEMBLY_REF_DES_TOP
100
AcDbText
 10
44.242
 20
6.6
 30
0.0
 40
1.0
  1
J12
  7
GOST_TYPE_B
 72
         2
 11
46.0
 21
6.6
 31
0.0
100
AcDbText
 73
         1
  0
TEXT
  5
1D0
100
AcDbEntity
  8
ASSEMBLY_REF_DES_TOP
100
AcDbText
 10
71.4285
 20
19.5065
 30
0.0
 40
1.0
  1
DD8
  7
GOST_TYPE_B
 72
         1
 11
72.6
 21
20.0
 31
0.0
100
AcDbText
 73
         2
  0
TEXT
  5
1D1
100
AcDbEntity
  8
ASSEMBLY_REF_DES_TOP
100
AcDbText
 10
71.245
 20
2.8
 30
0.0
 40
1.0
  1
J14
  7
GOST_TYPE_B
 72
         2
 11
73.1
 21
2.8
 31
0.0
100
AcDbText
 73
         1
  0
TEXT
  5
1D2
100
AcDbEntity
  8
ASSEMBLY_REF_DES_TOP
100
AcDbText
 10
12.278
 20
19.3565
 30
0.0
 40
1.0
  1
DA6
  7
GOST_TYPE_B
 72
         1
 11
13.45
 21
19.85
 31
0.0
100
AcDbText
 73
         2
  0
TEXT
  5
1D3
100
AcDbEntity
  8
ASSEMBLY_REF_DES_TOP
100
AcDbText
 10
41.43
 20
22.4
 30
0.0
 40
1.0
  1
J7
  7
GOST_TYPE_B
 72
         2
 11
42.7
 21
22.4
 31
0.0
100
AcDbText
 73
         1
  0
TEXT
  5
1D4
100
AcDbEntity
  8
ASSEMBLY_REF_DES_TOP
100
AcDbText
 10
88.23
 20
20.8
 30
0.0
 40
1.0
  1
J9
  7
GOST_TYPE_B
 72
         2
 11
89.5
 21
20.8
 31
0.0
100
AcDbText
 73
         1
  0
TEXT
  5
1D5
100
AcDbEntity
  8
ASSEMBLY_REF_DES_TOP
100
AcDbText
 10
29.226
 20
6.7565
 30
0.0
 40
1.0
  1
X14
  7
GOST_TYPE_B
 72
         1
 11
30.3
 21
7.25
 31
0.0
100
AcDbText
 73
         2
  0
LWPOLYLINE
  5
1D6
100
AcDbEntity
  8
BOARD_OUTLINE
100
AcDbPolyline
 90
        4
 70
         1
 43
0.25
 10
2.0
 20
0.0
 10
2.0
 20
63.5
 10
139.5
 20
63.5
 10
139.5
 20
0.0
  0
LWPOLYLINE
  5
1D7
100
AcDbEntity
  8
MOUNTING_HOLES_LAYER_TOP
100
AcDbPolyline
 90
        2
 70
         1
 43
2.25
 10
9.875
 20
15.0
 42
-1.0
 10
12.125
 20
15.0
 42
-1.0
  0
LWPOLYLINE
  5
1D8
100
AcDbEntity
  8
MOUNTING_HOLES_LAYER_TOP
100
AcDbPolyline
 90
        2
 70
         1
 43
2.25
 10
4.875
 20
59.5
 42
-1.0
 10
7.125
 20
59.5
 42
-1.0
  0
LWPOLYLINE
  5
1D9
100
AcDbEntity
  8
MOUNTING_HOLES_LAYER_TOP
100
AcDbPolyline
 90
        2
 70
         1
 43
2.25
 10
134.375
 20
15.0
 42
-1.0
 10
136.625
 20
15.0
 42
-1.0
  0
LWPOLYLINE
  5
1DA
100
AcDbEntity
  8
MOUNTING_HOLES_LAYER_TOP
100
AcDbPolyline
 90
        2
 70
         1
 43
2.25
 10
62.375
 20
59.5
 42
-1.0
 10
64.625
 20
59.5
 42
-1.0
  0
LWPOLYLINE
  5
1DB
100
AcDbEntity
  8
MOUNTING_HOLES_LAYER_TOP
100
AcDbPolyline
 90
        2
 70
         1
 43
2.25
 10
127.375
 20
52.0
 42
-1.0
 10
129.625
 20
52.0
 42
-1.0
  0
LWPOLYLINE
  5
1DC
100
AcDbEntity
  8
MOUNTING_HOLES_LAYER_TOP
100
AcDbPolyline
 90
        2
 70
         1
 43
0.75
 10
83.825
 20
49.98
 42
-1.0
 10
84.575
 20
49.98
 42
-1.0
  0
LWPOLYLINE
  5
1DD
100
AcDbEntity
  8
MOUNTING_HOLES_LAYER_TOP
100
AcDbPolyline
 90
        2
 70
         1
 43
0.75
 10
83.825
 20
37.02
 42
-1.0
 10
84.575
 20
37.02
 42
-1.0
  0
LWPOLYLINE
  5
1DE
100
AcDbEntity
  8
MOUNTING_HOLES_LAYER_TOP
100
AcDbPolyline
 90
        2
 70
         1
 43
0.75
 10
114.625
 20
47.15
 42
-1.0
 10
115.375
 20
47.15
 42
-1.0
  0
LWPOLYLINE
  5
1DF
100
AcDbEntity
  8
MOUNTING_HOLES_LAYER_TOP
100
AcDbPolyline
 90
        2
 70
         1
 43
0.75
 10
122.125
 20
47.15
 42
-1.0
 10
122.875
 20
47.15
 42
-1.0
  0
LWPOLYLINE
  5
1E0
100
AcDbEntity
  8
MOUNTING_HOLES_LAYER_TOP
100
AcDbPolyline
 90
        2
 70
         1
 43
0.85
 10
40.925
 20
14.8
 42
-1.0
 10
41.775
 20
14.8
 42
-1.0
  0
LWPOLYLINE
  5
1E1
100
AcDbEntity
  8
MOUNTING_HOLES_LAYER_TOP
100
AcDbPolyline
 90
        2
 70
         1
 43
0.85
 10
15.625
 20
14.8
 42
-1.0
 10
16.475
 20
14.8
 42
-1.0
  0
LWPOLYLINE
  5
1E2
100
AcDbEntity
  8
MOUNTING_HOLES_LAYER_TOP
100
AcDbPolyline
 90
        2
 70
         1
 43
0.75
 10
34.925
 20
9.5
 42
-1.0
 10
35.675
 20
9.5
 42
-1.0
  0
LWPOLYLINE
  5
1E3
100
AcDbEntity
  8
MOUNTING_HOLES_LAYER_TOP
100
AcDbPolyline
 90
        2
 70
         1
 43
0.75
 10
24.925
 20
9.5
 42
-1.0
 10
25.675
 20
9.5
 42
-1.0
  0
LWPOLYLINE
  5
1E4
100
AcDbEntity
  8
PART_HOLES_LAYER_TOP
100
AcDbPolyline
 90
        2
 70
         1
 43
0.35
 10
84.525
 20
43.5
 42
-1.0
 10
84.875
 20
43.5
 42
-1.0
  0
LWPOLYLINE
  5
1E5
100
AcDbEntity
  8
PART_HOLES_LAYER_TOP
100
AcDbPolyline
 90
        2
 70
         1
 43
0.35
 10
84.525
 20
47.31
 42
-1.0
 10
84.875
 20
47.31
 42
-1.0
  0
LWPOLYLINE
  5
1E6
100
AcDbEntity
  8
PART_HOLES_LAYER_TOP
100
AcDbPolyline
 90
        2
 70
         1
 43
0.35
 10
83.522983
 20
46.038972
 42
-1.0
 10
83.872983
 20
46.038972
 42
-1.0
  0
LWPOLYLINE
  5
1E7
100
AcDbEntity
  8
PART_HOLES_LAYER_TOP
100
AcDbPolyline
 90
        2
 70
         1
 43
0.35
 10
83.522983
 20
44.768972
 42
-1.0
 10
83.872983
 20
44.768972
 42
-1.0
  0
LWPOLYLINE
  5
1E8
100
AcDbEntity
  8
PART_HOLES_LAYER_TOP
100
AcDbPolyline
 90
        2
 70
         1
 43
0.35
 10
83.522983
 20
42.228972
 42
-1.0
 10
83.872983
 20
42.228972
 42
-1.0
  0
LWPOLYLINE
  5
1E9
100
AcDbEntity
  8
PART_HOLES_LAYER_TOP
100
AcDbPolyline
 90
        2
 70
         1
 43
0.35
 10
83.522983
 20
40.958972
 42
-1.0
 10
83.872983
 20
40.958972
 42
-1.0
  0
LWPOLYLINE
  5
1EA
100
AcDbEntity
  8
PART_HOLES_LAYER_TOP
100
AcDbPolyline
 90
        2
 70
         1
 43
0.35
 10
84.525
 20
39.69
 42
-1.0
 10
84.875
 20
39.69
 42
-1.0
  0
LWPOLYLINE
  5
1EB
100
AcDbEntity
  8
PART_HOLES_LAYER_TOP
100
AcDbPolyline
 90
        2
 70
         1
 43
1.4
 10
129.63
 20
56.12
 42
-1.0
 10
131.03
 20
56.12
 42
-1.0
  0
LWPOLYLINE
  5
1EC
100
AcDbEntity
  8
PART_HOLES_LAYER_TOP
100
AcDbPolyline
 90
        2
 70
         1
 43
1.4
 10
119.47
 20
56.12
 42
-1.0
 10
120.87
 20
56.12
 42
-1.0
  0
LWPOLYLINE
  5
1ED
100
AcDbEntity
  8
PART_HOLES_LAYER_TOP
100
AcDbPolyline
 90
        2
 70
         1
 43
1.4
 10
124.55
 20
61.2
 42
-1.0
 10
125.95
 20
61.2
 42
-1.0
  0
LWPOLYLINE
  5
1EE
100
AcDbEntity
  8
PART_HOLES_LAYER_TOP
100
AcDbPolyline
 90
        2
 70
         1
 43
1.4
 10
124.55
 20
56.12
 42
-1.0
 10
125.95
 20
56.12
 42
-1.0
  0
LWPOLYLINE
  5
1EF
100
AcDbEntity
  8
PART_HOLES_LAYER_TOP
100
AcDbPolyline
 90
        2
 70
         1
 43
0.45
 10
76.495
 20
10.0
 42
-1.0
 10
76.945
 20
10.0
 42
-1.0
  0
LWPOLYLINE
  5
1F0
100
AcDbEntity
  8
PART_HOLES_LAYER_TOP
100
AcDbPolyline
 90
        2
 70
         1
 43
0.45
 10
83.495
 20
10.0
 42
-1.0
 10
83.945
 20
10.0
 42
-1.0
  0
LWPOLYLINE
  5
1F1
100
AcDbEntity
  8
PART_HOLES_LAYER_TOP
100
AcDbPolyline
 90
        2
 70
         1
 43
1.25
 10
86.195
 20
7.28
 42
-1.0
 10
87.445
 20
7.28
 42
-1.0
  0
LWPOLYLINE
  5
1F2
100
AcDbEntity
  8
PART_HOLES_LAYER_TOP
100
AcDbPolyline
 90
        2
 70
         1
 43
1.25
 10
72.995
 20
7.28
 42
-1.0
 10
74.245
 20
7.28
 42
-1.0
  0
LWPOLYLINE
  5
1F3
100
AcDbEntity
  8
PART_HOLES_LAYER_TOP
100
AcDbPolyline
 90
        2
 70
         1
 43
0.45
 10
78.995
 20
10.0
 42
-1.0
 10
79.445
 20
10.0
 42
-1.0
  0
LWPOLYLINE
  5
1F4
100
AcDbEntity
  8
PART_HOLES_LAYER_TOP
100
AcDbPolyline
 90
        2
 70
         1
 43
0.45
 10
80.995
 20
10.0
 42
-1.0
 10
81.445
 20
10.0
 42
-1.0
  0
LWPOLYLINE
  5
1F5
100
AcDbEntity
  8
PART_HOLES_LAYER_TOP
100
AcDbPolyline
 90
        2
 70
         1
 43
0.45
 10
100.79
 20
14.15
 42
-1.0
 10
101.24
 20
14.15
 42
-1.0
  0
LWPOLYLINE
  5
1F6
100
AcDbEntity
  8
PART_HOLES_LAYER_TOP
100
AcDbPolyline
 90
        2
 70
         1
 43
0.45
 10
99.52
 20
16.69
 42
-1.0
 10
99.97
 20
16.69
 42
-1.0
  0
LWPOLYLINE
  5
1F7
100
AcDbEntity
  8
PART_HOLES_LAYER_TOP
100
AcDbPolyline
 90
        2
 70
         1
 43
1.625
 10
93.8575
 20
7.8
 42
-1.0
 10
95.4825
 20
7.8
 42
-1.0
  0
LWPOLYLINE
  5
1F8
100
AcDbEntity
  8
PART_HOLES_LAYER_TOP
100
AcDbPolyline
 90
        2
 70
         1
 43
1.625
 10
105.2775
 20
7.8
 42
-1.0
 10
106.9025
 20
7.8
 42
-1.0
  0
LWPOLYLINE
  5
1F9
100
AcDbEntity
  8
PART_HOLES_LAYER_TOP
100
AcDbPolyline
 90
        2
 70
         1
 43
0.95
 10
107.775
 20
10.85
 42
-1.0
 10
108.725
 20
10.85
 42
-1.0
  0
LWPOLYLINE
  5
1FA
100
AcDbEntity
  8
PART_HOLES_LAYER_TOP
100
AcDbPolyline
 90
        2
 70
         1
 43
0.45
 10
95.71
 20
14.15
 42
-1.0
 10
96.16
 20
14.15
 42
-1.0
  0
LWPOLYLINE
  5
1FB
100
AcDbEntity
  8
PART_HOLES_LAYER_TOP
100
AcDbPolyline
 90
        2
 70
         1
 43
0.6
 10
93.75
 20
2.72
 42
-1.0
 10
94.35
 20
2.72
 42
-1.0
  0
LWPOLYLINE
  5
1FC
100
AcDbEntity
  8
PART_HOLES_LAYER_TOP
100
AcDbPolyline
 90
        2
 70
         1
 43
0.75
 10
94.545
 20
21.52
 42
-1.0
 10
95.295
 20
21.52
 42
-1.0
  0
LWPOLYLINE
  5
1FD
100
AcDbEntity
  8
PART_HOLES_LAYER_TOP
100
AcDbPolyline
 90
        2
 70
         1
 43
0.6
 10
96.29
 20
4.42
 42
-1.0
 10
96.89
 20
4.42
 42
-1.0
  0
LWPOLYLINE
  5
1FE
100
AcDbEntity
  8
PART_HOLES_LAYER_TOP
100
AcDbPolyline
 90
        2
 70
         1
 43
0.75
 10
97.085
 20
21.52
 42
-1.0
 10
97.835
 20
21.52
 42
-1.0
  0
LWPOLYLINE
  5
1FF
100
AcDbEntity
  8
PART_HOLES_LAYER_TOP
100
AcDbPolyline
 90
        2
 70
         1
 43
0.6
 10
103.87
 20
2.72
 42
-1.0
 10
104.47
 20
2.72
 42
-1.0
  0
LWPOLYLINE
  5
200
100
AcDbEntity
  8
PART_HOLES_LAYER_TOP
100
AcDbPolyline
 90
        2
 70
         1
 43
0.75
 10
102.925
 20
21.52
 42
-1.0
 10
103.675
 20
21.52
 42
-1.0
  0
LWPOLYLINE
  5
201
100
AcDbEntity
  8
PART_HOLES_LAYER_TOP
100
AcDbPolyline
 90
        2
 70
         1
 43
0.6
 10
106.41
 20
4.42
 42
-1.0
 10
107.01
 20
4.42
 42
-1.0
  0
LWPOLYLINE
  5
202
100
AcDbEntity
  8
PART_HOLES_LAYER_TOP
100
AcDbPolyline
 90
        2
 70
         1
 43
0.75
 10
105.465
 20
21.52
 42
-1.0
 10
106.215
 20
21.52
 42
-1.0
  0
LWPOLYLINE
  5
203
100
AcDbEntity
  8
PART_HOLES_LAYER_TOP
100
AcDbPolyline
 90
        2
 70
         1
 43
0.45
 10
103.33
 20
14.15
 42
-1.0
 10
103.78
 20
14.15
 42
-1.0
  0
LWPOLYLINE
  5
204
100
AcDbEntity
  8
PART_HOLES_LAYER_TOP
100
AcDbPolyline
 90
        2
 70
         1
 43
0.45
 10
104.6
 20
16.69
 42
-1.0
 10
105.05
 20
16.69
 42
-1.0
  0
LWPOLYLINE
  5
205
100
AcDbEntity
  8
PART_HOLES_LAYER_TOP
100
AcDbPolyline
 90
        2
 70
         1
 43
0.45
 10
96.98
 20
16.69
 42
-1.0
 10
97.43
 20
16.69
 42
-1.0
  0
LWPOLYLINE
  5
206
100
AcDbEntity
  8
PART_HOLES_LAYER_TOP
100
AcDbPolyline
 90
        2
 70
         1
 43
0.95
 10
92.035
 20
10.85
 42
-1.0
 10
92.985
 20
10.85
 42
-1.0
  0
LWPOLYLINE
  5
207
100
AcDbEntity
  8
PART_HOLES_LAYER_TOP
100
AcDbPolyline
 90
        2
 70
         1
 43
0.45
 10
102.06
 20
16.69
 42
-1.0
 10
102.51
 20
16.69
 42
-1.0
  0
LWPOLYLINE
  5
208
100
AcDbEntity
  8
PART_HOLES_LAYER_TOP
100
AcDbPolyline
 90
        2
 70
         1
 43
0.45
 10
98.25
 20
14.15
 42
-1.0
 10
98.7
 20
14.15
 42
-1.0
  0
LWPOLYLINE
  5
209
100
AcDbEntity
  8
PART_HOLES_LAYER_TOP
100
AcDbPolyline
 90
        2
 70
         1
 43
0.45
 10
52.235
 20
39.55
 42
-1.0
 10
52.685
 20
39.55
 42
-1.0
  0
LWPOLYLINE
  5
20A
100
AcDbEntity
  8
PART_HOLES_LAYER_TOP
100
AcDbPolyline
 90
        2
 70
         1
 43
0.45
 10
52.235
 20
34.67
 42
-1.0
 10
52.685
 20
34.67
 42
-1.0
  0
LWPOLYLINE
  5
20B
100
AcDbEntity
  8
PART_HOLES_LAYER_TOP
100
AcDbPolyline
 90
        2
 70
         1
 43
0.45
 10
125.175
 20
30.98
 42
-1.0
 10
125.625
 20
30.98
 42
-1.0
  0
LWPOLYLINE
  5
20C
100
AcDbEntity
  8
PART_HOLES_LAYER_TOP
100
AcDbPolyline
 90
        2
 70
         1
 43
0.45
 10
127.715
 20
15.74
 42
-1.0
 10
128.165
 20
15.74
 42
-1.0
  0
LWPOLYLINE
  5
20D
100
AcDbEntity
  8
PART_HOLES_LAYER_TOP
100
AcDbPolyline
 90
        2
 70
         1
 43
0.45
 10
125.175
 20
38.6
 42
-1.0
 10
125.625
 20
38.6
 42
-1.0
  0
LWPOLYLINE
  5
20E
100
AcDbEntity
  8
PART_HOLES_LAYER_TOP
100
AcDbPolyline
 90
        2
 70
         1
 43
0.45
 10
127.715
 20
30.98
 42
-1.0
 10
128.165
 20
30.98
 42
-1.0
  0
LWPOLYLINE
  5
20F
100
AcDbEntity
  8
PART_HOLES_LAYER_TOP
100
AcDbPolyline
 90
        2
 70
         1
 43
0.45
 10
127.715
 20
38.6
 42
-1.0
 10
128.165
 20
38.6
 42
-1.0
  0
LWPOLYLINE
  5
210
100
AcDbEntity
  8
PART_HOLES_LAYER_TOP
100
AcDbPolyline
 90
        2
 70
         1
 43
0.45
 10
125.175
 20
36.06
 42
-1.0
 10
125.625
 20
36.06
 42
-1.0
  0
LWPOLYLINE
  5
211
100
AcDbEntity
  8
PART_HOLES_LAYER_TOP
100
AcDbPolyline
 90
        2
 70
         1
 43
0.45
 10
127.715
 20
36.06
 42
-1.0
 10
128.165
 20
36.06
 42
-1.0
  0
LWPOLYLINE
  5
212
100
AcDbEntity
  8
PART_HOLES_LAYER_TOP
100
AcDbPolyline
 90
        2
 70
         1
 43
0.45
 10
125.175
 20
33.52
 42
-1.0
 10
125.625
 20
33.52
 42
-1.0
  0
LWPOLYLINE
  5
213
100
AcDbEntity
  8
PART_HOLES_LAYER_TOP
100
AcDbPolyline
 90
        2
 70
         1
 43
0.45
 10
127.715
 20
33.52
 42
-1.0
 10
128.165
 20
33.52
 42
-1.0
  0
LWPOLYLINE
  5
214
100
AcDbEntity
  8
PART_HOLES_LAYER_TOP
100
AcDbPolyline
 90
        2
 70
         1
 43
0.45
 10
127.715
 20
18.28
 42
-1.0
 10
128.165
 20
18.28
 42
-1.0
  0
LWPOLYLINE
  5
215
100
AcDbEntity
  8
PART_HOLES_LAYER_TOP
100
AcDbPolyline
 90
        2
 70
         1
 43
0.45
 10
125.175
 20
28.44
 42
-1.0
 10
125.625
 20
28.44
 42
-1.0
  0
LWPOLYLINE
  5
216
100
AcDbEntity
  8
PART_HOLES_LAYER_TOP
100
AcDbPolyline
 90
        2
 70
         1
 43
0.45
 10
127.715
 20
25.9
 42
-1.0
 10
128.165
 20
25.9
 42
-1.0
  0
LWPOLYLINE
  5
217
100
AcDbEntity
  8
PART_HOLES_LAYER_TOP
100
AcDbPolyline
 90
        2
 70
         1
 43
0.45
 10
127.715
 20
20.82
 42
-1.0
 10
128.165
 20
20.82
 42
-1.0
  0
LWPOLYLINE
  5
218
100
AcDbEntity
  8
PART_HOLES_LAYER_TOP
100
AcDbPolyline
 90
        2
 70
         1
 43
0.45
 10
125.175
 20
23.36
 42
-1.0
 10
125.625
 20
23.36
 42
-1.0
  0
LWPOLYLINE
  5
219
100
AcDbEntity
  8
PART_HOLES_LAYER_TOP
100
AcDbPolyline
 90
        2
 70
         1
 43
0.45
 10
127.715
 20
23.36
 42
-1.0
 10
128.165
 20
23.36
 42
-1.0
  0
LWPOLYLINE
  5
21A
100
AcDbEntity
  8
PART_HOLES_LAYER_TOP
100
AcDbPolyline
 90
        2
 70
         1
 43
0.45
 10
125.175
 20
25.9
 42
-1.0
 10
125.625
 20
25.9
 42
-1.0
  0
LWPOLYLINE
  5
21B
100
AcDbEntity
  8
PART_HOLES_LAYER_TOP
100
AcDbPolyline
 90
        2
 70
         1
 43
0.45
 10
127.715
 20
28.44
 42
-1.0
 10
128.165
 20
28.44
 42
-1.0
  0
LWPOLYLINE
  5
21C
100
AcDbEntity
  8
PART_HOLES_LAYER_TOP
100
AcDbPolyline
 90
        2
 70
         1
 43
0.45
 10
125.175
 20
18.28
 42
-1.0
 10
125.625
 20
18.28
 42
-1.0
  0
LWPOLYLINE
  5
21D
100
AcDbEntity
  8
PART_HOLES_LAYER_TOP
100
AcDbPolyline
 90
        2
 70
         1
 43
0.45
 10
125.175
 20
15.74
 42
-1.0
 10
125.625
 20
15.74
 42
-1.0
  0
LWPOLYLINE
  5
21E
100
AcDbEntity
  8
PART_HOLES_LAYER_TOP
100
AcDbPolyline
 90
        2
 70
         1
 43
0.45
 10
125.175
 20
20.82
 42
-1.0
 10
125.625
 20
20.82
 42
-1.0
  0
LWPOLYLINE
  5
21F
100
AcDbEntity
  8
PART_HOLES_LAYER_TOP
100
AcDbPolyline
 90
        2
 70
         1
 43
0.6
 10
118.22
 20
10.91
 42
-1.0
 10
118.82
 20
10.91
 42
-1.0
  0
LWPOLYLINE
  5
220
100
AcDbEntity
  8
PART_HOLES_LAYER_TOP
100
AcDbPolyline
 90
        2
 70
         1
 43
0.6
 10
126.53
 20
10.91
 42
-1.0
 10
127.13
 20
10.91
 42
-1.0
  0
LWPOLYLINE
  5
221
100
AcDbEntity
  8
PART_HOLES_LAYER_TOP
100
AcDbPolyline
 90
        2
 70
         1
 43
0.6
 10
129.3
 20
10.91
 42
-1.0
 10
129.9
 20
10.91
 42
-1.0
  0
LWPOLYLINE
  5
222
100
AcDbEntity
  8
PART_HOLES_LAYER_TOP
100
AcDbPolyline
 90
        2
 70
         1
 43
0.6
 10
119.605
 20
8.07
 42
-1.0
 10
120.205
 20
8.07
 42
-1.0
  0
LWPOLYLINE
  5
223
100
AcDbEntity
  8
PART_HOLES_LAYER_TOP
100
AcDbPolyline
 90
        2
 70
         1
 43
0.6
 10
122.375
 20
8.07
 42
-1.0
 10
122.975
 20
8.07
 42
-1.0
  0
LWPOLYLINE
  5
224
100
AcDbEntity
  8
PART_HOLES_LAYER_TOP
100
AcDbPolyline
 90
        2
 70
         1
 43
0.6
 10
125.145
 20
8.07
 42
-1.0
 10
125.745
 20
8.07
 42
-1.0
  0
LWPOLYLINE
  5
225
100
AcDbEntity
  8
PART_HOLES_LAYER_TOP
100
AcDbPolyline
 90
        2
 70
         1
 43
0.6
 10
127.915
 20
8.07
 42
-1.0
 10
128.515
 20
8.07
 42
-1.0
  0
LWPOLYLINE
  5
226
100
AcDbEntity
  8
PART_HOLES_LAYER_TOP
100
AcDbPolyline
 90
        2
 70
         1
 43
1.5
 10
135.81
 20
9.49
 42
-1.0
 10
137.31
 20
9.49
 42
-1.0
  0
LWPOLYLINE
  5
227
100
AcDbEntity
  8
PART_HOLES_LAYER_TOP
100
AcDbPolyline
 90
        2
 70
         1
 43
1.5
 10
110.81
 20
9.49
 42
-1.0
 10
112.31
 20
9.49
 42
-1.0
  0
LWPOLYLINE
  5
228
100
AcDbEntity
  8
PART_HOLES_LAYER_TOP
100
AcDbPolyline
 90
        2
 70
         1
 43
0.6
 10
120.99
 20
10.91
 42
-1.0
 10
121.59
 20
10.91
 42
-1.0
  0
LWPOLYLINE
  5
229
100
AcDbEntity
  8
PART_HOLES_LAYER_TOP
100
AcDbPolyline
 90
        2
 70
         1
 43
0.6
 10
123.76
 20
10.91
 42
-1.0
 10
124.36
 20
10.91
 42
-1.0
  0
LWPOLYLINE
  5
22A
100
AcDbEntity
  8
PART_HOLES_LAYER_TOP
100
AcDbPolyline
 90
        2
 70
         1
 43
0.45
 10
41.325
 20
49.05
 42
-1.0
 10
41.775
 20
49.05
 42
-1.0
  0
LWPOLYLINE
  5
22B
100
AcDbEntity
  8
PART_HOLES_LAYER_TOP
100
AcDbPolyline
 90
        2
 70
         1
 43
0.45
 10
38.785
 20
49.05
 42
-1.0
 10
39.235
 20
49.05
 42
-1.0
  0
LWPOLYLINE
  5
22C
100
AcDbEntity
  8
PART_HOLES_LAYER_TOP
100
AcDbPolyline
 90
        2
 70
         1
 43
0.45
 10
70.785
 20
62.14
 42
-1.0
 10
71.235
 20
62.14
 42
-1.0
  0
LWPOLYLINE
  5
22D
100
AcDbEntity
  8
PART_HOLES_LAYER_TOP
100
AcDbPolyline
 90
        2
 70
         1
 43
0.45
 10
68.245
 20
59.6
 42
-1.0
 10
68.695
 20
59.6
 42
-1.0
  0
LWPOLYLINE
  5
22E
100
AcDbEntity
  8
PART_HOLES_LAYER_TOP
100
AcDbPolyline
 90
        2
 70
         1
 43
0.45
 10
101.265
 20
59.6
 42
-1.0
 10
101.715
 20
59.6
 42
-1.0
  0
LWPOLYLINE
  5
22F
100
AcDbEntity
  8
PART_HOLES_LAYER_TOP
100
AcDbPolyline
 90
        2
 70
         1
 43
0.45
 10
103.805
 20
59.6
 42
-1.0
 10
104.255
 20
59.6
 42
-1.0
  0
LWPOLYLINE
  5
230
100
AcDbEntity
  8
PART_HOLES_LAYER_TOP
100
AcDbPolyline
 90
        2
 70
         1
 43
0.45
 10
101.265
 20
62.14
 42
-1.0
 10
101.715
 20
62.14
 42
-1.0
  0
LWPOLYLINE
  5
231
100
AcDbEntity
  8
PART_HOLES_LAYER_TOP
100
AcDbPolyline
 90
        2
 70
         1
 43
0.45
 10
103.805
 20
62.14
 42
-1.0
 10
104.255
 20
62.14
 42
-1.0
  0
LWPOLYLINE
  5
232
100
AcDbEntity
  8
PART_HOLES_LAYER_TOP
100
AcDbPolyline
 90
        2
 70
         1
 43
0.45
 10
91.105
 20
62.14
 42
-1.0
 10
91.555
 20
62.14
 42
-1.0
  0
LWPOLYLINE
  5
233
100
AcDbEntity
  8
PART_HOLES_LAYER_TOP
100
AcDbPolyline
 90
        2
 70
         1
 43
0.45
 10
91.105
 20
59.6
 42
-1.0
 10
91.555
 20
59.6
 42
-1.0
  0
LWPOLYLINE
  5
234
100
AcDbEntity
  8
PART_HOLES_LAYER_TOP
100
AcDbPolyline
 90
        2
 70
         1
 43
0.45
 10
108.885
 20
62.14
 42
-1.0
 10
109.335
 20
62.14
 42
-1.0
  0
LWPOLYLINE
  5
235
100
AcDbEntity
  8
PART_HOLES_LAYER_TOP
100
AcDbPolyline
 90
        2
 70
         1
 43
0.45
 10
108.885
 20
59.6
 42
-1.0
 10
109.335
 20
59.6
 42
-1.0
  0
LWPOLYLINE
  5
236
100
AcDbEntity
  8
PART_HOLES_LAYER_TOP
100
AcDbPolyline
 90
        2
 70
         1
 43
0.45
 10
106.345
 20
62.14
 42
-1.0
 10
106.795
 20
62.14
 42
-1.0
  0
LWPOLYLINE
  5
237
100
AcDbEntity
  8
PART_HOLES_LAYER_TOP
100
AcDbPolyline
 90
        2
 70
         1
 43
0.45
 10
106.345
 20
59.6
 42
-1.0
 10
106.795
 20
59.6
 42
-1.0
  0
LWPOLYLINE
  5
238
100
AcDbEntity
  8
PART_HOLES_LAYER_TOP
100
AcDbPolyline
 90
        2
 70
         1
 43
0.45
 10
70.785
 20
59.6
 42
-1.0
 10
71.235
 20
59.6
 42
-1.0
  0
LWPOLYLINE
  5
239
100
AcDbEntity
  8
PART_HOLES_LAYER_TOP
100
AcDbPolyline
 90
        2
 70
         1
 43
0.45
 10
73.325
 20
62.14
 42
-1.0
 10
73.775
 20
62.14
 42
-1.0
  0
LWPOLYLINE
  5
23A
100
AcDbEntity
  8
PART_HOLES_LAYER_TOP
100
AcDbPolyline
 90
        2
 70
         1
 43
0.45
 10
93.645
 20
62.14
 42
-1.0
 10
94.095
 20
62.14
 42
-1.0
  0
LWPOLYLINE
  5
23B
100
AcDbEntity
  8
PART_HOLES_LAYER_TOP
100
AcDbPolyline
 90
        2
 70
         1
 43
0.45
 10
78.405
 20
62.14
 42
-1.0
 10
78.855
 20
62.14
 42
-1.0
  0
LWPOLYLINE
  5
23C
100
AcDbEntity
  8
PART_HOLES_LAYER_TOP
100
AcDbPolyline
 90
        2
 70
         1
 43
0.45
 10
78.405
 20
59.6
 42
-1.0
 10
78.855
 20
59.6
 42
-1.0
  0
LWPOLYLINE
  5
23D
100
AcDbEntity
  8
PART_HOLES_LAYER_TOP
100
AcDbPolyline
 90
        2
 70
         1
 43
0.45
 10
80.945
 20
62.14
 42
-1.0
 10
81.395
 20
62.14
 42
-1.0
  0
LWPOLYLINE
  5
23E
100
AcDbEntity
  8
PART_HOLES_LAYER_TOP
100
AcDbPolyline
 90
        2
 70
         1
 43
0.45
 10
80.945
 20
59.6
 42
-1.0
 10
81.395
 20
59.6
 42
-1.0
  0
LWPOLYLINE
  5
23F
100
AcDbEntity
  8
PART_HOLES_LAYER_TOP
100
AcDbPolyline
 90
        2
 70
         1
 43
0.45
 10
75.865
 20
59.6
 42
-1.0
 10
76.315
 20
59.6
 42
-1.0
  0
LWPOLYLINE
  5
240
100
AcDbEntity
  8
PART_HOLES_LAYER_TOP
100
AcDbPolyline
 90
        2
 70
         1
 43
0.45
 10
75.865
 20
62.14
 42
-1.0
 10
76.315
 20
62.14
 42
-1.0
  0
LWPOLYLINE
  5
241
100
AcDbEntity
  8
PART_HOLES_LAYER_TOP
100
AcDbPolyline
 90
        2
 70
         1
 43
0.45
 10
96.185
 20
59.6
 42
-1.0
 10
96.635
 20
59.6
 42
-1.0
  0
LWPOLYLINE
  5
242
100
AcDbEntity
  8
PART_HOLES_LAYER_TOP
100
AcDbPolyline
 90
        2
 70
         1
 43
0.45
 10
96.185
 20
62.14
 42
-1.0
 10
96.635
 20
62.14
 42
-1.0
  0
LWPOLYLINE
  5
243
100
AcDbEntity
  8
PART_HOLES_LAYER_TOP
100
AcDbPolyline
 90
        2
 70
         1
 43
0.45
 10
83.485
 20
62.14
 42
-1.0
 10
83.935
 20
62.14
 42
-1.0
  0
LWPOLYLINE
  5
244
100
AcDbEntity
  8
PART_HOLES_LAYER_TOP
100
AcDbPolyline
 90
        2
 70
         1
 43
0.45
 10
83.485
 20
59.6
 42
-1.0
 10
83.935
 20
59.6
 42
-1.0
  0
LWPOLYLINE
  5
245
100
AcDbEntity
  8
PART_HOLES_LAYER_TOP
100
AcDbPolyline
 90
        2
 70
         1
 43
0.45
 10
86.025
 20
62.14
 42
-1.0
 10
86.475
 20
62.14
 42
-1.0
  0
LWPOLYLINE
  5
246
100
AcDbEntity
  8
PART_HOLES_LAYER_TOP
100
AcDbPolyline
 90
        2
 70
         1
 43
0.45
 10
86.025
 20
59.6
 42
-1.0
 10
86.475
 20
59.6
 42
-1.0
  0
LWPOLYLINE
  5
247
100
AcDbEntity
  8
PART_HOLES_LAYER_TOP
100
AcDbPolyline
 90
        2
 70
         1
 43
0.45
 10
88.565
 20
59.6
 42
-1.0
 10
89.015
 20
59.6
 42
-1.0
  0
LWPOLYLINE
  5
248
100
AcDbEntity
  8
PART_HOLES_LAYER_TOP
100
AcDbPolyline
 90
        2
 70
         1
 43
0.45
 10
88.565
 20
62.14
 42
-1.0
 10
89.015
 20
62.14
 42
-1.0
  0
LWPOLYLINE
  5
249
100
AcDbEntity
  8
PART_HOLES_LAYER_TOP
100
AcDbPolyline
 90
        2
 70
         1
 43
0.45
 10
93.645
 20
59.6
 42
-1.0
 10
94.095
 20
59.6
 42
-1.0
  0
LWPOLYLINE
  5
24A
100
AcDbEntity
  8
PART_HOLES_LAYER_TOP
100
AcDbPolyline
 90
        2
 70
         1
 43
0.45
 10
68.245
 20
62.14
 42
-1.0
 10
68.695
 20
62.14
 42
-1.0
  0
LWPOLYLINE
  5
24B
100
AcDbEntity
  8
PART_HOLES_LAYER_TOP
100
AcDbPolyline
 90
        2
 70
         1
 43
0.45
 10
111.425
 20
59.6
 42
-1.0
 10
111.875
 20
59.6
 42
-1.0
  0
LWPOLYLINE
  5
24C
100
AcDbEntity
  8
PART_HOLES_LAYER_TOP
100
AcDbPolyline
 90
        2
 70
         1
 43
0.45
 10
113.965
 20
59.6
 42
-1.0
 10
114.415
 20
59.6
 42
-1.0
  0
LWPOLYLINE
  5
24D
100
AcDbEntity
  8
PART_HOLES_LAYER_TOP
100
AcDbPolyline
 90
        2
 70
         1
 43
0.45
 10
116.505
 20
59.6
 42
-1.0
 10
116.955
 20
59.6
 42
-1.0
  0
LWPOLYLINE
  5
24E
100
AcDbEntity
  8
PART_HOLES_LAYER_TOP
100
AcDbPolyline
 90
        2
 70
         1
 43
0.45
 10
116.505
 20
62.14
 42
-1.0
 10
116.955
 20
62.14
 42
-1.0
  0
LWPOLYLINE
  5
24F
100
AcDbEntity
  8
PART_HOLES_LAYER_TOP
100
AcDbPolyline
 90
        2
 70
         1
 43
0.45
 10
113.965
 20
62.14
 42
-1.0
 10
114.415
 20
62.14
 42
-1.0
  0
LWPOLYLINE
  5
250
100
AcDbEntity
  8
PART_HOLES_LAYER_TOP
100
AcDbPolyline
 90
        2
 70
         1
 43
0.45
 10
111.425
 20
62.14
 42
-1.0
 10
111.875
 20
62.14
 42
-1.0
  0
LWPOLYLINE
  5
251
100
AcDbEntity
  8
PART_HOLES_LAYER_TOP
100
AcDbPolyline
 90
        2
 70
         1
 43
0.45
 10
98.725
 20
62.14
 42
-1.0
 10
99.175
 20
62.14
 42
-1.0
  0
LWPOLYLINE
  5
252
100
AcDbEntity
  8
PART_HOLES_LAYER_TOP
100
AcDbPolyline
 90
        2
 70
         1
 43
0.45
 10
98.725
 20
59.6
 42
-1.0
 10
99.175
 20
59.6
 42
-1.0
  0
LWPOLYLINE
  5
253
100
AcDbEntity
  8
PART_HOLES_LAYER_TOP
100
AcDbPolyline
 90
        2
 70
         1
 43
0.45
 10
73.325
 20
59.6
 42
-1.0
 10
73.775
 20
59.6
 42
-1.0
  0
LWPOLYLINE
  5
254
100
AcDbEntity
  8
PART_HOLES_LAYER_TOP
100
AcDbPolyline
 90
        2
 70
         1
 43
0.45
 10
51.375
 20
12.5
 42
-1.0
 10
51.825
 20
12.5
 42
-1.0
  0
LWPOLYLINE
  5
255
100
AcDbEntity
  8
PART_HOLES_LAYER_TOP
100
AcDbPolyline
 90
        2
 70
         1
 43
0.4
 10
59.02
 20
12.5
 42
-1.0
 10
59.42
 20
12.5
 42
-1.0
  0
LWPOLYLINE
  5
256
100
AcDbEntity
  8
PART_HOLES_LAYER_TOP
100
AcDbPolyline
 90
        2
 70
         1
 43
0.45
 10
53.915
 20
12.5
 42
-1.0
 10
54.365
 20
12.5
 42
-1.0
  0
LWPOLYLINE
  5
257
100
AcDbEntity
  8
PART_HOLES_LAYER_TOP
100
AcDbPolyline
 90
        2
 70
         1
 43
0.45
 10
56.455
 20
12.5
 42
-1.0
 10
56.905
 20
12.5
 42
-1.0
  0
LWPOLYLINE
  5
258
100
AcDbEntity
  8
PART_HOLES_LAYER_TOP
100
AcDbPolyline
 90
        2
 70
         1
 43
0.45
 10
41.425
 20
51.6
 42
-1.0
 10
41.875
 20
51.6
 42
-1.0
  0
LWPOLYLINE
  5
259
100
AcDbEntity
  8
PART_HOLES_LAYER_TOP
100
AcDbPolyline
 90
        2
 70
         1
 43
0.45
 10
38.885
 20
51.6
 42
-1.0
 10
39.335
 20
51.6
 42
-1.0
  0
LWPOLYLINE
  5
25A
100
AcDbEntity
  8
PART_HOLES_LAYER_TOP
100
AcDbPolyline
 90
        2
 70
         1
 43
0.45
 10
36.345
 20
51.6
 42
-1.0
 10
36.795
 20
51.6
 42
-1.0
  0
LWPOLYLINE
  5
25B
100
AcDbEntity
  8
PART_HOLES_LAYER_TOP
100
AcDbPolyline
 90
        2
 70
         1
 43
0.45
 10
64.835
 20
9.7
 42
-1.0
 10
65.285
 20
9.7
 42
-1.0
  0
LWPOLYLINE
  5
25C
100
AcDbEntity
  8
PART_HOLES_LAYER_TOP
100
AcDbPolyline
 90
        2
 70
         1
 43
0.45
 10
67.375
 20
9.7
 42
-1.0
 10
67.825
 20
9.7
 42
-1.0
  0
LWPOLYLINE
  5
25D
100
AcDbEntity
  8
PART_HOLES_LAYER_TOP
100
AcDbPolyline
 90
        2
 70
         1
 43
0.45
 10
64.475
 20
4.7
 42
-1.0
 10
64.925
 20
4.7
 42
-1.0
  0
LWPOLYLINE
  5
25E
100
AcDbEntity
  8
PART_HOLES_LAYER_TOP
100
AcDbPolyline
 90
        2
 70
         1
 43
0.45
 10
64.475
 20
2.16
 42
-1.0
 10
64.925
 20
2.16
 42
-1.0
  0
LWPOLYLINE
  5
25F
100
AcDbEntity
  8
PART_HOLES_LAYER_TOP
100
AcDbPolyline
 90
        2
 70
         1
 43
0.45
 10
53.545002
 20
45.5
 42
-1.0
 10
53.995002
 20
45.5
 42
-1.0
  0
LWPOLYLINE
  5
260
100
AcDbEntity
  8
PART_HOLES_LAYER_TOP
100
AcDbPolyline
 90
        2
 70
         1
 43
0.45
 10
51.005
 20
45.5
 42
-1.0
 10
51.455
 20
45.5
 42
-1.0
  0
LWPOLYLINE
  5
261
100
AcDbEntity
  8
PART_HOLES_LAYER_TOP
100
AcDbPolyline
 90
        2
 70
         1
 43
0.45
 10
132.525
 20
47.45
 42
-1.0
 10
132.975
 20
47.45
 42
-1.0
  0
LWPOLYLINE
  5
262
100
AcDbEntity
  8
PART_HOLES_LAYER_TOP
100
AcDbPolyline
 90
        2
 70
         1
 43
0.45
 10
135.065
 20
47.45
 42
-1.0
 10
135.515
 20
47.45
 42
-1.0
  0
LWPOLYLINE
  5
263
100
AcDbEntity
  8
PART_HOLES_LAYER_TOP
100
AcDbPolyline
 90
        2
 70
         1
 43
0.45
 10
137.605
 20
47.45
 42
-1.0
 10
138.055
 20
47.45
 42
-1.0
  0
LWPOLYLINE
  5
264
100
AcDbEntity
  8
PART_HOLES_LAYER_TOP
100
AcDbPolyline
 90
        2
 70
         1
 43
0.45
 10
87.175
 20
18.7
 42
-1.0
 10
87.625
 20
18.7
 42
-1.0
  0
LWPOLYLINE
  5
265
100
AcDbEntity
  8
PART_HOLES_LAYER_TOP
100
AcDbPolyline
 90
        2
 70
         1
 43
0.45
 10
89.715
 20
18.7
 42
-1.0
 10
90.165
 20
18.7
 42
-1.0
  0
LWPOLYLINE
  5
266
100
AcDbEntity
  8
PART_HOLES_LAYER_TOP
100
AcDbPolyline
 90
        2
 70
         1
 43
1.4
 10
10.670002
 20
7.699998
 42
-1.0
 10
12.070002
 20
7.699998
 42
-1.0
  0
LWPOLYLINE
  5
267
100
AcDbEntity
  8
PART_HOLES_LAYER_TOP
100
AcDbPolyline
 90
        2
 70
         1
 43
1.4
 10
5.970002
 20
4.7
 42
-1.0
 10
7.370002
 20
4.7
 42
-1.0
  0
LWPOLYLINE
  5
268
100
AcDbEntity
  8
PART_HOLES_LAYER_TOP
100
AcDbPolyline
 90
        2
 70
         1
 43
1.4
 10
5.970002
 20
10.9
 42
-1.0
 10
7.370002
 20
10.9
 42
-1.0
  0
LWPOLYLINE
  5
269
100
AcDbEntity
  8
PART_HOLES_LAYER_TOP
100
AcDbPolyline
 90
        2
 70
         1
 43
0.45
 10
132.525
 20
44.85
 42
-1.0
 10
132.975
 20
44.85
 42
-1.0
  0
LWPOLYLINE
  5
26A
100
AcDbEntity
  8
PART_HOLES_LAYER_TOP
100
AcDbPolyline
 90
        2
 70
         1
 43
0.45
 10
135.065
 20
44.85
 42
-1.0
 10
135.515
 20
44.85
 42
-1.0
  0
LWPOLYLINE
  5
26B
100
AcDbEntity
  8
PART_HOLES_LAYER_TOP
100
AcDbPolyline
 90
        2
 70
         1
 43
0.45
 10
137.605
 20
44.85
 42
-1.0
 10
138.055
 20
44.85
 42
-1.0
  0
LWPOLYLINE
  5
26C
100
AcDbEntity
  8
PART_HOLES_LAYER_TOP
100
AcDbPolyline
 90
        2
 70
         1
 43
0.45
 10
10.375
 20
59.6
 42
-1.0
 10
10.825
 20
59.6
 42
-1.0
  0
LWPOLYLINE
  5
26D
100
AcDbEntity
  8
PART_HOLES_LAYER_TOP
100
AcDbPolyline
 90
        2
 70
         1
 43
0.45
 10
15.455
 20
62.14
 42
-1.0
 10
15.905
 20
62.14
 42
-1.0
  0
LWPOLYLINE
  5
26E
100
AcDbEntity
  8
PART_HOLES_LAYER_TOP
100
AcDbPolyline
 90
        2
 70
         1
 43
0.45
 10
15.455
 20
59.6
 42
-1.0
 10
15.905
 20
59.6
 42
-1.0
  0
LWPOLYLINE
  5
26F
100
AcDbEntity
  8
PART_HOLES_LAYER_TOP
100
AcDbPolyline
 90
        2
 70
         1
 43
0.45
 10
12.915
 20
62.14
 42
-1.0
 10
13.365
 20
62.14
 42
-1.0
  0
LWPOLYLINE
  5
270
100
AcDbEntity
  8
PART_HOLES_LAYER_TOP
100
AcDbPolyline
 90
        2
 70
         1
 43
0.45
 10
10.375
 20
62.14
 42
-1.0
 10
10.825
 20
62.14
 42
-1.0
  0
LWPOLYLINE
  5
271
100
AcDbEntity
  8
PART_HOLES_LAYER_TOP
100
AcDbPolyline
 90
        2
 70
         1
 43
0.45
 10
58.635
 20
62.14
 42
-1.0
 10
59.085
 20
62.14
 42
-1.0
  0
LWPOLYLINE
  5
272
100
AcDbEntity
  8
PART_HOLES_LAYER_TOP
100
AcDbPolyline
 90
        2
 70
         1
 43
0.45
 10
58.635
 20
59.6
 42
-1.0
 10
59.085
 20
59.6
 42
-1.0
  0
LWPOLYLINE
  5
273
100
AcDbEntity
  8
PART_HOLES_LAYER_TOP
100
AcDbPolyline
 90
        2
 70
         1
 43
0.45
 10
56.095
 20
59.6
 42
-1.0
 10
56.545
 20
59.6
 42
-1.0
  0
LWPOLYLINE
  5
274
100
AcDbEntity
  8
PART_HOLES_LAYER_TOP
100
AcDbPolyline
 90
        2
 70
         1
 43
0.45
 10
20.535
 20
62.14
 42
-1.0
 10
20.985
 20
62.14
 42
-1.0
  0
LWPOLYLINE
  5
275
100
AcDbEntity
  8
PART_HOLES_LAYER_TOP
100
AcDbPolyline
 90
        2
 70
         1
 43
0.45
 10
20.535
 20
59.6
 42
-1.0
 10
20.985
 20
59.6
 42
-1.0
  0
LWPOLYLINE
  5
276
100
AcDbEntity
  8
PART_HOLES_LAYER_TOP
100
AcDbPolyline
 90
        2
 70
         1
 43
0.45
 10
25.615
 20
62.14
 42
-1.0
 10
26.065
 20
62.14
 42
-1.0
  0
LWPOLYLINE
  5
277
100
AcDbEntity
  8
PART_HOLES_LAYER_TOP
100
AcDbPolyline
 90
        2
 70
         1
 43
0.45
 10
25.615
 20
59.6
 42
-1.0
 10
26.065
 20
59.6
 42
-1.0
  0
LWPOLYLINE
  5
278
100
AcDbEntity
  8
PART_HOLES_LAYER_TOP
100
AcDbPolyline
 90
        2
 70
         1
 43
0.45
 10
17.995
 20
62.14
 42
-1.0
 10
18.445
 20
62.14
 42
-1.0
  0
LWPOLYLINE
  5
279
100
AcDbEntity
  8
PART_HOLES_LAYER_TOP
100
AcDbPolyline
 90
        2
 70
         1
 43
0.45
 10
17.995
 20
59.6
 42
-1.0
 10
18.445
 20
59.6
 42
-1.0
  0
LWPOLYLINE
  5
27A
100
AcDbEntity
  8
PART_HOLES_LAYER_TOP
100
AcDbPolyline
 90
        2
 70
         1
 43
0.45
 10
35.775
 20
62.14
 42
-1.0
 10
36.225
 20
62.14
 42
-1.0
  0
LWPOLYLINE
  5
27B
100
AcDbEntity
  8
PART_HOLES_LAYER_TOP
100
AcDbPolyline
 90
        2
 70
         1
 43
0.45
 10
35.775
 20
59.6
 42
-1.0
 10
36.225
 20
59.6
 42
-1.0
  0
LWPOLYLINE
  5
27C
100
AcDbEntity
  8
PART_HOLES_LAYER_TOP
100
AcDbPolyline
 90
        2
 70
         1
 43
0.45
 10
33.235
 20
62.14
 42
-1.0
 10
33.685
 20
62.14
 42
-1.0
  0
LWPOLYLINE
  5
27D
100
AcDbEntity
  8
PART_HOLES_LAYER_TOP
100
AcDbPolyline
 90
        2
 70
         1
 43
0.45
 10
48.475
 20
62.14
 42
-1.0
 10
48.925
 20
62.14
 42
-1.0
  0
LWPOLYLINE
  5
27E
100
AcDbEntity
  8
PART_HOLES_LAYER_TOP
100
AcDbPolyline
 90
        2
 70
         1
 43
0.45
 10
48.475
 20
59.6
 42
-1.0
 10
48.925
 20
59.6
 42
-1.0
  0
LWPOLYLINE
  5
27F
100
AcDbEntity
  8
PART_HOLES_LAYER_TOP
100
AcDbPolyline
 90
        2
 70
         1
 43
0.45
 10
45.935
 20
62.14
 42
-1.0
 10
46.385
 20
62.14
 42
-1.0
  0
LWPOLYLINE
  5
280
100
AcDbEntity
  8
PART_HOLES_LAYER_TOP
100
AcDbPolyline
 90
        2
 70
         1
 43
0.45
 10
43.395
 20
62.14
 42
-1.0
 10
43.845
 20
62.14
 42
-1.0
  0
LWPOLYLINE
  5
281
100
AcDbEntity
  8
PART_HOLES_LAYER_TOP
100
AcDbPolyline
 90
        2
 70
         1
 43
0.45
 10
43.395
 20
59.6
 42
-1.0
 10
43.845
 20
59.6
 42
-1.0
  0
LWPOLYLINE
  5
282
100
AcDbEntity
  8
PART_HOLES_LAYER_TOP
100
AcDbPolyline
 90
        2
 70
         1
 43
0.45
 10
40.855
 20
62.14
 42
-1.0
 10
41.305
 20
62.14
 42
-1.0
  0
LWPOLYLINE
  5
283
100
AcDbEntity
  8
PART_HOLES_LAYER_TOP
100
AcDbPolyline
 90
        2
 70
         1
 43
0.45
 10
40.855
 20
59.6
 42
-1.0
 10
41.305
 20
59.6
 42
-1.0
  0
LWPOLYLINE
  5
284
100
AcDbEntity
  8
PART_HOLES_LAYER_TOP
100
AcDbPolyline
 90
        2
 70
         1
 43
0.45
 10
38.315
 20
62.14
 42
-1.0
 10
38.765
 20
62.14
 42
-1.0
  0
LWPOLYLINE
  5
285
100
AcDbEntity
  8
PART_HOLES_LAYER_TOP
100
AcDbPolyline
 90
        2
 70
         1
 43
0.45
 10
38.315
 20
59.6
 42
-1.0
 10
38.765
 20
59.6
 42
-1.0
  0
LWPOLYLINE
  5
286
100
AcDbEntity
  8
PART_HOLES_LAYER_TOP
100
AcDbPolyline
 90
        2
 70
         1
 43
0.45
 10
28.155
 20
59.6
 42
-1.0
 10
28.605
 20
59.6
 42
-1.0
  0
LWPOLYLINE
  5
287
100
AcDbEntity
  8
PART_HOLES_LAYER_TOP
100
AcDbPolyline
 90
        2
 70
         1
 43
0.45
 10
45.935
 20
59.6
 42
-1.0
 10
46.385
 20
59.6
 42
-1.0
  0
LWPOLYLINE
  5
288
100
AcDbEntity
  8
PART_HOLES_LAYER_TOP
100
AcDbPolyline
 90
        2
 70
         1
 43
0.45
 10
30.695
 20
59.6
 42
-1.0
 10
31.145
 20
59.6
 42
-1.0
  0
LWPOLYLINE
  5
289
100
AcDbEntity
  8
PART_HOLES_LAYER_TOP
100
AcDbPolyline
 90
        2
 70
         1
 43
0.45
 10
28.155
 20
62.14
 42
-1.0
 10
28.605
 20
62.14
 42
-1.0
  0
LWPOLYLINE
  5
28A
100
AcDbEntity
  8
PART_HOLES_LAYER_TOP
100
AcDbPolyline
 90
        2
 70
         1
 43
0.45
 10
56.095
 20
62.14
 42
-1.0
 10
56.545
 20
62.14
 42
-1.0
  0
LWPOLYLINE
  5
28B
100
AcDbEntity
  8
PART_HOLES_LAYER_TOP
100
AcDbPolyline
 90
        2
 70
         1
 43
0.45
 10
12.915
 20
59.6
 42
-1.0
 10
13.365
 20
59.6
 42
-1.0
  0
LWPOLYLINE
  5
28C
100
AcDbEntity
  8
PART_HOLES_LAYER_TOP
100
AcDbPolyline
 90
        2
 70
         1
 43
0.45
 10
33.235
 20
59.6
 42
-1.0
 10
33.685
 20
59.6
 42
-1.0
  0
LWPOLYLINE
  5
28D
100
AcDbEntity
  8
PART_HOLES_LAYER_TOP
100
AcDbPolyline
 90
        2
 70
         1
 43
0.45
 10
23.075
 20
59.6
 42
-1.0
 10
23.525
 20
59.6
 42
-1.0
  0
LWPOLYLINE
  5
28E
100
AcDbEntity
  8
PART_HOLES_LAYER_TOP
100
AcDbPolyline
 90
        2
 70
         1
 43
0.45
 10
53.555
 20
59.6
 42
-1.0
 10
54.005
 20
59.6
 42
-1.0
  0
LWPOLYLINE
  5
28F
100
AcDbEntity
  8
PART_HOLES_LAYER_TOP
100
AcDbPolyline
 90
        2
 70
         1
 43
0.45
 10
51.015
 20
59.6
 42
-1.0
 10
51.465
 20
59.6
 42
-1.0
  0
LWPOLYLINE
  5
290
100
AcDbEntity
  8
PART_HOLES_LAYER_TOP
100
AcDbPolyline
 90
        2
 70
         1
 43
0.45
 10
53.555
 20
62.14
 42
-1.0
 10
54.005
 20
62.14
 42
-1.0
  0
LWPOLYLINE
  5
291
100
AcDbEntity
  8
PART_HOLES_LAYER_TOP
100
AcDbPolyline
 90
        2
 70
         1
 43
0.45
 10
51.015
 20
62.14
 42
-1.0
 10
51.465
 20
62.14
 42
-1.0
  0
LWPOLYLINE
  5
292
100
AcDbEntity
  8
PART_HOLES_LAYER_TOP
100
AcDbPolyline
 90
        2
 70
         1
 43
0.45
 10
30.695
 20
62.14
 42
-1.0
 10
31.145
 20
62.14
 42
-1.0
  0
LWPOLYLINE
  5
293
100
AcDbEntity
  8
PART_HOLES_LAYER_TOP
100
AcDbPolyline
 90
        2
 70
         1
 43
0.45
 10
23.075
 20
62.14
 42
-1.0
 10
23.525
 20
62.14
 42
-1.0
  0
LWPOLYLINE
  5
294
100
AcDbEntity
  8
PART_HOLES_LAYER_TOP
100
AcDbPolyline
 90
        2
 70
         1
 43
0.45
 10
29.475
 20
51.9
 42
-1.0
 10
29.925
 20
51.9
 42
-1.0
  0
LWPOLYLINE
  5
295
100
AcDbEntity
  8
PART_HOLES_LAYER_TOP
100
AcDbPolyline
 90
        2
 70
         1
 43
0.45
 10
32.015
 20
51.9
 42
-1.0
 10
32.465
 20
51.9
 42
-1.0
  0
LWPOLYLINE
  5
296
100
AcDbEntity
  8
PART_HOLES_LAYER_TOP
100
AcDbPolyline
 90
        2
 70
         1
 43
0.45
 10
32.015
 20
29.04
 42
-1.0
 10
32.465
 20
29.04
 42
-1.0
  0
LWPOLYLINE
  5
297
100
AcDbEntity
  8
PART_HOLES_LAYER_TOP
100
AcDbPolyline
 90
        2
 70
         1
 43
0.45
 10
32.015
 20
31.58
 42
-1.0
 10
32.465
 20
31.58
 42
-1.0
  0
LWPOLYLINE
  5
298
100
AcDbEntity
  8
PART_HOLES_LAYER_TOP
100
AcDbPolyline
 90
        2
 70
         1
 43
0.45
 10
29.475
 20
41.74
 42
-1.0
 10
29.925
 20
41.74
 42
-1.0
  0
LWPOLYLINE
  5
299
100
AcDbEntity
  8
PART_HOLES_LAYER_TOP
100
AcDbPolyline
 90
        2
 70
         1
 43
0.45
 10
32.015
 20
41.74
 42
-1.0
 10
32.465
 20
41.74
 42
-1.0
  0
LWPOLYLINE
  5
29A
100
AcDbEntity
  8
PART_HOLES_LAYER_TOP
100
AcDbPolyline
 90
        2
 70
         1
 43
0.45
 10
29.475
 20
49.36
 42
-1.0
 10
29.925
 20
49.36
 42
-1.0
  0
LWPOLYLINE
  5
29B
100
AcDbEntity
  8
PART_HOLES_LAYER_TOP
100
AcDbPolyline
 90
        2
 70
         1
 43
0.45
 10
32.015
 20
49.36
 42
-1.0
 10
32.465
 20
49.36
 42
-1.0
  0
LWPOLYLINE
  5
29C
100
AcDbEntity
  8
PART_HOLES_LAYER_TOP
100
AcDbPolyline
 90
        2
 70
         1
 43
0.45
 10
29.475
 20
46.82
 42
-1.0
 10
29.925
 20
46.82
 42
-1.0
  0
LWPOLYLINE
  5
29D
100
AcDbEntity
  8
PART_HOLES_LAYER_TOP
100
AcDbPolyline
 90
        2
 70
         1
 43
0.45
 10
32.015
 20
46.82
 42
-1.0
 10
32.465
 20
46.82
 42
-1.0
  0
LWPOLYLINE
  5
29E
100
AcDbEntity
  8
PART_HOLES_LAYER_TOP
100
AcDbPolyline
 90
        2
 70
         1
 43
0.45
 10
29.475
 20
44.28
 42
-1.0
 10
29.925
 20
44.28
 42
-1.0
  0
LWPOLYLINE
  5
29F
100
AcDbEntity
  8
PART_HOLES_LAYER_TOP
100
AcDbPolyline
 90
        2
 70
         1
 43
0.45
 10
32.015
 20
44.28
 42
-1.0
 10
32.465
 20
44.28
 42
-1.0
  0
LWPOLYLINE
  5
2A0
100
AcDbEntity
  8
PART_HOLES_LAYER_TOP
100
AcDbPolyline
 90
        2
 70
         1
 43
0.45
 10
29.475
 20
39.2
 42
-1.0
 10
29.925
 20
39.2
 42
-1.0
  0
LWPOLYLINE
  5
2A1
100
AcDbEntity
  8
PART_HOLES_LAYER_TOP
100
AcDbPolyline
 90
        2
 70
         1
 43
0.45
 10
32.015
 20
39.2
 42
-1.0
 10
32.465
 20
39.2
 42
-1.0
  0
LWPOLYLINE
  5
2A2
100
AcDbEntity
  8
PART_HOLES_LAYER_TOP
100
AcDbPolyline
 90
        2
 70
         1
 43
0.45
 10
29.475
 20
31.58
 42
-1.0
 10
29.925
 20
31.58
 42
-1.0
  0
LWPOLYLINE
  5
2A3
100
AcDbEntity
  8
PART_HOLES_LAYER_TOP
100
AcDbPolyline
 90
        2
 70
         1
 43
0.45
 10
32.015
 20
34.12
 42
-1.0
 10
32.465
 20
34.12
 42
-1.0
  0
LWPOLYLINE
  5
2A4
100
AcDbEntity
  8
PART_HOLES_LAYER_TOP
100
AcDbPolyline
 90
        2
 70
         1
 43
0.45
 10
29.475
 20
34.12
 42
-1.0
 10
29.925
 20
34.12
 42
-1.0
  0
LWPOLYLINE
  5
2A5
100
AcDbEntity
  8
PART_HOLES_LAYER_TOP
100
AcDbPolyline
 90
        2
 70
         1
 43
0.45
 10
32.015
 20
36.66
 42
-1.0
 10
32.465
 20
36.66
 42
-1.0
  0
LWPOLYLINE
  5
2A6
100
AcDbEntity
  8
PART_HOLES_LAYER_TOP
100
AcDbPolyline
 90
        2
 70
         1
 43
0.45
 10
29.475
 20
29.04
 42
-1.0
 10
29.925
 20
29.04
 42
-1.0
  0
LWPOLYLINE
  5
2A7
100
AcDbEntity
  8
PART_HOLES_LAYER_TOP
100
AcDbPolyline
 90
        2
 70
         1
 43
0.45
 10
29.475
 20
36.66
 42
-1.0
 10
29.925
 20
36.66
 42
-1.0
  0
LWPOLYLINE
  5
2A8
100
AcDbEntity
  8
PART_HOLES_LAYER_TOP
100
AcDbPolyline
 90
        2
 70
         1
 43
0.45
 10
10.775
 20
55.6
 42
-1.0
 10
11.225
 20
55.6
 42
-1.0
  0
LWPOLYLINE
  5
2A9
100
AcDbEntity
  8
PART_HOLES_LAYER_TOP
100
AcDbPolyline
 90
        2
 70
         1
 43
0.45
 10
13.315
 20
55.6
 42
-1.0
 10
13.765
 20
55.6
 42
-1.0
  0
LWPOLYLINE
  5
2AA
100
AcDbEntity
  8
PART_HOLES_LAYER_TOP
100
AcDbPolyline
 90
        2
 70
         1
 43
0.45
 10
15.855
 20
55.6
 42
-1.0
 10
16.305
 20
55.6
 42
-1.0
  0
LWPOLYLINE
  5
2AB
100
AcDbEntity
  8
PART_HOLES_LAYER_TOP
100
AcDbPolyline
 90
        2
 70
         1
 43
0.45
 10
6.875
 20
52.56
 42
-1.0
 10
7.325
 20
52.56
 42
-1.0
  0
LWPOLYLINE
  5
2AC
100
AcDbEntity
  8
PART_HOLES_LAYER_TOP
100
AcDbPolyline
 90
        2
 70
         1
 43
0.45
 10
6.875
 20
55.1
 42
-1.0
 10
7.325
 20
55.1
 42
-1.0
  0
LWPOLYLINE
  5
2AD
100
AcDbEntity
  8
PART_HOLES_LAYER_TOP
100
AcDbPolyline
 90
        2
 70
         1
 43
0.45
 10
24.075
 20
22.05
 42
-1.0
 10
24.525
 20
22.05
 42
-1.0
  0
LWPOLYLINE
  5
2AE
100
AcDbEntity
  8
PART_HOLES_LAYER_TOP
100
AcDbPolyline
 90
        2
 70
         1
 43
0.45
 10
36.775
 20
22.05
 42
-1.0
 10
37.225
 20
22.05
 42
-1.0
  0
LWPOLYLINE
  5
2AF
100
AcDbEntity
  8
PART_HOLES_LAYER_TOP
100
AcDbPolyline
 90
        2
 70
         1
 43
0.45
 10
29.155
 20
22.05
 42
-1.0
 10
29.605
 20
22.05
 42
-1.0
  0
LWPOLYLINE
  5
2B0
100
AcDbEntity
  8
PART_HOLES_LAYER_TOP
100
AcDbPolyline
 90
        2
 70
         1
 43
0.45
 10
26.615
 20
22.05
 42
-1.0
 10
27.065
 20
22.05
 42
-1.0
  0
LWPOLYLINE
  5
2B1
100
AcDbEntity
  8
PART_HOLES_LAYER_TOP
100
AcDbPolyline
 90
        2
 70
         1
 43
0.45
 10
34.235
 20
22.05
 42
-1.0
 10
34.685
 20
22.05
 42
-1.0
  0
LWPOLYLINE
  5
2B2
100
AcDbEntity
  8
PART_HOLES_LAYER_TOP
100
AcDbPolyline
 90
        2
 70
         1
 43
0.45
 10
31.695
 20
22.05
 42
-1.0
 10
32.145
 20
22.05
 42
-1.0
  0
LWPOLYLINE
  5
2B3
100
AcDbEntity
  8
PART_HOLES_LAYER_TOP
100
AcDbPolyline
 90
        2
 70
         1
 43
0.45
 10
98.175
 20
50.12
 42
-1.0
 10
98.625
 20
50.12
 42
-1.0
  0
LWPOLYLINE
  5
2B4
100
AcDbEntity
  8
PART_HOLES_LAYER_TOP
100
AcDbPolyline
 90
        2
 70
         1
 43
0.45
 10
98.175
 20
47.579998
 42
-1.0
 10
98.625
 20
47.579998
 42
-1.0
  0
LWPOLYLINE
  5
2B5
100
AcDbEntity
  8
PART_HOLES_LAYER_TOP
100
AcDbPolyline
 90
        2
 70
         1
 43
0.45
 10
20.525
 20
51.9
 42
-1.0
 10
20.975
 20
51.9
 42
-1.0
  0
LWPOLYLINE
  5
2B6
100
AcDbEntity
  8
PART_HOLES_LAYER_TOP
100
AcDbPolyline
 90
        2
 70
         1
 43
0.45
 10
23.065
 20
51.9
 42
-1.0
 10
23.515
 20
51.9
 42
-1.0
  0
LWPOLYLINE
  5
2B7
100
AcDbEntity
  8
PART_HOLES_LAYER_TOP
100
AcDbPolyline
 90
        2
 70
         1
 43
0.45
 10
23.065
 20
29.04
 42
-1.0
 10
23.515
 20
29.04
 42
-1.0
  0
LWPOLYLINE
  5
2B8
100
AcDbEntity
  8
PART_HOLES_LAYER_TOP
100
AcDbPolyline
 90
        2
 70
         1
 43
0.45
 10
23.065
 20
31.58
 42
-1.0
 10
23.515
 20
31.58
 42
-1.0
  0
LWPOLYLINE
  5
2B9
100
AcDbEntity
  8
PART_HOLES_LAYER_TOP
100
AcDbPolyline
 90
        2
 70
         1
 43
0.45
 10
20.525
 20
41.74
 42
-1.0
 10
20.975
 20
41.74
 42
-1.0
  0
LWPOLYLINE
  5
2BA
100
AcDbEntity
  8
PART_HOLES_LAYER_TOP
100
AcDbPolyline
 90
        2
 70
         1
 43
0.45
 10
23.065
 20
41.74
 42
-1.0
 10
23.515
 20
41.74
 42
-1.0
  0
LWPOLYLINE
  5
2BB
100
AcDbEntity
  8
PART_HOLES_LAYER_TOP
100
AcDbPolyline
 90
        2
 70
         1
 43
0.45
 10
20.525
 20
49.36
 42
-1.0
 10
20.975
 20
49.36
 42
-1.0
  0
LWPOLYLINE
  5
2BC
100
AcDbEntity
  8
PART_HOLES_LAYER_TOP
100
AcDbPolyline
 90
        2
 70
         1
 43
0.45
 10
23.065
 20
49.36
 42
-1.0
 10
23.515
 20
49.36
 42
-1.0
  0
LWPOLYLINE
  5
2BD
100
AcDbEntity
  8
PART_HOLES_LAYER_TOP
100
AcDbPolyline
 90
        2
 70
         1
 43
0.45
 10
20.525
 20
46.82
 42
-1.0
 10
20.975
 20
46.82
 42
-1.0
  0
LWPOLYLINE
  5
2BE
100
AcDbEntity
  8
PART_HOLES_LAYER_TOP
100
AcDbPolyline
 90
        2
 70
         1
 43
0.45
 10
23.065
 20
46.82
 42
-1.0
 10
23.515
 20
46.82
 42
-1.0
  0
LWPOLYLINE
  5
2BF
100
AcDbEntity
  8
PART_HOLES_LAYER_TOP
100
AcDbPolyline
 90
        2
 70
         1
 43
0.45
 10
20.525
 20
44.28
 42
-1.0
 10
20.975
 20
44.28
 42
-1.0
  0
LWPOLYLINE
  5
2C0
100
AcDbEntity
  8
PART_HOLES_LAYER_TOP
100
AcDbPolyline
 90
        2
 70
         1
 43
0.45
 10
23.065
 20
44.28
 42
-1.0
 10
23.515
 20
44.28
 42
-1.0
  0
LWPOLYLINE
  5
2C1
100
AcDbEntity
  8
PART_HOLES_LAYER_TOP
100
AcDbPolyline
 90
        2
 70
         1
 43
0.45
 10
20.525
 20
39.2
 42
-1.0
 10
20.975
 20
39.2
 42
-1.0
  0
LWPOLYLINE
  5
2C2
100
AcDbEntity
  8
PART_HOLES_LAYER_TOP
100
AcDbPolyline
 90
        2
 70
         1
 43
0.45
 10
23.065
 20
39.2
 42
-1.0
 10
23.515
 20
39.2
 42
-1.0
  0
LWPOLYLINE
  5
2C3
100
AcDbEntity
  8
PART_HOLES_LAYER_TOP
100
AcDbPolyline
 90
        2
 70
         1
 43
0.45
 10
20.525
 20
29.04
 42
-1.0
 10
20.975
 20
29.04
 42
-1.0
  0
LWPOLYLINE
  5
2C4
100
AcDbEntity
  8
PART_HOLES_LAYER_TOP
100
AcDbPolyline
 90
        2
 70
         1
 43
0.45
 10
20.525
 20
34.12
 42
-1.0
 10
20.975
 20
34.12
 42
-1.0
  0
LWPOLYLINE
  5
2C5
100
AcDbEntity
  8
PART_HOLES_LAYER_TOP
100
AcDbPolyline
 90
        2
 70
         1
 43
0.45
 10
23.065
 20
34.12
 42
-1.0
 10
23.515
 20
34.12
 42
-1.0
  0
LWPOLYLINE
  5
2C6
100
AcDbEntity
  8
PART_HOLES_LAYER_TOP
100
AcDbPolyline
 90
        2
 70
         1
 43
0.45
 10
20.525
 20
31.58
 42
-1.0
 10
20.975
 20
31.58
 42
-1.0
  0
LWPOLYLINE
  5
2C7
100
AcDbEntity
  8
PART_HOLES_LAYER_TOP
100
AcDbPolyline
 90
        2
 70
         1
 43
0.45
 10
23.065
 20
36.66
 42
-1.0
 10
23.515
 20
36.66
 42
-1.0
  0
LWPOLYLINE
  5
2C8
100
AcDbEntity
  8
PART_HOLES_LAYER_TOP
100
AcDbPolyline
 90
        2
 70
         1
 43
0.45
 10
20.525
 20
36.66
 42
-1.0
 10
20.975
 20
36.66
 42
-1.0
  0
LWPOLYLINE
  5
2C9
100
AcDbEntity
  8
PART_HOLES_LAYER_TOP
100
AcDbPolyline
 90
        2
 70
         1
 43
0.95
 10
135.125
 20
61.6
 42
-1.0
 10
136.075
 20
61.6
 42
-1.0
  0
LWPOLYLINE
  5
2CA
100
AcDbEntity
  8
PART_HOLES_LAYER_TOP
100
AcDbPolyline
 90
        2
 70
         1
 43
0.95
 10
137.225
 20
59.1
 42
-1.0
 10
138.175
 20
59.1
 42
-1.0
  0
LWPOLYLINE
  5
2CB
100
AcDbEntity
  8
PART_HOLES_LAYER_TOP
100
AcDbPolyline
 90
        2
 70
         1
 43
0.95
 10
137.225
 20
53.5
 42
-1.0
 10
138.175
 20
53.5
 42
-1.0
  0
LWPOLYLINE
  5
2CC
100
AcDbEntity
  8
PART_HOLES_LAYER_TOP
100
AcDbPolyline
 90
        2
 70
         1
 43
0.45
 10
58.685
 20
10.0
 42
-1.0
 10
59.135
 20
10.0
 42
-1.0
  0
LWPOLYLINE
  5
2CD
100
AcDbEntity
  8
PART_HOLES_LAYER_TOP
100
AcDbPolyline
 90
        2
 70
         1
 43
0.45
 10
51.685
 20
10.0
 42
-1.0
 10
52.135
 20
10.0
 42
-1.0
  0
LWPOLYLINE
  5
2CE
100
AcDbEntity
  8
PART_HOLES_LAYER_TOP
100
AcDbPolyline
 90
        2
 70
         1
 43
1.25
 10
61.385
 20
7.28
 42
-1.0
 10
62.635
 20
7.28
 42
-1.0
  0
LWPOLYLINE
  5
2CF
100
AcDbEntity
  8
PART_HOLES_LAYER_TOP
100
AcDbPolyline
 90
        2
 70
         1
 43
1.25
 10
48.185
 20
7.28
 42
-1.0
 10
49.435
 20
7.28
 42
-1.0
  0
LWPOLYLINE
  5
2D0
100
AcDbEntity
  8
PART_HOLES_LAYER_TOP
100
AcDbPolyline
 90
        2
 70
         1
 43
0.45
 10
54.185
 20
10.0
 42
-1.0
 10
54.635
 20
10.0
 42
-1.0
  0
LWPOLYLINE
  5
2D1
100
AcDbEntity
  8
PART_HOLES_LAYER_TOP
100
AcDbPolyline
 90
        2
 70
         1
 43
0.45
 10
56.185
 20
10.0
 42
-1.0
 10
56.635
 20
10.0
 42
-1.0
  0
LWPOLYLINE
  5
2D2
100
AcDbEntity
  8
PART_HOLES_LAYER_TOP
100
AcDbPolyline
 90
        2
 70
         1
 43
0.45
 10
134.475
 20
40.09
 42
-1.0
 10
134.925
 20
40.09
 42
-1.0
  0
LWPOLYLINE
  5
2D3
100
AcDbEntity
  8
PART_HOLES_LAYER_TOP
100
AcDbPolyline
 90
        2
 70
         1
 43
0.45
 10
134.475
 20
35.21
 42
-1.0
 10
134.925
 20
35.21
 42
-1.0
  0
LWPOLYLINE
  5
2D4
100
AcDbEntity
  8
PART_HOLES_LAYER_TOP
100
AcDbPolyline
 90
        2
 70
         1
 43
0.45
 10
102.835
 20
24.85
 42
-1.0
 10
103.285
 20
24.85
 42
-1.0
  0
LWPOLYLINE
  5
2D5
100
AcDbEntity
  8
PART_HOLES_LAYER_TOP
100
AcDbPolyline
 90
        2
 70
         1
 43
0.45
 10
107.715
 20
24.85
 42
-1.0
 10
108.165
 20
24.85
 42
-1.0
  0
LWPOLYLINE
  5
2D6
100
AcDbEntity
  8
PART_HOLES_LAYER_TOP
100
AcDbPolyline
 90
        2
 70
         1
 43
0.45
 10
48.925
 20
23.3
 42
-1.0
 10
49.375
 20
23.3
 42
-1.0
  0
LWPOLYLINE
  5
2D7
100
AcDbEntity
  8
PART_HOLES_LAYER_TOP
100
AcDbPolyline
 90
        2
 70
         1
 43
0.45
 10
46.385
 20
23.3
 42
-1.0
 10
46.835
 20
23.3
 42
-1.0
  0
LWPOLYLINE
  5
2D8
100
AcDbEntity
  8
PART_HOLES_LAYER_TOP
100
AcDbPolyline
 90
        2
 70
         1
 43
0.45
 10
44.975
 20
5.7
 42
-1.0
 10
45.425
 20
5.7
 42
-1.0
  0
LWPOLYLINE
  5
2D9
100
AcDbEntity
  8
PART_HOLES_LAYER_TOP
100
AcDbPolyline
 90
        2
 70
         1
 43
0.45
 10
44.975
 20
8.24
 42
-1.0
 10
45.425
 20
8.24
 42
-1.0
  0
LWPOLYLINE
  5
2DA
100
AcDbEntity
  8
PART_HOLES_LAYER_TOP
100
AcDbPolyline
 90
        2
 70
         1
 43
0.45
 10
71.975
 20
4.7
 42
-1.0
 10
72.425
 20
4.7
 42
-1.0
  0
LWPOLYLINE
  5
2DB
100
AcDbEntity
  8
PART_HOLES_LAYER_TOP
100
AcDbPolyline
 90
        2
 70
         1
 43
0.45
 10
71.975
 20
2.16
 42
-1.0
 10
72.425
 20
2.16
 42
-1.0
  0
LWPOLYLINE
  5
2DC
100
AcDbEntity
  8
PART_HOLES_LAYER_TOP
100
AcDbPolyline
 90
        2
 70
         1
 43
0.45
 10
40.475
 20
22.9
 42
-1.0
 10
40.925
 20
22.9
 42
-1.0
  0
LWPOLYLINE
  5
2DD
100
AcDbEntity
  8
PART_HOLES_LAYER_TOP
100
AcDbPolyline
 90
        2
 70
         1
 43
0.45
 10
43.015
 20
22.9
 42
-1.0
 10
43.465
 20
22.9
 42
-1.0
  0
LWPOLYLINE
  5
2DE
100
AcDbEntity
  8
PART_HOLES_LAYER_TOP
100
AcDbPolyline
 90
        2
 70
         1
 43
0.45
 10
87.175
 20
21.3
 42
-1.0
 10
87.625
 20
21.3
 42
-1.0
  0
LWPOLYLINE
  5
2DF
100
AcDbEntity
  8
PART_HOLES_LAYER_TOP
100
AcDbPolyline
 90
        2
 70
         1
 43
0.45
 10
89.715
 20
21.3
 42
-1.0
 10
90.165
 20
21.3
 42
-1.0
  0
ENDSEC
  0
SECTION
  2
OBJECTS
  0
DICTIONARY
  5
19
100
AcDbDictionary
  3
ACAD_GROUP
350
1A
  3
ACAD_MLINESTYLE
350
1B
  0
DICTIONARY
  5
1A
102
{ACAD_REACTORS
330
19
102
}
100
AcDbDictionary
  0
DICTIONARY
  5
1B
102
{ACAD_REACTORS
330
19
102
}
100
AcDbDictionary
  3
STANDARD
350
1C
  0
MLINESTYLE
  5
1C
102
{ACAD_REACTORS
330
1B
102
}
100
AcDbMlineStyle
  2
STANDARD
 70
         0
  3

 62
         0
 51
90.0
 52
90.0
 71
         2
 49
0.5
 62
       256
  6
BYLAYER
 49
-0.5
 62
       256
  6
BYLAYER
  0
DICTIONARY
  5
22
102
{ACAD_REACTORS
330
19
102
}
100
AcDbDictionary
  0
ENDSEC
  0
EOF
