  0
SECTION
  2
HEADER
  9
$ACADVER
  1
AC1014
  9
$ACADMAINTVER
 70
         0
  9
$DWGCODEPAGE
  3
ANSI_1252
  9
$INSBASE
 10
0.0
 20
0.0
 30
0.0
  9
$EXTMIN
 10
0.0
 20
0.0
 30
0.0
  9
$EXTMAX
 10
98.3096
 20
169.0596
 30
0.0
  9
$LIMMIN
 10
0.0
 20
0.0
  9
$LIMMAX
 10
0.0
 20
0.0
  9
$ORTHOMODE
 70
         0
  9
$REGENMODE
 70
         1
  9
$FILLMODE
 70
         1
  9
$QTEXTMODE
 70
         0
  9
$MIRRTEXT
 70
         1
  9
$DRAGMODE
 70
         2
  9
$LTSCALE
 40
1.0
  9
$OSMODE
 70
         0
  9
$ATTMODE
 70
         1
  9
$TEXTSIZE
 40
0.2
  9
$TRACEWID
 40
0.05
  9
$TEXTSTYLE
  7
STANDARD
  9
$CLAYER
  8
0
  9
$CELTYPE
  6
CONTINUOUS
  9
$CECOLOR
 62
       256
  9
$CELTSCALE
 40
1.0
  9
$DELOBJ
 70
         1
  9
$DISPSILH
 70
         0
  9
$DIMSCALE
 40
1.0
  9
$DIMASZ
 40
0.18
  9
$DIMEXO
 40
0.0625
  9
$DIMDLI
 40
0.38
  9
$DIMRND
 40
0.0
  9
$DIMDLE
 40
0.0
  9
$DIMEXE
 40
0.18
  9
$DIMTP
 40
0.0
  9
$DIMTM
 40
0.0
  9
$DIMTXT
 40
0.18
  9
$DIMCEN
 40
0.09
  9
$DIMTSZ
 40
0.0
  9
$DIMTOL
 70
         0
  9
$DIMLIM
 70
         0
  9
$DIMTIH
 70
         1
  9
$DIMTOH
 70
         1
  9
$DIMSE1
 70
         0
  9
$DIMSE2
 70
         0
  9
$DIMTAD
 70
         0
  9
$DIMZIN
 70
         0
  9
$DIMBLK
  1

  9
$DIMASO
 70
         1
  9
$DIMSHO
 70
         1
  9
$DIMPOST
  1

  9
$DIMAPOST
  1

  9
$DIMALT
 70
         0
  9
$DIMALTD
 70
         2
  9
$DIMALTF
 40
25.4
  9
$DIMLFAC
 40
1.0
  9
$DIMTOFL
 70
         0
  9
$DIMTVP
 40
0.0
  9
$DIMTIX
 70
         0
  9
$DIMSOXD
 70
         0
  9
$DIMSAH
 70
         0
  9
$DIMBLK1
  1

  9
$DIMBLK2
  1

  9
$DIMSTYLE
  2
STANDARD
  9
$DIMCLRD
 70
         0
  9
$DIMCLRE
 70
         0
  9
$DIMCLRT
 70
         0
  9
$DIMTFAC
 40
1.0
  9
$DIMGAP
 40
0.09
  9
$DIMJUST
 70
         0
  9
$DIMSD1
 70
         0
  9
$DIMSD2
 70
         0
  9
$DIMTOLJ
 70
         1
  9
$DIMTZIN
 70
         0
  9
$DIMALTZ
 70
         0
  9
$DIMALTTZ
 70
         0
  9
$DIMFIT
 70
         3
  9
$DIMUPT
 70
         0
  9
$DIMUNIT
 70
         2
  9
$DIMDEC
 70
         4
  9
$DIMTDEC
 70
         4
  9
$DIMALTU
 70
         2
  9
$DIMALTTD
 70
         2
  9
$DIMTXSTY
  7
STANDARD
  9
$DIMAUNIT
 70
         0
  9
$LUNITS
 70
         2
  9
$LUPREC
 70
         4
  9
$SKETCHINC
 40
0.1
  9
$FILLETRAD
 40
0.0
  9
$AUNITS
 70
         0
  9
$AUPREC
 70
         0
  9
$MENU
  1
acad
  9
$ELEVATION
 40
0.0
  9
$PELEVATION
 40
0.0
  9
$THICKNESS
 40
0.0
  9
$LIMCHECK
 70
         0
  9
$BLIPMODE
 70
         1
  9
$CHAMFERA
 40
0.0
  9
$CHAMFERB
 40
0.0
  9
$CHAMFERC
 40
0.0
  9
$CHAMFERD
 40
0.0
  9
$SKPOLY
 70
         0
  9
$TDCREATE
 40
2457008.564942129
  9
$TDUPDATE
 40
0.000000000
  9
$TDINDWG
 40
0.0000000000
  9
$TDUSRTIMER
 40
0.0000000000
  9
$USRTIMER
 70
         1
  9
$ANGBASE
 50
0.0
  9
$ANGDIR
 70
         0
  9
$PDMODE
 70
         0
  9
$PDSIZE
 40
0.0
  9
$PLINEWID
 40
0.0
  9
$COORDS
 70
         0
  9
$SPLFRAME
 70
         0
  9
$SPLINETYPE
 70
         6
  9
$SPLINESEGS
 70
         8
  9
$ATTDIA
 70
         0
  9
$ATTREQ
 70
         1
  9
$HANDLING
 70
         1
  9
$HANDSEED
  5
3AC
  9
$SURFTAB1
 70
         6
  9
$SURFTAB2
 70
         6
  9
$SURFTYPE
 70
         6
  9
$SURFU
 70
         6
  9
$SURFV
 70
         6
  9
$UCSNAME
  2

  9
$UCSORG
 10
0.0
 20
0.0
 30
0.0
  9
$UCSXDIR
 10
1.0
 20
0.0
 30
0.0
  9
$UCSYDIR
 10
0.0
 20
1.0
 30
0.0
  9
$PUCSNAME
  2

  9
$PUCSORG
 10
0.0
 20
0.0
 30
0.0
  9
$PUCSXDIR
 10
1.0
 20
0.0
 30
0.0
  9
$PUCSYDIR
 10
0.0
 20
1.0
 30
0.0
  9
$USERI1
 70
        -3
  9
$USERI2
 70
         0
  9
$USERI3
 70
         0
  9
$USERI4
 70
         0
  9
$USERI5
 70
         0
  9
$USERR1
 40
0.0
  9
$USERR2
 40
0.0
  9
$USERR3
 40
0.0
  9
$USERR4
 40
0.0
  9
$USERR5
 40
0.0
  9
$WORLDVIEW
 70
         1
  9
$SHADEDGE
 70
         3
  9
$SHADEDIF
 70
        70
  9
$TILEMODE
 70
         1
  9
$MAXACTVP
 70
        16
  9
$PINSBASE
 10
0.0
 20
0.0
 30
0.0
  9
$PLIMCHECK
 70
         0
  9
$PEXTMIN
 10
1.0000000000E+20
 20
1.0000000000E+20
 30
1.0000000000E+20
  9
$PEXTMAX
 10
-1.0000000000E+20
 20
-1.0000000000E+20
 30
-1.0000000000E+20
  9
$PLIMMIN
 10
0.0
 20
0.0
  9
$PLIMMAX
 10
12.0
 20
9.0
  9
$UNITMODE
 70
         0
  9
$VISRETAIN
 70
         0
  9
$PLINEGEN
 70
         1
  9
$PSLTSCALE
 70
         0
  9
$TREEDEPTH
 70
      3020
  9
$PICKSTYLE
 70
         1
  9
$CMLSTYLE
  2
STANDARD
  9
$CMLJUST
 70
         0
  9
$CMLSCALE
 40
1.0
  9
$PROXYGRAPHICS
 70
         0
  9
$MEASUREMENT
 70
         0
  0
ENDSEC
  0
SECTION
  2
CLASSES
  0
CLASS
  1
LWPOLYLINE
  2
AcDbPolyline
  3
"AutoCAD"
 90
        0
280
         0
281
         1
  0
CLASS
  1
IMAGE
  2
AcDbRasterImage
  3
ISM
 90
      127
280
         0
281
         1
  0
CLASS
  1
OLE2FRAME
  2
AcDbOle2Frame
  3
""
 90
        0
280
         0
281
         1
  0
CLASS
  1
HATCH
  2
AcDbHatch
  3
"ACAD_SEDONA"
 90
        0
280
         0
281
         1
  0
CLASS
  1
DICTIONARYVAR
  2
AcDbDictionaryVar
  3
"AutoCAD"
 90
        0
280
         0
281
         0
  0
CLASS
  1
RASTERVARIABLES
  2
AcDbRasterVariables
  3
ISM
 90
        0
280
         0
281
         0
  0
CLASS
  1
IMAGEDEF
  2
AcDbRasterImageDef
  3
ISM
 90
        0
280
         0
281
         0
  0
CLASS
  1
IMAGEDEF_REACTOR
  2
AcDbRasterImageDefReactor
  3
ISM
 90
        1
280
         0
281
         0
  0
CLASS
  1
IDBUFFER
  2
AcDbIdBuffer
  3
"Acad"
 90
        0
280
         0
281
         0
  0
CLASS
  1
SPATIAL_FILTER
  2
AcDbSpatialFilter
  3
"Acad"
 90
        0
280
         0
281
         0
  0
CLASS
  1
XRECORD
  2
AcDbXrecord
  3
"<Built In>"
 90
        0
280
         0
281
         0
  0
CLASS
  1
SORTENTSTABLE
  2
AcDbSortentsTable
  3
"AutoCAD"
 90
        0
280
         0
281
         0
  0
CLASS
  1
LAYER_INDEX
  2
AcDbLayerIndex
  3
"Acad"
 90
        0
280
         0
281
         0
  0
CLASS
  1
SPATIAL_INDEX
  2
AcDbSpatialIndex
  3
"Acad"
 90
        0
280
         0
281
         0
  0
CLASS
  1
OBJECT_PTR
  2
CAseDLPNTableRecord
  3
"ASE-LPNTableRecord"
 90
        1
280
         0
281
         0
  0
CLASS
  1
LAYOUT
  2
AcDbLayout
  3
"AutoCAD 2000"
 90
        0
280
         0
281
         0
  0
CLASS
  1
PLOTSETTINGS
  2
AcDbPlotSettings
  3
"AutoCAD 2000"
 90
        0
280
         0
281
         0
  0
CLASS
  1
ACDBDICTIONARYWDFLT
  2
AcDbDictionaryWithDefault
  3
"AutoCAD 2000"
 90
        0
280
         0
281
         0
  0
CLASS
  1
ACDBPLACEHOLDER
  2
AcDbPlaceHolder
  3
"AutoCAD 2000"
 90
        0
280
         0
281
         0
  0
CLASS
  1
VBA_PROJECT
  2
AcDbVbaProject
  3
"acadvba"
 90
        0
280
         0
281
         0
  0
CLASS
  1
WIPEOUT
  2
AcDbWipeout
  3
WipeOut|AutoCAD Express Tool|expresstools@autodesk.com
 90
      127
280
         0
281
         1
  0
CLASS
  1
WIPEOUTVARIABLES
  2
AcDbWipeoutVariables
  3
WipeOut|AutoCAD Express Tool|expresstools@autodesk.com
 90
        0
280
         0
281
         0
  0
CLASS
  1
RTEXT
  2
RText
  3
RText|AutoCAD Express Tool|expresstools@autodesk.com
 90
        0
280
         0
281
         1
  0
CLASS
  1
ARCALIGNEDTEXT
  2
AcDbArcAlignedText
  3
ATEXT|AutoCAD Express Tool|expresstools@autodesk.com
 90
        0
280
         0
281
         1
  0
ENDSEC
  0
SECTION
  2
TABLES
  0
TABLE
  2
VPORT
  5
7
100
AcDbSymbolTable
 70
         1
  0
VPORT
  5
15
100
AcDbSymbolTableRecord
100
AcDbViewportTableRecord
  2
*ACTIVE
 70
         0
 10
0.0
 20
0.0
 11
1.0
 21
1.0
 12
6.591288
 22
4.579184
 13
0.0
 23
0.0
 14
1.0
 24
1.0
 15
0.0
 25
0.0
 16
0.0
 26
0.0
 36
1.0
 17
0.0
 27
0.0
 37
0.0
 40
9.158369
 41
0.688564
 42
50.0
 43
0.0
 44
0.0
 50
0.0
 51
0.0
 71
         0
 72
       100
 73
         1
 74
         1
 75
         0
 76
         0
 77
         0
 78
         0
  0
ENDTAB
  0
TABLE
  2
LTYPE
  5
4
100
AcDbSymbolTable
 70
         3
  0
LTYPE
  5
11
100
AcDbSymbolTableRecord
100
AcDbLinetypeTableRecord
  2
BYBLOCK
 70
        64
  3

 72
        65
 73
         0
 40
0.0
  0
LTYPE
  5
12
100
AcDbSymbolTableRecord
100
AcDbLinetypeTableRecord
  2
BYLAYER
 70
        64
  3

 72
        65
 73
         0
 40
0.0
  0
LTYPE
  5
13
100
AcDbSymbolTableRecord
100
AcDbLinetypeTableRecord
  2
CONTINUOUS
 70
        64
  3
Solid line
 72
        65
 73
         0
 40
0.0
  0
ENDTAB
  0
TABLE
  2
LAYER
  5
2
100
AcDbSymbolTable
 70
         7
  0
LAYER
  5
14
100
AcDbSymbolTableRecord
100
AcDbLayerTableRecord
  2
0
 70
         0
 62
         7
  6
CONTINUOUS
  0
LAYER
  5
24
100
AcDbSymbolTableRecord
100
AcDbLayerTableRecord
  2
ASSEMBLY_OUTLINES_BTM
 70
         0
 62
       191
  6
CONTINUOUS
  0
LAYER
  5
25
100
AcDbSymbolTableRecord
100
AcDbLayerTableRecord
  2
ASSEMBLY_OUTLINES_TOP
 70
         0
 62
       102
  6
CONTINUOUS
  0
LAYER
  5
26
100
AcDbSymbolTableRecord
100
AcDbLayerTableRecord
  2
ASSEMBLY_REF_DES_TOP
 70
         0
 62
       102
  6
CONTINUOUS
  0
LAYER
  5
27
100
AcDbSymbolTableRecord
100
AcDbLayerTableRecord
  2
BOARD_OUTLINE
 70
         0
 62
        10
  6
CONTINUOUS
  0
LAYER
  5
28
100
AcDbSymbolTableRecord
100
AcDbLayerTableRecord
  2
MOUNTING_HOLES_LAYER_TOP
 70
         0
 62
        42
  6
CONTINUOUS
  0
LAYER
  5
29
100
AcDbSymbolTableRecord
100
AcDbLayerTableRecord
  2
PART_HOLES_LAYER_TOP
 70
         0
 62
        30
  6
CONTINUOUS
  0
ENDTAB
  0
TABLE
  2
STYLE
  5
3
100
AcDbSymbolTable
 70
         4
  0
STYLE
  5
17
100
AcDbSymbolTableRecord
100
AcDbTextStyleTableRecord
  2
STANDARD
 70
         0
 40
0.0
 41
1.0
 50
0.0
 71
         0
 42
0.0
  3
txt
  4

  0
STYLE
  5
1BE
100
AcDbSymbolTableRecord
100
AcDbTextStyleTableRecord
  2
VERIBEST_GERBER_1
 70
         0
 40
0.0
 41
1.0
 50
0.0
 71
         0
 42
0.0
  3

  4

  0
STYLE
  5
2CF
100
AcDbSymbolTableRecord
100
AcDbTextStyleTableRecord
  2
GOST_TYPE_B
 70
         0
 40
0.0
 41
1.0
 50
0.0
 71
         0
 42
0.0
  3
gost.ttf
  4

  0
STYLE
  5
336
100
AcDbSymbolTableRecord
100
AcDbTextStyleTableRecord
  2
VERIBEST_GERBER_0
 70
         0
 40
0.0
 41
1.0
 50
0.0
 71
         0
 42
0.0
  3
gost.ttf
  4

  0
ENDTAB
  0
TABLE
  2
VIEW
  5
5
100
AcDbSymbolTable
 70
         0
  0
ENDTAB
  0
TABLE
  2
UCS
  5
6
100
AcDbSymbolTable
 70
         0
  0
ENDTAB
  0
TABLE
  2
APPID
  5
8
100
AcDbSymbolTable
 70
         1
  0
APPID
  5
16
100
AcDbSymbolTableRecord
100
AcDbRegAppTableRecord
  2
ACAD
 70
         0
  0
ENDTAB
  0
TABLE
  2
DIMSTYLE
  5
9
100
AcDbSymbolTable
 70
         1
  0
DIMSTYLE
105
18
100
AcDbSymbolTableRecord
100
AcDbDimStyleTableRecord
  2
STANDARD
 70
         0
  3

  4

  5

  6

  7

 40
1.0
 41
0.18
 42
0.0625
 43
0.38
 44
0.18
 45
0.0
 46
0.0
 47
0.0
 48
0.0
 71
         0
 72
         0
 73
         1
 74
         1
 75
         0
 76
         0
 77
         0
 78
         0
140
0.18
141
0.09
142
0.0
143
25.4
144
1.0
145
0.0
146
1.0
147
0.09
170
         0
171
         2
172
         0
173
         0
174
         0
175
         0
176
         0
177
         0
178
         0
270
         2
271
         4
272
         4
273
         2
274
         2
275
         0
280
         0
281
         0
282
         0
283
         1
284
         0
285
         0
286
         0
287
         3
288
         0
340
17
  0
ENDTAB
  0
TABLE
  2
BLOCK_RECORD
  5
1
100
AcDbSymbolTable
 70
         0
  0
BLOCK_RECORD
  5
A
100
AcDbSymbolTableRecord
100
AcDbBlockTableRecord
  2
*MODEL_SPACE
  0
BLOCK_RECORD
  5
B
100
AcDbSymbolTableRecord
100
AcDbBlockTableRecord
  2
*PAPER_SPACE
  0
ENDTAB
  0
ENDSEC
  0
SECTION
  2
BLOCKS
  0
BLOCK
  5
D
100
AcDbEntity
  8
0
100
AcDbBlockBegin
  2
*MODEL_SPACE
 70
         0
 10
0.0
 20
0.0
 30
0.0
  3
*MODEL_SPACE
  1

  0
ENDBLK
  5
E
100
AcDbEntity
  8
0
100
AcDbBlockEnd
  0
BLOCK
  5
F
100
AcDbEntity
 67
         1
  8
0
100
AcDbBlockBegin
  2
*PAPER_SPACE
 70
         0
 10
0.0
 20
0.0
 30
0.0
  3
*PAPER_SPACE
  1

  0
ENDBLK
  5
10
100
AcDbEntity
 67
         1
  8
0
100
AcDbBlockEnd
  0
ENDSEC
  0
SECTION
  2
ENTITIES
  0
LWPOLYLINE
  5
2A
100
AcDbEntity
  8
ASSEMBLY_OUTLINES_BTM
100
AcDbPolyline
 90
        4
 70
         1
 43
0.1
 10
61.8
 20
142.85
 10
61.8
 20
144.15
 10
64.6
 20
144.15
 10
64.6
 20
142.85
  0
LWPOLYLINE
  5
2B
100
AcDbEntity
  8
ASSEMBLY_OUTLINES_BTM
100
AcDbPolyline
 90
        4
 70
         1
 43
0.1
 10
83.55
 20
152.9
 10
83.55
 20
155.7
 10
84.85
 20
155.7
 10
84.85
 20
152.9
  0
LWPOLYLINE
  5
2C
100
AcDbEntity
  8
ASSEMBLY_OUTLINES_BTM
100
AcDbPolyline
 90
        4
 70
         1
 43
0.1
 10
74.6
 20
141.4
 10
74.6
 20
142.7
 10
77.4
 20
142.7
 10
77.4
 20
141.4
  0
LWPOLYLINE
  5
2D
100
AcDbEntity
  8
ASSEMBLY_OUTLINES_BTM
100
AcDbPolyline
 90
        4
 70
         1
 43
0.1
 10
70.55
 20
150.2
 10
70.55
 20
153.0
 10
71.85
 20
153.0
 10
71.85
 20
150.2
  0
LWPOLYLINE
  5
2E
100
AcDbEntity
  8
ASSEMBLY_OUTLINES_BTM
100
AcDbPolyline
 90
        4
 70
         1
 43
0.1
 10
81.9
 20
151.1
 10
81.9
 20
153.9
 10
83.2
 20
153.9
 10
83.2
 20
151.1
  0
LWPOLYLINE
  5
2F
100
AcDbEntity
  8
ASSEMBLY_OUTLINES_BTM
100
AcDbPolyline
 90
        4
 70
         1
 43
0.1
 10
65.75
 20
118.7
 10
65.75
 20
120.4
 10
66.55
 20
120.4
 10
66.55
 20
118.7
  0
LWPOLYLINE
  5
30
100
AcDbEntity
  8
ASSEMBLY_OUTLINES_BTM
100
AcDbPolyline
 90
        4
 70
         1
 43
0.1
 10
66.55
 20
120.4
 10
66.55
 20
121.2
 10
68.25
 20
121.2
 10
68.25
 20
120.4
  0
CIRCLE
  5
31
100
AcDbEntity
  8
ASSEMBLY_OUTLINES_BTM
100
AcDbCircle
 10
66.300001
 20
105.849999
 30
0.0
 40
2.0
  0
LWPOLYLINE
  5
32
100
AcDbEntity
  8
ASSEMBLY_OUTLINES_BTM
100
AcDbPolyline
 90
        4
 70
         1
 43
0.1
 10
82.65
 20
144.65
 10
82.65
 20
147.45
 10
83.95
 20
147.45
 10
83.95
 20
144.65
  0
LWPOLYLINE
  5
33
100
AcDbEntity
  8
ASSEMBLY_OUTLINES_BTM
100
AcDbPolyline
 90
        4
 70
         1
 43
0.1
 10
69.65
 20
118.0
 10
69.65
 20
118.8
 10
71.35
 20
118.8
 10
71.35
 20
118.0
  0
LWPOLYLINE
  5
34
100
AcDbEntity
  8
ASSEMBLY_OUTLINES_BTM
100
AcDbPolyline
 90
        4
 70
         1
 43
0.1
 10
61.6
 20
149.55
 10
61.6
 20
150.85
 10
64.4
 20
150.85
 10
64.4
 20
149.55
  0
LWPOLYLINE
  5
35
100
AcDbEntity
  8
ASSEMBLY_OUTLINES_BTM
100
AcDbPolyline
 90
        4
 70
         1
 43
0.1
 10
63.35
 20
117.0
 10
63.35
 20
118.7
 10
64.15
 20
118.7
 10
64.15
 20
117.0
  0
LWPOLYLINE
  5
36
100
AcDbEntity
  8
ASSEMBLY_OUTLINES_BTM
100
AcDbPolyline
 90
        4
 70
         1
 43
0.1
 10
68.05
 20
121.2
 10
68.05
 20
122.0
 10
69.75
 20
122.0
 10
69.75
 20
121.2
  0
LWPOLYLINE
  5
37
100
AcDbEntity
  8
ASSEMBLY_OUTLINES_BTM
100
AcDbPolyline
 90
        4
 70
         1
 43
0.1
 10
63.7
 20
126.8
 10
63.7
 20
127.6
 10
65.4
 20
127.6
 10
65.4
 20
126.8
  0
LWPOLYLINE
  5
38
100
AcDbEntity
  8
ASSEMBLY_OUTLINES_BTM
100
AcDbPolyline
 90
        4
 70
         1
 43
0.1
 10
60.15
 20
124.25
 10
60.15
 20
125.05
 10
61.85
 20
125.05
 10
61.85
 20
124.25
  0
LWPOLYLINE
  5
39
100
AcDbEntity
  8
ASSEMBLY_OUTLINES_BTM
100
AcDbPolyline
 90
        4
 70
         1
 43
0.1
 10
70.45
 20
145.85
 10
70.45
 20
148.65
 10
71.75
 20
148.65
 10
71.75
 20
145.85
  0
LWPOLYLINE
  5
3A
100
AcDbEntity
  8
ASSEMBLY_OUTLINES_BTM
100
AcDbPolyline
 90
        4
 70
         1
 43
0.1
 10
61.65
 20
126.8
 10
61.65
 20
127.6
 10
63.35
 20
127.6
 10
63.35
 20
126.8
  0
LWPOLYLINE
  5
3B
100
AcDbEntity
  8
ASSEMBLY_OUTLINES_BTM
100
AcDbPolyline
 90
        4
 70
         1
 43
0.1
 10
68.85
 20
123.6
 10
68.85
 20
125.3
 10
69.65
 20
125.3
 10
69.65
 20
123.6
  0
LWPOLYLINE
  5
3C
100
AcDbEntity
  8
ASSEMBLY_OUTLINES_BTM
100
AcDbPolyline
 90
        4
 70
         1
 43
0.1
 10
67.35
 20
126.65
 10
67.35
 20
127.45
 10
69.05
 20
127.45
 10
69.05
 20
126.65
  0
LWPOLYLINE
  5
3D
100
AcDbEntity
  8
ASSEMBLY_OUTLINES_BTM
100
AcDbPolyline
 90
        4
 70
         1
 10
39.45
 20
157.945
 10
39.45
 20
163.025
 10
90.25
 20
163.025
 10
90.25
 20
157.945
  0
CIRCLE
  5
3E
100
AcDbEntity
  8
ASSEMBLY_OUTLINES_BTM
100
AcDbCircle
 10
40.718225
 20
161.76544
 30
0.0
 40
0.45
  0
HATCH
  5
3F
100
AcDbEntity
  8
ASSEMBLY_OUTLINES_BTM
100
AcDbHatch
 10
0.0
 20
0.0
 30
0.0
210
0.0
220
0.0
230
1.0
  2
SOLID
 70
         1
 71
         1
 91
        1
 92
        1
 93
        1
 72
         2
 10
40.718224999999997
 20
161.76544000000001
 40
0.45
 50
0.0
 51
360.0
 73
         1
 97
        1
330
3E
 75
         0
 76
         1
 98
        1
 10
0.0
 20
0.0
  0
CIRCLE
  5
40
100
AcDbEntity
  8
ASSEMBLY_OUTLINES_BTM
100
AcDbCircle
 10
43.258225
 20
161.76544
 30
0.0
 40
0.45
  0
HATCH
  5
41
100
AcDbEntity
  8
ASSEMBLY_OUTLINES_BTM
100
AcDbHatch
 10
0.0
 20
0.0
 30
0.0
210
0.0
220
0.0
230
1.0
  2
SOLID
 70
         1
 71
         1
 91
        1
 92
        1
 93
        1
 72
         2
 10
43.258225000000003
 20
161.76544000000001
 40
0.45
 50
0.0
 51
360.0
 73
         1
 97
        1
330
40
 75
         0
 76
         1
 98
        1
 10
0.0
 20
0.0
  0
CIRCLE
  5
42
100
AcDbEntity
  8
ASSEMBLY_OUTLINES_BTM
100
AcDbCircle
 10
45.798225
 20
161.76544
 30
0.0
 40
0.45
  0
HATCH
  5
43
100
AcDbEntity
  8
ASSEMBLY_OUTLINES_BTM
100
AcDbHatch
 10
0.0
 20
0.0
 30
0.0
210
0.0
220
0.0
230
1.0
  2
SOLID
 70
         1
 71
         1
 91
        1
 92
        1
 93
        1
 72
         2
 10
45.798225000000002
 20
161.76544000000001
 40
0.45
 50
0.0
 51
360.0
 73
         1
 97
        1
330
42
 75
         0
 76
         1
 98
        1
 10
0.0
 20
0.0
  0
CIRCLE
  5
44
100
AcDbEntity
  8
ASSEMBLY_OUTLINES_BTM
100
AcDbCircle
 10
48.338225
 20
161.76544
 30
0.0
 40
0.45
  0
HATCH
  5
45
100
AcDbEntity
  8
ASSEMBLY_OUTLINES_BTM
100
AcDbHatch
 10
0.0
 20
0.0
 30
0.0
210
0.0
220
0.0
230
1.0
  2
SOLID
 70
         1
 71
         1
 91
        1
 92
        1
 93
        1
 72
         2
 10
48.338225000000001
 20
161.76544000000001
 40
0.45
 50
0.0
 51
360.0
 73
         1
 97
        1
330
44
 75
         0
 76
         1
 98
        1
 10
0.0
 20
0.0
  0
CIRCLE
  5
46
100
AcDbEntity
  8
ASSEMBLY_OUTLINES_BTM
100
AcDbCircle
 10
50.878225
 20
161.76544
 30
0.0
 40
0.45
  0
HATCH
  5
47
100
AcDbEntity
  8
ASSEMBLY_OUTLINES_BTM
100
AcDbHatch
 10
0.0
 20
0.0
 30
0.0
210
0.0
220
0.0
230
1.0
  2
SOLID
 70
         1
 71
         1
 91
        1
 92
        1
 93
        1
 72
         2
 10
50.878225
 20
161.76544000000001
 40
0.45
 50
0.0
 51
360.0
 73
         1
 97
        1
330
46
 75
         0
 76
         1
 98
        1
 10
0.0
 20
0.0
  0
CIRCLE
  5
48
100
AcDbEntity
  8
ASSEMBLY_OUTLINES_BTM
100
AcDbCircle
 10
53.418225
 20
161.76544
 30
0.0
 40
0.45
  0
HATCH
  5
49
100
AcDbEntity
  8
ASSEMBLY_OUTLINES_BTM
100
AcDbHatch
 10
0.0
 20
0.0
 30
0.0
210
0.0
220
0.0
230
1.0
  2
SOLID
 70
         1
 71
         1
 91
        1
 92
        1
 93
        1
 72
         2
 10
53.418225
 20
161.76544000000001
 40
0.45
 50
0.0
 51
360.0
 73
         1
 97
        1
330
48
 75
         0
 76
         1
 98
        1
 10
0.0
 20
0.0
  0
CIRCLE
  5
4A
100
AcDbEntity
  8
ASSEMBLY_OUTLINES_BTM
100
AcDbCircle
 10
55.958225
 20
161.76544
 30
0.0
 40
0.45
  0
HATCH
  5
4B
100
AcDbEntity
  8
ASSEMBLY_OUTLINES_BTM
100
AcDbHatch
 10
0.0
 20
0.0
 30
0.0
210
0.0
220
0.0
230
1.0
  2
SOLID
 70
         1
 71
         1
 91
        1
 92
        1
 93
        1
 72
         2
 10
55.958224999999999
 20
161.76544000000001
 40
0.45
 50
0.0
 51
360.0
 73
         1
 97
        1
330
4A
 75
         0
 76
         1
 98
        1
 10
0.0
 20
0.0
  0
CIRCLE
  5
4C
100
AcDbEntity
  8
ASSEMBLY_OUTLINES_BTM
100
AcDbCircle
 10
58.498225
 20
161.76544
 30
0.0
 40
0.45
  0
HATCH
  5
4D
100
AcDbEntity
  8
ASSEMBLY_OUTLINES_BTM
100
AcDbHatch
 10
0.0
 20
0.0
 30
0.0
210
0.0
220
0.0
230
1.0
  2
SOLID
 70
         1
 71
         1
 91
        1
 92
        1
 93
        1
 72
         2
 10
58.498224999999998
 20
161.76544000000001
 40
0.45
 50
0.0
 51
360.0
 73
         1
 97
        1
330
4C
 75
         0
 76
         1
 98
        1
 10
0.0
 20
0.0
  0
CIRCLE
  5
4E
100
AcDbEntity
  8
ASSEMBLY_OUTLINES_BTM
100
AcDbCircle
 10
61.038225
 20
161.76544
 30
0.0
 40
0.45
  0
HATCH
  5
4F
100
AcDbEntity
  8
ASSEMBLY_OUTLINES_BTM
100
AcDbHatch
 10
0.0
 20
0.0
 30
0.0
210
0.0
220
0.0
230
1.0
  2
SOLID
 70
         1
 71
         1
 91
        1
 92
        1
 93
        1
 72
         2
 10
61.038224999999997
 20
161.76544000000001
 40
0.45
 50
0.0
 51
360.0
 73
         1
 97
        1
330
4E
 75
         0
 76
         1
 98
        1
 10
0.0
 20
0.0
  0
CIRCLE
  5
50
100
AcDbEntity
  8
ASSEMBLY_OUTLINES_BTM
100
AcDbCircle
 10
63.578225
 20
161.76544
 30
0.0
 40
0.45
  0
HATCH
  5
51
100
AcDbEntity
  8
ASSEMBLY_OUTLINES_BTM
100
AcDbHatch
 10
0.0
 20
0.0
 30
0.0
210
0.0
220
0.0
230
1.0
  2
SOLID
 70
         1
 71
         1
 91
        1
 92
        1
 93
        1
 72
         2
 10
63.578225000000003
 20
161.76544000000001
 40
0.45
 50
0.0
 51
360.0
 73
         1
 97
        1
330
50
 75
         0
 76
         1
 98
        1
 10
0.0
 20
0.0
  0
CIRCLE
  5
52
100
AcDbEntity
  8
ASSEMBLY_OUTLINES_BTM
100
AcDbCircle
 10
66.121774
 20
161.77456
 30
0.0
 40
0.45
  0
HATCH
  5
53
100
AcDbEntity
  8
ASSEMBLY_OUTLINES_BTM
100
AcDbHatch
 10
0.0
 20
0.0
 30
0.0
210
0.0
220
0.0
230
1.0
  2
SOLID
 70
         1
 71
         1
 91
        1
 92
        1
 93
        1
 72
         2
 10
66.121774000000002
 20
161.77456000000001
 40
0.45
 50
0.0
 51
360.0
 73
         1
 97
        1
330
52
 75
         0
 76
         1
 98
        1
 10
0.0
 20
0.0
  0
CIRCLE
  5
54
100
AcDbEntity
  8
ASSEMBLY_OUTLINES_BTM
100
AcDbCircle
 10
68.661774
 20
161.77456
 30
0.0
 40
0.45
  0
HATCH
  5
55
100
AcDbEntity
  8
ASSEMBLY_OUTLINES_BTM
100
AcDbHatch
 10
0.0
 20
0.0
 30
0.0
210
0.0
220
0.0
230
1.0
  2
SOLID
 70
         1
 71
         1
 91
        1
 92
        1
 93
        1
 72
         2
 10
68.661773999999994
 20
161.77456000000001
 40
0.45
 50
0.0
 51
360.0
 73
         1
 97
        1
330
54
 75
         0
 76
         1
 98
        1
 10
0.0
 20
0.0
  0
CIRCLE
  5
56
100
AcDbEntity
  8
ASSEMBLY_OUTLINES_BTM
100
AcDbCircle
 10
71.201774
 20
161.77456
 30
0.0
 40
0.45
  0
HATCH
  5
57
100
AcDbEntity
  8
ASSEMBLY_OUTLINES_BTM
100
AcDbHatch
 10
0.0
 20
0.0
 30
0.0
210
0.0
220
0.0
230
1.0
  2
SOLID
 70
         1
 71
         1
 91
        1
 92
        1
 93
        1
 72
         2
 10
71.201774
 20
161.77456000000001
 40
0.45
 50
0.0
 51
360.0
 73
         1
 97
        1
330
56
 75
         0
 76
         1
 98
        1
 10
0.0
 20
0.0
  0
CIRCLE
  5
58
100
AcDbEntity
  8
ASSEMBLY_OUTLINES_BTM
100
AcDbCircle
 10
73.741774
 20
161.77456
 30
0.0
 40
0.45
  0
HATCH
  5
59
100
AcDbEntity
  8
ASSEMBLY_OUTLINES_BTM
100
AcDbHatch
 10
0.0
 20
0.0
 30
0.0
210
0.0
220
0.0
230
1.0
  2
SOLID
 70
         1
 71
         1
 91
        1
 92
        1
 93
        1
 72
         2
 10
73.741774000000007
 20
161.77456000000001
 40
0.45
 50
0.0
 51
360.0
 73
         1
 97
        1
330
58
 75
         0
 76
         1
 98
        1
 10
0.0
 20
0.0
  0
CIRCLE
  5
5A
100
AcDbEntity
  8
ASSEMBLY_OUTLINES_BTM
100
AcDbCircle
 10
76.281774
 20
161.77456
 30
0.0
 40
0.45
  0
HATCH
  5
5B
100
AcDbEntity
  8
ASSEMBLY_OUTLINES_BTM
100
AcDbHatch
 10
0.0
 20
0.0
 30
0.0
210
0.0
220
0.0
230
1.0
  2
SOLID
 70
         1
 71
         1
 91
        1
 92
        1
 93
        1
 72
         2
 10
76.281773999999999
 20
161.77456000000001
 40
0.45
 50
0.0
 51
360.0
 73
         1
 97
        1
330
5A
 75
         0
 76
         1
 98
        1
 10
0.0
 20
0.0
  0
CIRCLE
  5
5C
100
AcDbEntity
  8
ASSEMBLY_OUTLINES_BTM
100
AcDbCircle
 10
78.821774
 20
161.77456
 30
0.0
 40
0.45
  0
HATCH
  5
5D
100
AcDbEntity
  8
ASSEMBLY_OUTLINES_BTM
100
AcDbHatch
 10
0.0
 20
0.0
 30
0.0
210
0.0
220
0.0
230
1.0
  2
SOLID
 70
         1
 71
         1
 91
        1
 92
        1
 93
        1
 72
         2
 10
78.821774000000005
 20
161.77456000000001
 40
0.45
 50
0.0
 51
360.0
 73
         1
 97
        1
330
5C
 75
         0
 76
         1
 98
        1
 10
0.0
 20
0.0
  0
CIRCLE
  5
5E
100
AcDbEntity
  8
ASSEMBLY_OUTLINES_BTM
100
AcDbCircle
 10
81.361774
 20
161.77456
 30
0.0
 40
0.45
  0
HATCH
  5
5F
100
AcDbEntity
  8
ASSEMBLY_OUTLINES_BTM
100
AcDbHatch
 10
0.0
 20
0.0
 30
0.0
210
0.0
220
0.0
230
1.0
  2
SOLID
 70
         1
 71
         1
 91
        1
 92
        1
 93
        1
 72
         2
 10
81.361773999999997
 20
161.77456000000001
 40
0.45
 50
0.0
 51
360.0
 73
         1
 97
        1
330
5E
 75
         0
 76
         1
 98
        1
 10
0.0
 20
0.0
  0
CIRCLE
  5
60
100
AcDbEntity
  8
ASSEMBLY_OUTLINES_BTM
100
AcDbCircle
 10
83.901774
 20
161.77456
 30
0.0
 40
0.45
  0
HATCH
  5
61
100
AcDbEntity
  8
ASSEMBLY_OUTLINES_BTM
100
AcDbHatch
 10
0.0
 20
0.0
 30
0.0
210
0.0
220
0.0
230
1.0
  2
SOLID
 70
         1
 71
         1
 91
        1
 92
        1
 93
        1
 72
         2
 10
83.901774000000003
 20
161.77456000000001
 40
0.45
 50
0.0
 51
360.0
 73
         1
 97
        1
330
60
 75
         0
 76
         1
 98
        1
 10
0.0
 20
0.0
  0
CIRCLE
  5
62
100
AcDbEntity
  8
ASSEMBLY_OUTLINES_BTM
100
AcDbCircle
 10
86.441774
 20
161.77456
 30
0.0
 40
0.45
  0
HATCH
  5
63
100
AcDbEntity
  8
ASSEMBLY_OUTLINES_BTM
100
AcDbHatch
 10
0.0
 20
0.0
 30
0.0
210
0.0
220
0.0
230
1.0
  2
SOLID
 70
         1
 71
         1
 91
        1
 92
        1
 93
        1
 72
         2
 10
86.441773999999995
 20
161.77456000000001
 40
0.45
 50
0.0
 51
360.0
 73
         1
 97
        1
330
62
 75
         0
 76
         1
 98
        1
 10
0.0
 20
0.0
  0
CIRCLE
  5
64
100
AcDbEntity
  8
ASSEMBLY_OUTLINES_BTM
100
AcDbCircle
 10
88.981774
 20
161.77456
 30
0.0
 40
0.45
  0
HATCH
  5
65
100
AcDbEntity
  8
ASSEMBLY_OUTLINES_BTM
100
AcDbHatch
 10
0.0
 20
0.0
 30
0.0
210
0.0
220
0.0
230
1.0
  2
SOLID
 70
         1
 71
         1
 91
        1
 92
        1
 93
        1
 72
         2
 10
88.981774000000001
 20
161.77456000000001
 40
0.45
 50
0.0
 51
360.0
 73
         1
 97
        1
330
64
 75
         0
 76
         1
 98
        1
 10
0.0
 20
0.0
  0
CIRCLE
  5
66
100
AcDbEntity
  8
ASSEMBLY_OUTLINES_BTM
100
AcDbCircle
 10
40.72
 20
159.23
 30
0.0
 40
0.45
  0
HATCH
  5
67
100
AcDbEntity
  8
ASSEMBLY_OUTLINES_BTM
100
AcDbHatch
 10
0.0
 20
0.0
 30
0.0
210
0.0
220
0.0
230
1.0
  2
SOLID
 70
         1
 71
         1
 91
        1
 92
        1
 93
        1
 72
         2
 10
40.719999999999999
 20
159.22999999999999
 40
0.45
 50
0.0
 51
360.0
 73
         1
 97
        1
330
66
 75
         0
 76
         1
 98
        1
 10
0.0
 20
0.0
  0
CIRCLE
  5
68
100
AcDbEntity
  8
ASSEMBLY_OUTLINES_BTM
100
AcDbCircle
 10
43.26
 20
159.23
 30
0.0
 40
0.45
  0
HATCH
  5
69
100
AcDbEntity
  8
ASSEMBLY_OUTLINES_BTM
100
AcDbHatch
 10
0.0
 20
0.0
 30
0.0
210
0.0
220
0.0
230
1.0
  2
SOLID
 70
         1
 71
         1
 91
        1
 92
        1
 93
        1
 72
         2
 10
43.259999999999998
 20
159.22999999999999
 40
0.45
 50
0.0
 51
360.0
 73
         1
 97
        1
330
68
 75
         0
 76
         1
 98
        1
 10
0.0
 20
0.0
  0
CIRCLE
  5
6A
100
AcDbEntity
  8
ASSEMBLY_OUTLINES_BTM
100
AcDbCircle
 10
45.8
 20
159.23
 30
0.0
 40
0.45
  0
HATCH
  5
6B
100
AcDbEntity
  8
ASSEMBLY_OUTLINES_BTM
100
AcDbHatch
 10
0.0
 20
0.0
 30
0.0
210
0.0
220
0.0
230
1.0
  2
SOLID
 70
         1
 71
         1
 91
        1
 92
        1
 93
        1
 72
         2
 10
45.799999999999997
 20
159.22999999999999
 40
0.45
 50
0.0
 51
360.0
 73
         1
 97
        1
330
6A
 75
         0
 76
         1
 98
        1
 10
0.0
 20
0.0
  0
CIRCLE
  5
6C
100
AcDbEntity
  8
ASSEMBLY_OUTLINES_BTM
100
AcDbCircle
 10
48.34
 20
159.23
 30
0.0
 40
0.45
  0
HATCH
  5
6D
100
AcDbEntity
  8
ASSEMBLY_OUTLINES_BTM
100
AcDbHatch
 10
0.0
 20
0.0
 30
0.0
210
0.0
220
0.0
230
1.0
  2
SOLID
 70
         1
 71
         1
 91
        1
 92
        1
 93
        1
 72
         2
 10
48.340000000000003
 20
159.22999999999999
 40
0.45
 50
0.0
 51
360.0
 73
         1
 97
        1
330
6C
 75
         0
 76
         1
 98
        1
 10
0.0
 20
0.0
  0
CIRCLE
  5
6E
100
AcDbEntity
  8
ASSEMBLY_OUTLINES_BTM
100
AcDbCircle
 10
50.88
 20
159.23
 30
0.0
 40
0.45
  0
HATCH
  5
6F
100
AcDbEntity
  8
ASSEMBLY_OUTLINES_BTM
100
AcDbHatch
 10
0.0
 20
0.0
 30
0.0
210
0.0
220
0.0
230
1.0
  2
SOLID
 70
         1
 71
         1
 91
        1
 92
        1
 93
        1
 72
         2
 10
50.880000000000003
 20
159.22999999999999
 40
0.45
 50
0.0
 51
360.0
 73
         1
 97
        1
330
6E
 75
         0
 76
         1
 98
        1
 10
0.0
 20
0.0
  0
CIRCLE
  5
70
100
AcDbEntity
  8
ASSEMBLY_OUTLINES_BTM
100
AcDbCircle
 10
53.42
 20
159.23
 30
0.0
 40
0.45
  0
HATCH
  5
71
100
AcDbEntity
  8
ASSEMBLY_OUTLINES_BTM
100
AcDbHatch
 10
0.0
 20
0.0
 30
0.0
210
0.0
220
0.0
230
1.0
  2
SOLID
 70
         1
 71
         1
 91
        1
 92
        1
 93
        1
 72
         2
 10
53.420000000000002
 20
159.22999999999999
 40
0.45
 50
0.0
 51
360.0
 73
         1
 97
        1
330
70
 75
         0
 76
         1
 98
        1
 10
0.0
 20
0.0
  0
CIRCLE
  5
72
100
AcDbEntity
  8
ASSEMBLY_OUTLINES_BTM
100
AcDbCircle
 10
55.96
 20
159.23
 30
0.0
 40
0.45
  0
HATCH
  5
73
100
AcDbEntity
  8
ASSEMBLY_OUTLINES_BTM
100
AcDbHatch
 10
0.0
 20
0.0
 30
0.0
210
0.0
220
0.0
230
1.0
  2
SOLID
 70
         1
 71
         1
 91
        1
 92
        1
 93
        1
 72
         2
 10
55.960000000000001
 20
159.22999999999999
 40
0.45
 50
0.0
 51
360.0
 73
         1
 97
        1
330
72
 75
         0
 76
         1
 98
        1
 10
0.0
 20
0.0
  0
CIRCLE
  5
74
100
AcDbEntity
  8
ASSEMBLY_OUTLINES_BTM
100
AcDbCircle
 10
58.5
 20
159.23
 30
0.0
 40
0.45
  0
HATCH
  5
75
100
AcDbEntity
  8
ASSEMBLY_OUTLINES_BTM
100
AcDbHatch
 10
0.0
 20
0.0
 30
0.0
210
0.0
220
0.0
230
1.0
  2
SOLID
 70
         1
 71
         1
 91
        1
 92
        1
 93
        1
 72
         2
 10
58.5
 20
159.22999999999999
 40
0.45
 50
0.0
 51
360.0
 73
         1
 97
        1
330
74
 75
         0
 76
         1
 98
        1
 10
0.0
 20
0.0
  0
CIRCLE
  5
76
100
AcDbEntity
  8
ASSEMBLY_OUTLINES_BTM
100
AcDbCircle
 10
61.04
 20
159.23
 30
0.0
 40
0.45
  0
HATCH
  5
77
100
AcDbEntity
  8
ASSEMBLY_OUTLINES_BTM
100
AcDbHatch
 10
0.0
 20
0.0
 30
0.0
210
0.0
220
0.0
230
1.0
  2
SOLID
 70
         1
 71
         1
 91
        1
 92
        1
 93
        1
 72
         2
 10
61.039999999999999
 20
159.22999999999999
 40
0.45
 50
0.0
 51
360.0
 73
         1
 97
        1
330
76
 75
         0
 76
         1
 98
        1
 10
0.0
 20
0.0
  0
CIRCLE
  5
78
100
AcDbEntity
  8
ASSEMBLY_OUTLINES_BTM
100
AcDbCircle
 10
63.58
 20
159.23
 30
0.0
 40
0.45
  0
HATCH
  5
79
100
AcDbEntity
  8
ASSEMBLY_OUTLINES_BTM
100
AcDbHatch
 10
0.0
 20
0.0
 30
0.0
210
0.0
220
0.0
230
1.0
  2
SOLID
 70
         1
 71
         1
 91
        1
 92
        1
 93
        1
 72
         2
 10
63.579999999999998
 20
159.22999999999999
 40
0.45
 50
0.0
 51
360.0
 73
         1
 97
        1
330
78
 75
         0
 76
         1
 98
        1
 10
0.0
 20
0.0
  0
CIRCLE
  5
7A
100
AcDbEntity
  8
ASSEMBLY_OUTLINES_BTM
100
AcDbCircle
 10
66.123549
 20
159.22912
 30
0.0
 40
0.45
  0
HATCH
  5
7B
100
AcDbEntity
  8
ASSEMBLY_OUTLINES_BTM
100
AcDbHatch
 10
0.0
 20
0.0
 30
0.0
210
0.0
220
0.0
230
1.0
  2
SOLID
 70
         1
 71
         1
 91
        1
 92
        1
 93
        1
 72
         2
 10
66.123548999999997
 20
159.22911999999999
 40
0.45
 50
0.0
 51
360.0
 73
         1
 97
        1
330
7A
 75
         0
 76
         1
 98
        1
 10
0.0
 20
0.0
  0
CIRCLE
  5
7C
100
AcDbEntity
  8
ASSEMBLY_OUTLINES_BTM
100
AcDbCircle
 10
68.663549
 20
159.22912
 30
0.0
 40
0.45
  0
HATCH
  5
7D
100
AcDbEntity
  8
ASSEMBLY_OUTLINES_BTM
100
AcDbHatch
 10
0.0
 20
0.0
 30
0.0
210
0.0
220
0.0
230
1.0
  2
SOLID
 70
         1
 71
         1
 91
        1
 92
        1
 93
        1
 72
         2
 10
68.663549000000003
 20
159.22911999999999
 40
0.45
 50
0.0
 51
360.0
 73
         1
 97
        1
330
7C
 75
         0
 76
         1
 98
        1
 10
0.0
 20
0.0
  0
CIRCLE
  5
7E
100
AcDbEntity
  8
ASSEMBLY_OUTLINES_BTM
100
AcDbCircle
 10
71.203549
 20
159.22912
 30
0.0
 40
0.45
  0
HATCH
  5
7F
100
AcDbEntity
  8
ASSEMBLY_OUTLINES_BTM
100
AcDbHatch
 10
0.0
 20
0.0
 30
0.0
210
0.0
220
0.0
230
1.0
  2
SOLID
 70
         1
 71
         1
 91
        1
 92
        1
 93
        1
 72
         2
 10
71.203548999999995
 20
159.22911999999999
 40
0.45
 50
0.0
 51
360.0
 73
         1
 97
        1
330
7E
 75
         0
 76
         1
 98
        1
 10
0.0
 20
0.0
  0
CIRCLE
  5
80
100
AcDbEntity
  8
ASSEMBLY_OUTLINES_BTM
100
AcDbCircle
 10
73.743549
 20
159.22912
 30
0.0
 40
0.45
  0
HATCH
  5
81
100
AcDbEntity
  8
ASSEMBLY_OUTLINES_BTM
100
AcDbHatch
 10
0.0
 20
0.0
 30
0.0
210
0.0
220
0.0
230
1.0
  2
SOLID
 70
         1
 71
         1
 91
        1
 92
        1
 93
        1
 72
         2
 10
73.743549000000002
 20
159.22911999999999
 40
0.45
 50
0.0
 51
360.0
 73
         1
 97
        1
330
80
 75
         0
 76
         1
 98
        1
 10
0.0
 20
0.0
  0
CIRCLE
  5
82
100
AcDbEntity
  8
ASSEMBLY_OUTLINES_BTM
100
AcDbCircle
 10
76.283549
 20
159.22912
 30
0.0
 40
0.45
  0
HATCH
  5
83
100
AcDbEntity
  8
ASSEMBLY_OUTLINES_BTM
100
AcDbHatch
 10
0.0
 20
0.0
 30
0.0
210
0.0
220
0.0
230
1.0
  2
SOLID
 70
         1
 71
         1
 91
        1
 92
        1
 93
        1
 72
         2
 10
76.283548999999994
 20
159.22911999999999
 40
0.45
 50
0.0
 51
360.0
 73
         1
 97
        1
330
82
 75
         0
 76
         1
 98
        1
 10
0.0
 20
0.0
  0
CIRCLE
  5
84
100
AcDbEntity
  8
ASSEMBLY_OUTLINES_BTM
100
AcDbCircle
 10
78.823549
 20
159.22912
 30
0.0
 40
0.45
  0
HATCH
  5
85
100
AcDbEntity
  8
ASSEMBLY_OUTLINES_BTM
100
AcDbHatch
 10
0.0
 20
0.0
 30
0.0
210
0.0
220
0.0
230
1.0
  2
SOLID
 70
         1
 71
         1
 91
        1
 92
        1
 93
        1
 72
         2
 10
78.823549
 20
159.22911999999999
 40
0.45
 50
0.0
 51
360.0
 73
         1
 97
        1
330
84
 75
         0
 76
         1
 98
        1
 10
0.0
 20
0.0
  0
CIRCLE
  5
86
100
AcDbEntity
  8
ASSEMBLY_OUTLINES_BTM
100
AcDbCircle
 10
81.363549
 20
159.22912
 30
0.0
 40
0.45
  0
HATCH
  5
87
100
AcDbEntity
  8
ASSEMBLY_OUTLINES_BTM
100
AcDbHatch
 10
0.0
 20
0.0
 30
0.0
210
0.0
220
0.0
230
1.0
  2
SOLID
 70
         1
 71
         1
 91
        1
 92
        1
 93
        1
 72
         2
 10
81.363549000000006
 20
159.22911999999999
 40
0.45
 50
0.0
 51
360.0
 73
         1
 97
        1
330
86
 75
         0
 76
         1
 98
        1
 10
0.0
 20
0.0
  0
CIRCLE
  5
88
100
AcDbEntity
  8
ASSEMBLY_OUTLINES_BTM
100
AcDbCircle
 10
83.903549
 20
159.22912
 30
0.0
 40
0.45
  0
HATCH
  5
89
100
AcDbEntity
  8
ASSEMBLY_OUTLINES_BTM
100
AcDbHatch
 10
0.0
 20
0.0
 30
0.0
210
0.0
220
0.0
230
1.0
  2
SOLID
 70
         1
 71
         1
 91
        1
 92
        1
 93
        1
 72
         2
 10
83.903548999999998
 20
159.22911999999999
 40
0.45
 50
0.0
 51
360.0
 73
         1
 97
        1
330
88
 75
         0
 76
         1
 98
        1
 10
0.0
 20
0.0
  0
CIRCLE
  5
8A
100
AcDbEntity
  8
ASSEMBLY_OUTLINES_BTM
100
AcDbCircle
 10
86.443549
 20
159.22912
 30
0.0
 40
0.45
  0
HATCH
  5
8B
100
AcDbEntity
  8
ASSEMBLY_OUTLINES_BTM
100
AcDbHatch
 10
0.0
 20
0.0
 30
0.0
210
0.0
220
0.0
230
1.0
  2
SOLID
 70
         1
 71
         1
 91
        1
 92
        1
 93
        1
 72
         2
 10
86.443549000000004
 20
159.22911999999999
 40
0.45
 50
0.0
 51
360.0
 73
         1
 97
        1
330
8A
 75
         0
 76
         1
 98
        1
 10
0.0
 20
0.0
  0
CIRCLE
  5
8C
100
AcDbEntity
  8
ASSEMBLY_OUTLINES_BTM
100
AcDbCircle
 10
88.983549
 20
159.22912
 30
0.0
 40
0.45
  0
HATCH
  5
8D
100
AcDbEntity
  8
ASSEMBLY_OUTLINES_BTM
100
AcDbHatch
 10
0.0
 20
0.0
 30
0.0
210
0.0
220
0.0
230
1.0
  2
SOLID
 70
         1
 71
         1
 91
        1
 92
        1
 93
        1
 72
         2
 10
88.983548999999996
 20
159.22911999999999
 40
0.45
 50
0.0
 51
360.0
 73
         1
 97
        1
330
8C
 75
         0
 76
         1
 98
        1
 10
0.0
 20
0.0
  0
LWPOLYLINE
  5
8E
100
AcDbEntity
  8
ASSEMBLY_OUTLINES_BTM
100
AcDbPolyline
 90
        4
 70
         1
 10
39.45
 20
89.945
 10
39.45
 20
95.025
 10
90.25
 20
95.025
 10
90.25
 20
89.945
  0
CIRCLE
  5
8F
100
AcDbEntity
  8
ASSEMBLY_OUTLINES_BTM
100
AcDbCircle
 10
40.718225
 20
93.76544
 30
0.0
 40
0.45
  0
HATCH
  5
90
100
AcDbEntity
  8
ASSEMBLY_OUTLINES_BTM
100
AcDbHatch
 10
0.0
 20
0.0
 30
0.0
210
0.0
220
0.0
230
1.0
  2
SOLID
 70
         1
 71
         1
 91
        1
 92
        1
 93
        1
 72
         2
 10
40.718224999999997
 20
93.765439999999998
 40
0.45
 50
0.0
 51
360.0
 73
         1
 97
        1
330
8F
 75
         0
 76
         1
 98
        1
 10
0.0
 20
0.0
  0
CIRCLE
  5
91
100
AcDbEntity
  8
ASSEMBLY_OUTLINES_BTM
100
AcDbCircle
 10
43.258225
 20
93.76544
 30
0.0
 40
0.45
  0
HATCH
  5
92
100
AcDbEntity
  8
ASSEMBLY_OUTLINES_BTM
100
AcDbHatch
 10
0.0
 20
0.0
 30
0.0
210
0.0
220
0.0
230
1.0
  2
SOLID
 70
         1
 71
         1
 91
        1
 92
        1
 93
        1
 72
         2
 10
43.258225000000003
 20
93.765439999999998
 40
0.45
 50
0.0
 51
360.0
 73
         1
 97
        1
330
91
 75
         0
 76
         1
 98
        1
 10
0.0
 20
0.0
  0
CIRCLE
  5
93
100
AcDbEntity
  8
ASSEMBLY_OUTLINES_BTM
100
AcDbCircle
 10
45.798225
 20
93.76544
 30
0.0
 40
0.45
  0
HATCH
  5
94
100
AcDbEntity
  8
ASSEMBLY_OUTLINES_BTM
100
AcDbHatch
 10
0.0
 20
0.0
 30
0.0
210
0.0
220
0.0
230
1.0
  2
SOLID
 70
         1
 71
         1
 91
        1
 92
        1
 93
        1
 72
         2
 10
45.798225000000002
 20
93.765439999999998
 40
0.45
 50
0.0
 51
360.0
 73
         1
 97
        1
330
93
 75
         0
 76
         1
 98
        1
 10
0.0
 20
0.0
  0
CIRCLE
  5
95
100
AcDbEntity
  8
ASSEMBLY_OUTLINES_BTM
100
AcDbCircle
 10
48.338225
 20
93.76544
 30
0.0
 40
0.45
  0
HATCH
  5
96
100
AcDbEntity
  8
ASSEMBLY_OUTLINES_BTM
100
AcDbHatch
 10
0.0
 20
0.0
 30
0.0
210
0.0
220
0.0
230
1.0
  2
SOLID
 70
         1
 71
         1
 91
        1
 92
        1
 93
        1
 72
         2
 10
48.338225000000001
 20
93.765439999999998
 40
0.45
 50
0.0
 51
360.0
 73
         1
 97
        1
330
95
 75
         0
 76
         1
 98
        1
 10
0.0
 20
0.0
  0
CIRCLE
  5
97
100
AcDbEntity
  8
ASSEMBLY_OUTLINES_BTM
100
AcDbCircle
 10
50.878225
 20
93.76544
 30
0.0
 40
0.45
  0
HATCH
  5
98
100
AcDbEntity
  8
ASSEMBLY_OUTLINES_BTM
100
AcDbHatch
 10
0.0
 20
0.0
 30
0.0
210
0.0
220
0.0
230
1.0
  2
SOLID
 70
         1
 71
         1
 91
        1
 92
        1
 93
        1
 72
         2
 10
50.878225
 20
93.765439999999998
 40
0.45
 50
0.0
 51
360.0
 73
         1
 97
        1
330
97
 75
         0
 76
         1
 98
        1
 10
0.0
 20
0.0
  0
CIRCLE
  5
99
100
AcDbEntity
  8
ASSEMBLY_OUTLINES_BTM
100
AcDbCircle
 10
53.418225
 20
93.76544
 30
0.0
 40
0.45
  0
HATCH
  5
9A
100
AcDbEntity
  8
ASSEMBLY_OUTLINES_BTM
100
AcDbHatch
 10
0.0
 20
0.0
 30
0.0
210
0.0
220
0.0
230
1.0
  2
SOLID
 70
         1
 71
         1
 91
        1
 92
        1
 93
        1
 72
         2
 10
53.418225
 20
93.765439999999998
 40
0.45
 50
0.0
 51
360.0
 73
         1
 97
        1
330
99
 75
         0
 76
         1
 98
        1
 10
0.0
 20
0.0
  0
CIRCLE
  5
9B
100
AcDbEntity
  8
ASSEMBLY_OUTLINES_BTM
100
AcDbCircle
 10
55.958225
 20
93.76544
 30
0.0
 40
0.45
  0
HATCH
  5
9C
100
AcDbEntity
  8
ASSEMBLY_OUTLINES_BTM
100
AcDbHatch
 10
0.0
 20
0.0
 30
0.0
210
0.0
220
0.0
230
1.0
  2
SOLID
 70
         1
 71
         1
 91
        1
 92
        1
 93
        1
 72
         2
 10
55.958224999999999
 20
93.765439999999998
 40
0.45
 50
0.0
 51
360.0
 73
         1
 97
        1
330
9B
 75
         0
 76
         1
 98
        1
 10
0.0
 20
0.0
  0
CIRCLE
  5
9D
100
AcDbEntity
  8
ASSEMBLY_OUTLINES_BTM
100
AcDbCircle
 10
58.498225
 20
93.76544
 30
0.0
 40
0.45
  0
HATCH
  5
9E
100
AcDbEntity
  8
ASSEMBLY_OUTLINES_BTM
100
AcDbHatch
 10
0.0
 20
0.0
 30
0.0
210
0.0
220
0.0
230
1.0
  2
SOLID
 70
         1
 71
         1
 91
        1
 92
        1
 93
        1
 72
         2
 10
58.498224999999998
 20
93.765439999999998
 40
0.45
 50
0.0
 51
360.0
 73
         1
 97
        1
330
9D
 75
         0
 76
         1
 98
        1
 10
0.0
 20
0.0
  0
CIRCLE
  5
9F
100
AcDbEntity
  8
ASSEMBLY_OUTLINES_BTM
100
AcDbCircle
 10
61.038225
 20
93.76544
 30
0.0
 40
0.45
  0
HATCH
  5
A0
100
AcDbEntity
  8
ASSEMBLY_OUTLINES_BTM
100
AcDbHatch
 10
0.0
 20
0.0
 30
0.0
210
0.0
220
0.0
230
1.0
  2
SOLID
 70
         1
 71
         1
 91
        1
 92
        1
 93
        1
 72
         2
 10
61.038224999999997
 20
93.765439999999998
 40
0.45
 50
0.0
 51
360.0
 73
         1
 97
        1
330
9F
 75
         0
 76
         1
 98
        1
 10
0.0
 20
0.0
  0
CIRCLE
  5
A1
100
AcDbEntity
  8
ASSEMBLY_OUTLINES_BTM
100
AcDbCircle
 10
63.578225
 20
93.76544
 30
0.0
 40
0.45
  0
HATCH
  5
A2
100
AcDbEntity
  8
ASSEMBLY_OUTLINES_BTM
100
AcDbHatch
 10
0.0
 20
0.0
 30
0.0
210
0.0
220
0.0
230
1.0
  2
SOLID
 70
         1
 71
         1
 91
        1
 92
        1
 93
        1
 72
         2
 10
63.578225000000003
 20
93.765439999999998
 40
0.45
 50
0.0
 51
360.0
 73
         1
 97
        1
330
A1
 75
         0
 76
         1
 98
        1
 10
0.0
 20
0.0
  0
CIRCLE
  5
A3
100
AcDbEntity
  8
ASSEMBLY_OUTLINES_BTM
100
AcDbCircle
 10
66.121774
 20
93.77456
 30
0.0
 40
0.45
  0
HATCH
  5
A4
100
AcDbEntity
  8
ASSEMBLY_OUTLINES_BTM
100
AcDbHatch
 10
0.0
 20
0.0
 30
0.0
210
0.0
220
0.0
230
1.0
  2
SOLID
 70
         1
 71
         1
 91
        1
 92
        1
 93
        1
 72
         2
 10
66.121774000000002
 20
93.774559999999994
 40
0.45
 50
0.0
 51
360.0
 73
         1
 97
        1
330
A3
 75
         0
 76
         1
 98
        1
 10
0.0
 20
0.0
  0
CIRCLE
  5
A5
100
AcDbEntity
  8
ASSEMBLY_OUTLINES_BTM
100
AcDbCircle
 10
68.661774
 20
93.77456
 30
0.0
 40
0.45
  0
HATCH
  5
A6
100
AcDbEntity
  8
ASSEMBLY_OUTLINES_BTM
100
AcDbHatch
 10
0.0
 20
0.0
 30
0.0
210
0.0
220
0.0
230
1.0
  2
SOLID
 70
         1
 71
         1
 91
        1
 92
        1
 93
        1
 72
         2
 10
68.661773999999994
 20
93.774559999999994
 40
0.45
 50
0.0
 51
360.0
 73
         1
 97
        1
330
A5
 75
         0
 76
         1
 98
        1
 10
0.0
 20
0.0
  0
CIRCLE
  5
A7
100
AcDbEntity
  8
ASSEMBLY_OUTLINES_BTM
100
AcDbCircle
 10
71.201774
 20
93.77456
 30
0.0
 40
0.45
  0
HATCH
  5
A8
100
AcDbEntity
  8
ASSEMBLY_OUTLINES_BTM
100
AcDbHatch
 10
0.0
 20
0.0
 30
0.0
210
0.0
220
0.0
230
1.0
  2
SOLID
 70
         1
 71
         1
 91
        1
 92
        1
 93
        1
 72
         2
 10
71.201774
 20
93.774559999999994
 40
0.45
 50
0.0
 51
360.0
 73
         1
 97
        1
330
A7
 75
         0
 76
         1
 98
        1
 10
0.0
 20
0.0
  0
CIRCLE
  5
A9
100
AcDbEntity
  8
ASSEMBLY_OUTLINES_BTM
100
AcDbCircle
 10
73.741774
 20
93.77456
 30
0.0
 40
0.45
  0
HATCH
  5
AA
100
AcDbEntity
  8
ASSEMBLY_OUTLINES_BTM
100
AcDbHatch
 10
0.0
 20
0.0
 30
0.0
210
0.0
220
0.0
230
1.0
  2
SOLID
 70
         1
 71
         1
 91
        1
 92
        1
 93
        1
 72
         2
 10
73.741774000000007
 20
93.774559999999994
 40
0.45
 50
0.0
 51
360.0
 73
         1
 97
        1
330
A9
 75
         0
 76
         1
 98
        1
 10
0.0
 20
0.0
  0
CIRCLE
  5
AB
100
AcDbEntity
  8
ASSEMBLY_OUTLINES_BTM
100
AcDbCircle
 10
76.281774
 20
93.77456
 30
0.0
 40
0.45
  0
HATCH
  5
AC
100
AcDbEntity
  8
ASSEMBLY_OUTLINES_BTM
100
AcDbHatch
 10
0.0
 20
0.0
 30
0.0
210
0.0
220
0.0
230
1.0
  2
SOLID
 70
         1
 71
         1
 91
        1
 92
        1
 93
        1
 72
         2
 10
76.281773999999999
 20
93.774559999999994
 40
0.45
 50
0.0
 51
360.0
 73
         1
 97
        1
330
AB
 75
         0
 76
         1
 98
        1
 10
0.0
 20
0.0
  0
CIRCLE
  5
AD
100
AcDbEntity
  8
ASSEMBLY_OUTLINES_BTM
100
AcDbCircle
 10
78.821774
 20
93.77456
 30
0.0
 40
0.45
  0
HATCH
  5
AE
100
AcDbEntity
  8
ASSEMBLY_OUTLINES_BTM
100
AcDbHatch
 10
0.0
 20
0.0
 30
0.0
210
0.0
220
0.0
230
1.0
  2
SOLID
 70
         1
 71
         1
 91
        1
 92
        1
 93
        1
 72
         2
 10
78.821774000000005
 20
93.774559999999994
 40
0.45
 50
0.0
 51
360.0
 73
         1
 97
        1
330
AD
 75
         0
 76
         1
 98
        1
 10
0.0
 20
0.0
  0
CIRCLE
  5
AF
100
AcDbEntity
  8
ASSEMBLY_OUTLINES_BTM
100
AcDbCircle
 10
81.361774
 20
93.77456
 30
0.0
 40
0.45
  0
HATCH
  5
B0
100
AcDbEntity
  8
ASSEMBLY_OUTLINES_BTM
100
AcDbHatch
 10
0.0
 20
0.0
 30
0.0
210
0.0
220
0.0
230
1.0
  2
SOLID
 70
         1
 71
         1
 91
        1
 92
        1
 93
        1
 72
         2
 10
81.361773999999997
 20
93.774559999999994
 40
0.45
 50
0.0
 51
360.0
 73
         1
 97
        1
330
AF
 75
         0
 76
         1
 98
        1
 10
0.0
 20
0.0
  0
CIRCLE
  5
B1
100
AcDbEntity
  8
ASSEMBLY_OUTLINES_BTM
100
AcDbCircle
 10
83.901774
 20
93.77456
 30
0.0
 40
0.45
  0
HATCH
  5
B2
100
AcDbEntity
  8
ASSEMBLY_OUTLINES_BTM
100
AcDbHatch
 10
0.0
 20
0.0
 30
0.0
210
0.0
220
0.0
230
1.0
  2
SOLID
 70
         1
 71
         1
 91
        1
 92
        1
 93
        1
 72
         2
 10
83.901774000000003
 20
93.774559999999994
 40
0.45
 50
0.0
 51
360.0
 73
         1
 97
        1
330
B1
 75
         0
 76
         1
 98
        1
 10
0.0
 20
0.0
  0
CIRCLE
  5
B3
100
AcDbEntity
  8
ASSEMBLY_OUTLINES_BTM
100
AcDbCircle
 10
86.441774
 20
93.77456
 30
0.0
 40
0.45
  0
HATCH
  5
B4
100
AcDbEntity
  8
ASSEMBLY_OUTLINES_BTM
100
AcDbHatch
 10
0.0
 20
0.0
 30
0.0
210
0.0
220
0.0
230
1.0
  2
SOLID
 70
         1
 71
         1
 91
        1
 92
        1
 93
        1
 72
         2
 10
86.441773999999995
 20
93.774559999999994
 40
0.45
 50
0.0
 51
360.0
 73
         1
 97
        1
330
B3
 75
         0
 76
         1
 98
        1
 10
0.0
 20
0.0
  0
CIRCLE
  5
B5
100
AcDbEntity
  8
ASSEMBLY_OUTLINES_BTM
100
AcDbCircle
 10
88.981774
 20
93.77456
 30
0.0
 40
0.45
  0
HATCH
  5
B6
100
AcDbEntity
  8
ASSEMBLY_OUTLINES_BTM
100
AcDbHatch
 10
0.0
 20
0.0
 30
0.0
210
0.0
220
0.0
230
1.0
  2
SOLID
 70
         1
 71
         1
 91
        1
 92
        1
 93
        1
 72
         2
 10
88.981774000000001
 20
93.774559999999994
 40
0.45
 50
0.0
 51
360.0
 73
         1
 97
        1
330
B5
 75
         0
 76
         1
 98
        1
 10
0.0
 20
0.0
  0
CIRCLE
  5
B7
100
AcDbEntity
  8
ASSEMBLY_OUTLINES_BTM
100
AcDbCircle
 10
40.72
 20
91.23
 30
0.0
 40
0.45
  0
HATCH
  5
B8
100
AcDbEntity
  8
ASSEMBLY_OUTLINES_BTM
100
AcDbHatch
 10
0.0
 20
0.0
 30
0.0
210
0.0
220
0.0
230
1.0
  2
SOLID
 70
         1
 71
         1
 91
        1
 92
        1
 93
        1
 72
         2
 10
40.719999999999999
 20
91.230000000000004
 40
0.45
 50
0.0
 51
360.0
 73
         1
 97
        1
330
B7
 75
         0
 76
         1
 98
        1
 10
0.0
 20
0.0
  0
CIRCLE
  5
B9
100
AcDbEntity
  8
ASSEMBLY_OUTLINES_BTM
100
AcDbCircle
 10
43.26
 20
91.23
 30
0.0
 40
0.45
  0
HATCH
  5
BA
100
AcDbEntity
  8
ASSEMBLY_OUTLINES_BTM
100
AcDbHatch
 10
0.0
 20
0.0
 30
0.0
210
0.0
220
0.0
230
1.0
  2
SOLID
 70
         1
 71
         1
 91
        1
 92
        1
 93
        1
 72
         2
 10
43.259999999999998
 20
91.230000000000004
 40
0.45
 50
0.0
 51
360.0
 73
         1
 97
        1
330
B9
 75
         0
 76
         1
 98
        1
 10
0.0
 20
0.0
  0
CIRCLE
  5
BB
100
AcDbEntity
  8
ASSEMBLY_OUTLINES_BTM
100
AcDbCircle
 10
45.8
 20
91.23
 30
0.0
 40
0.45
  0
HATCH
  5
BC
100
AcDbEntity
  8
ASSEMBLY_OUTLINES_BTM
100
AcDbHatch
 10
0.0
 20
0.0
 30
0.0
210
0.0
220
0.0
230
1.0
  2
SOLID
 70
         1
 71
         1
 91
        1
 92
        1
 93
        1
 72
         2
 10
45.799999999999997
 20
91.230000000000004
 40
0.45
 50
0.0
 51
360.0
 73
         1
 97
        1
330
BB
 75
         0
 76
         1
 98
        1
 10
0.0
 20
0.0
  0
CIRCLE
  5
BD
100
AcDbEntity
  8
ASSEMBLY_OUTLINES_BTM
100
AcDbCircle
 10
48.34
 20
91.23
 30
0.0
 40
0.45
  0
HATCH
  5
BE
100
AcDbEntity
  8
ASSEMBLY_OUTLINES_BTM
100
AcDbHatch
 10
0.0
 20
0.0
 30
0.0
210
0.0
220
0.0
230
1.0
  2
SOLID
 70
         1
 71
         1
 91
        1
 92
        1
 93
        1
 72
         2
 10
48.340000000000003
 20
91.230000000000004
 40
0.45
 50
0.0
 51
360.0
 73
         1
 97
        1
330
BD
 75
         0
 76
         1
 98
        1
 10
0.0
 20
0.0
  0
CIRCLE
  5
BF
100
AcDbEntity
  8
ASSEMBLY_OUTLINES_BTM
100
AcDbCircle
 10
50.88
 20
91.23
 30
0.0
 40
0.45
  0
HATCH
  5
C0
100
AcDbEntity
  8
ASSEMBLY_OUTLINES_BTM
100
AcDbHatch
 10
0.0
 20
0.0
 30
0.0
210
0.0
220
0.0
230
1.0
  2
SOLID
 70
         1
 71
         1
 91
        1
 92
        1
 93
        1
 72
         2
 10
50.880000000000003
 20
91.230000000000004
 40
0.45
 50
0.0
 51
360.0
 73
         1
 97
        1
330
BF
 75
         0
 76
         1
 98
        1
 10
0.0
 20
0.0
  0
CIRCLE
  5
C1
100
AcDbEntity
  8
ASSEMBLY_OUTLINES_BTM
100
AcDbCircle
 10
53.42
 20
91.23
 30
0.0
 40
0.45
  0
HATCH
  5
C2
100
AcDbEntity
  8
ASSEMBLY_OUTLINES_BTM
100
AcDbHatch
 10
0.0
 20
0.0
 30
0.0
210
0.0
220
0.0
230
1.0
  2
SOLID
 70
         1
 71
         1
 91
        1
 92
        1
 93
        1
 72
         2
 10
53.420000000000002
 20
91.230000000000004
 40
0.45
 50
0.0
 51
360.0
 73
         1
 97
        1
330
C1
 75
         0
 76
         1
 98
        1
 10
0.0
 20
0.0
  0
CIRCLE
  5
C3
100
AcDbEntity
  8
ASSEMBLY_OUTLINES_BTM
100
AcDbCircle
 10
55.96
 20
91.23
 30
0.0
 40
0.45
  0
HATCH
  5
C4
100
AcDbEntity
  8
ASSEMBLY_OUTLINES_BTM
100
AcDbHatch
 10
0.0
 20
0.0
 30
0.0
210
0.0
220
0.0
230
1.0
  2
SOLID
 70
         1
 71
         1
 91
        1
 92
        1
 93
        1
 72
         2
 10
55.960000000000001
 20
91.230000000000004
 40
0.45
 50
0.0
 51
360.0
 73
         1
 97
        1
330
C3
 75
         0
 76
         1
 98
        1
 10
0.0
 20
0.0
  0
CIRCLE
  5
C5
100
AcDbEntity
  8
ASSEMBLY_OUTLINES_BTM
100
AcDbCircle
 10
58.5
 20
91.23
 30
0.0
 40
0.45
  0
HATCH
  5
C6
100
AcDbEntity
  8
ASSEMBLY_OUTLINES_BTM
100
AcDbHatch
 10
0.0
 20
0.0
 30
0.0
210
0.0
220
0.0
230
1.0
  2
SOLID
 70
         1
 71
         1
 91
        1
 92
        1
 93
        1
 72
         2
 10
58.5
 20
91.230000000000004
 40
0.45
 50
0.0
 51
360.0
 73
         1
 97
        1
330
C5
 75
         0
 76
         1
 98
        1
 10
0.0
 20
0.0
  0
CIRCLE
  5
C7
100
AcDbEntity
  8
ASSEMBLY_OUTLINES_BTM
100
AcDbCircle
 10
61.04
 20
91.23
 30
0.0
 40
0.45
  0
HATCH
  5
C8
100
AcDbEntity
  8
ASSEMBLY_OUTLINES_BTM
100
AcDbHatch
 10
0.0
 20
0.0
 30
0.0
210
0.0
220
0.0
230
1.0
  2
SOLID
 70
         1
 71
         1
 91
        1
 92
        1
 93
        1
 72
         2
 10
61.039999999999999
 20
91.230000000000004
 40
0.45
 50
0.0
 51
360.0
 73
         1
 97
        1
330
C7
 75
         0
 76
         1
 98
        1
 10
0.0
 20
0.0
  0
CIRCLE
  5
C9
100
AcDbEntity
  8
ASSEMBLY_OUTLINES_BTM
100
AcDbCircle
 10
63.58
 20
91.23
 30
0.0
 40
0.45
  0
HATCH
  5
CA
100
AcDbEntity
  8
ASSEMBLY_OUTLINES_BTM
100
AcDbHatch
 10
0.0
 20
0.0
 30
0.0
210
0.0
220
0.0
230
1.0
  2
SOLID
 70
         1
 71
         1
 91
        1
 92
        1
 93
        1
 72
         2
 10
63.579999999999998
 20
91.230000000000004
 40
0.45
 50
0.0
 51
360.0
 73
         1
 97
        1
330
C9
 75
         0
 76
         1
 98
        1
 10
0.0
 20
0.0
  0
CIRCLE
  5
CB
100
AcDbEntity
  8
ASSEMBLY_OUTLINES_BTM
100
AcDbCircle
 10
66.123549
 20
91.22912
 30
0.0
 40
0.45
  0
HATCH
  5
CC
100
AcDbEntity
  8
ASSEMBLY_OUTLINES_BTM
100
AcDbHatch
 10
0.0
 20
0.0
 30
0.0
210
0.0
220
0.0
230
1.0
  2
SOLID
 70
         1
 71
         1
 91
        1
 92
        1
 93
        1
 72
         2
 10
66.123548999999997
 20
91.229119999999995
 40
0.45
 50
0.0
 51
360.0
 73
         1
 97
        1
330
CB
 75
         0
 76
         1
 98
        1
 10
0.0
 20
0.0
  0
CIRCLE
  5
CD
100
AcDbEntity
  8
ASSEMBLY_OUTLINES_BTM
100
AcDbCircle
 10
68.663549
 20
91.22912
 30
0.0
 40
0.45
  0
HATCH
  5
CE
100
AcDbEntity
  8
ASSEMBLY_OUTLINES_BTM
100
AcDbHatch
 10
0.0
 20
0.0
 30
0.0
210
0.0
220
0.0
230
1.0
  2
SOLID
 70
         1
 71
         1
 91
        1
 92
        1
 93
        1
 72
         2
 10
68.663549000000003
 20
91.229119999999995
 40
0.45
 50
0.0
 51
360.0
 73
         1
 97
        1
330
CD
 75
         0
 76
         1
 98
        1
 10
0.0
 20
0.0
  0
CIRCLE
  5
CF
100
AcDbEntity
  8
ASSEMBLY_OUTLINES_BTM
100
AcDbCircle
 10
71.203549
 20
91.22912
 30
0.0
 40
0.45
  0
HATCH
  5
D0
100
AcDbEntity
  8
ASSEMBLY_OUTLINES_BTM
100
AcDbHatch
 10
0.0
 20
0.0
 30
0.0
210
0.0
220
0.0
230
1.0
  2
SOLID
 70
         1
 71
         1
 91
        1
 92
        1
 93
        1
 72
         2
 10
71.203548999999995
 20
91.229119999999995
 40
0.45
 50
0.0
 51
360.0
 73
         1
 97
        1
330
CF
 75
         0
 76
         1
 98
        1
 10
0.0
 20
0.0
  0
CIRCLE
  5
D1
100
AcDbEntity
  8
ASSEMBLY_OUTLINES_BTM
100
AcDbCircle
 10
73.743549
 20
91.22912
 30
0.0
 40
0.45
  0
HATCH
  5
D2
100
AcDbEntity
  8
ASSEMBLY_OUTLINES_BTM
100
AcDbHatch
 10
0.0
 20
0.0
 30
0.0
210
0.0
220
0.0
230
1.0
  2
SOLID
 70
         1
 71
         1
 91
        1
 92
        1
 93
        1
 72
         2
 10
73.743549000000002
 20
91.229119999999995
 40
0.45
 50
0.0
 51
360.0
 73
         1
 97
        1
330
D1
 75
         0
 76
         1
 98
        1
 10
0.0
 20
0.0
  0
CIRCLE
  5
D3
100
AcDbEntity
  8
ASSEMBLY_OUTLINES_BTM
100
AcDbCircle
 10
76.283549
 20
91.22912
 30
0.0
 40
0.45
  0
HATCH
  5
D4
100
AcDbEntity
  8
ASSEMBLY_OUTLINES_BTM
100
AcDbHatch
 10
0.0
 20
0.0
 30
0.0
210
0.0
220
0.0
230
1.0
  2
SOLID
 70
         1
 71
         1
 91
        1
 92
        1
 93
        1
 72
         2
 10
76.283548999999994
 20
91.229119999999995
 40
0.45
 50
0.0
 51
360.0
 73
         1
 97
        1
330
D3
 75
         0
 76
         1
 98
        1
 10
0.0
 20
0.0
  0
CIRCLE
  5
D5
100
AcDbEntity
  8
ASSEMBLY_OUTLINES_BTM
100
AcDbCircle
 10
78.823549
 20
91.22912
 30
0.0
 40
0.45
  0
HATCH
  5
D6
100
AcDbEntity
  8
ASSEMBLY_OUTLINES_BTM
100
AcDbHatch
 10
0.0
 20
0.0
 30
0.0
210
0.0
220
0.0
230
1.0
  2
SOLID
 70
         1
 71
         1
 91
        1
 92
        1
 93
        1
 72
         2
 10
78.823549
 20
91.229119999999995
 40
0.45
 50
0.0
 51
360.0
 73
         1
 97
        1
330
D5
 75
         0
 76
         1
 98
        1
 10
0.0
 20
0.0
  0
CIRCLE
  5
D7
100
AcDbEntity
  8
ASSEMBLY_OUTLINES_BTM
100
AcDbCircle
 10
81.363549
 20
91.22912
 30
0.0
 40
0.45
  0
HATCH
  5
D8
100
AcDbEntity
  8
ASSEMBLY_OUTLINES_BTM
100
AcDbHatch
 10
0.0
 20
0.0
 30
0.0
210
0.0
220
0.0
230
1.0
  2
SOLID
 70
         1
 71
         1
 91
        1
 92
        1
 93
        1
 72
         2
 10
81.363549000000006
 20
91.229119999999995
 40
0.45
 50
0.0
 51
360.0
 73
         1
 97
        1
330
D7
 75
         0
 76
         1
 98
        1
 10
0.0
 20
0.0
  0
CIRCLE
  5
D9
100
AcDbEntity
  8
ASSEMBLY_OUTLINES_BTM
100
AcDbCircle
 10
83.903549
 20
91.22912
 30
0.0
 40
0.45
  0
HATCH
  5
DA
100
AcDbEntity
  8
ASSEMBLY_OUTLINES_BTM
100
AcDbHatch
 10
0.0
 20
0.0
 30
0.0
210
0.0
220
0.0
230
1.0
  2
SOLID
 70
         1
 71
         1
 91
        1
 92
        1
 93
        1
 72
         2
 10
83.903548999999998
 20
91.229119999999995
 40
0.45
 50
0.0
 51
360.0
 73
         1
 97
        1
330
D9
 75
         0
 76
         1
 98
        1
 10
0.0
 20
0.0
  0
CIRCLE
  5
DB
100
AcDbEntity
  8
ASSEMBLY_OUTLINES_BTM
100
AcDbCircle
 10
86.443549
 20
91.22912
 30
0.0
 40
0.45
  0
HATCH
  5
DC
100
AcDbEntity
  8
ASSEMBLY_OUTLINES_BTM
100
AcDbHatch
 10
0.0
 20
0.0
 30
0.0
210
0.0
220
0.0
230
1.0
  2
SOLID
 70
         1
 71
         1
 91
        1
 92
        1
 93
        1
 72
         2
 10
86.443549000000004
 20
91.229119999999995
 40
0.45
 50
0.0
 51
360.0
 73
         1
 97
        1
330
DB
 75
         0
 76
         1
 98
        1
 10
0.0
 20
0.0
  0
CIRCLE
  5
DD
100
AcDbEntity
  8
ASSEMBLY_OUTLINES_BTM
100
AcDbCircle
 10
88.983549
 20
91.22912
 30
0.0
 40
0.45
  0
HATCH
  5
DE
100
AcDbEntity
  8
ASSEMBLY_OUTLINES_BTM
100
AcDbHatch
 10
0.0
 20
0.0
 30
0.0
210
0.0
220
0.0
230
1.0
  2
SOLID
 70
         1
 71
         1
 91
        1
 92
        1
 93
        1
 72
         2
 10
88.983548999999996
 20
91.229119999999995
 40
0.45
 50
0.0
 51
360.0
 73
         1
 97
        1
330
DD
 75
         0
 76
         1
 98
        1
 10
0.0
 20
0.0
  0
LWPOLYLINE
  5
DF
100
AcDbEntity
  8
ASSEMBLY_OUTLINES_BTM
100
AcDbPolyline
 90
        4
 70
         1
 43
0.1
 10
69.8
 20
121.2
 10
69.8
 20
122.0
 10
71.5
 20
122.0
 10
71.5
 20
121.2
  0
LWPOLYLINE
  5
E0
100
AcDbEntity
  8
ASSEMBLY_OUTLINES_BTM
100
AcDbPolyline
 90
        4
 70
         1
 43
0.1
 10
74.55
 20
142.95
 10
74.55
 20
145.75
 10
75.85
 20
145.75
 10
75.85
 20
142.95
  0
LWPOLYLINE
  5
E1
100
AcDbEntity
  8
ASSEMBLY_OUTLINES_BTM
100
AcDbPolyline
 90
        4
 70
         1
 43
0.1
 10
61.55
 20
118.8
 10
61.55
 20
119.6
 10
63.25
 20
119.6
 10
63.25
 20
118.8
  0
LWPOLYLINE
  5
E2
100
AcDbEntity
  8
ASSEMBLY_OUTLINES_BTM
100
AcDbPolyline
 90
        4
 70
         1
 43
0.1
 10
65.6
 20
126.85
 10
65.6
 20
127.65
 10
67.3
 20
127.65
 10
67.3
 20
126.85
  0
LWPOLYLINE
  5
E3
100
AcDbEntity
  8
ASSEMBLY_OUTLINES_BTM
100
AcDbPolyline
 90
        4
 70
         1
 43
0.1
 10
67.6
 20
141.95
 10
67.6
 20
143.25
 10
70.4
 20
143.25
 10
70.4
 20
141.95
  0
LWPOLYLINE
  5
E4
100
AcDbEntity
  8
ASSEMBLY_OUTLINES_BTM
100
AcDbPolyline
 90
        4
 70
         1
 43
0.1
 10
76.85
 20
143.1
 10
76.85
 20
145.9
 10
78.15
 20
145.9
 10
78.15
 20
143.1
  0
LWPOLYLINE
  5
E5
100
AcDbEntity
  8
ASSEMBLY_OUTLINES_BTM
100
AcDbPolyline
 90
        4
 70
         1
 43
0.1
 10
82.7
 20
148.05
 10
82.7
 20
150.85
 10
84.0
 20
150.85
 10
84.0
 20
148.05
  0
LWPOLYLINE
  5
E6
100
AcDbEntity
  8
ASSEMBLY_OUTLINES_BTM
100
AcDbPolyline
 90
        4
 70
         1
 43
0.1
 10
80.95
 20
146.15
 10
80.95
 20
148.95
 10
82.25
 20
148.95
 10
82.25
 20
146.15
  0
LWPOLYLINE
  5
E7
100
AcDbEntity
  8
ASSEMBLY_OUTLINES_BTM
100
AcDbPolyline
 90
        4
 70
         1
 43
0.1
 10
62.95
 20
152.05
 10
62.95
 20
154.85
 10
64.25
 20
154.85
 10
64.25
 20
152.05
  0
LWPOLYLINE
  5
E8
100
AcDbEntity
  8
ASSEMBLY_OUTLINES_BTM
100
AcDbPolyline
 90
        4
 70
         1
 43
0.1
 10
63.3
 20
118.8
 10
63.3
 20
119.6
 10
65.0
 20
119.6
 10
65.0
 20
118.8
  0
LWPOLYLINE
  5
E9
100
AcDbEntity
  8
ASSEMBLY_OUTLINES_BTM
100
AcDbPolyline
 90
        4
 70
         1
 10
38.295
 20
98.3
 10
38.295
 20
149.1
 10
43.375
 20
149.1
 10
43.375
 20
98.3
  0
CIRCLE
  5
EA
100
AcDbEntity
  8
ASSEMBLY_OUTLINES_BTM
100
AcDbCircle
 10
42.11544
 20
147.831775
 30
0.0
 40
0.45
  0
HATCH
  5
EB
100
AcDbEntity
  8
ASSEMBLY_OUTLINES_BTM
100
AcDbHatch
 10
0.0
 20
0.0
 30
0.0
210
0.0
220
0.0
230
1.0
  2
SOLID
 70
         1
 71
         1
 91
        1
 92
        1
 93
        1
 72
         2
 10
42.11544
 20
147.83177499999999
 40
0.45
 50
0.0
 51
360.0
 73
         1
 97
        1
330
EA
 75
         0
 76
         1
 98
        1
 10
0.0
 20
0.0
  0
CIRCLE
  5
EC
100
AcDbEntity
  8
ASSEMBLY_OUTLINES_BTM
100
AcDbCircle
 10
42.11544
 20
145.291775
 30
0.0
 40
0.45
  0
HATCH
  5
ED
100
AcDbEntity
  8
ASSEMBLY_OUTLINES_BTM
100
AcDbHatch
 10
0.0
 20
0.0
 30
0.0
210
0.0
220
0.0
230
1.0
  2
SOLID
 70
         1
 71
         1
 91
        1
 92
        1
 93
        1
 72
         2
 10
42.11544
 20
145.291775
 40
0.45
 50
0.0
 51
360.0
 73
         1
 97
        1
330
EC
 75
         0
 76
         1
 98
        1
 10
0.0
 20
0.0
  0
CIRCLE
  5
EE
100
AcDbEntity
  8
ASSEMBLY_OUTLINES_BTM
100
AcDbCircle
 10
42.11544
 20
142.751775
 30
0.0
 40
0.45
  0
HATCH
  5
EF
100
AcDbEntity
  8
ASSEMBLY_OUTLINES_BTM
100
AcDbHatch
 10
0.0
 20
0.0
 30
0.0
210
0.0
220
0.0
230
1.0
  2
SOLID
 70
         1
 71
         1
 91
        1
 92
        1
 93
        1
 72
         2
 10
42.11544
 20
142.75177500000001
 40
0.45
 50
0.0
 51
360.0
 73
         1
 97
        1
330
EE
 75
         0
 76
         1
 98
        1
 10
0.0
 20
0.0
  0
CIRCLE
  5
F0
100
AcDbEntity
  8
ASSEMBLY_OUTLINES_BTM
100
AcDbCircle
 10
42.11544
 20
140.211775
 30
0.0
 40
0.45
  0
HATCH
  5
F1
100
AcDbEntity
  8
ASSEMBLY_OUTLINES_BTM
100
AcDbHatch
 10
0.0
 20
0.0
 30
0.0
210
0.0
220
0.0
230
1.0
  2
SOLID
 70
         1
 71
         1
 91
        1
 92
        1
 93
        1
 72
         2
 10
42.11544
 20
140.21177499999999
 40
0.45
 50
0.0
 51
360.0
 73
         1
 97
        1
330
F0
 75
         0
 76
         1
 98
        1
 10
0.0
 20
0.0
  0
CIRCLE
  5
F2
100
AcDbEntity
  8
ASSEMBLY_OUTLINES_BTM
100
AcDbCircle
 10
42.11544
 20
137.671775
 30
0.0
 40
0.45
  0
HATCH
  5
F3
100
AcDbEntity
  8
ASSEMBLY_OUTLINES_BTM
100
AcDbHatch
 10
0.0
 20
0.0
 30
0.0
210
0.0
220
0.0
230
1.0
  2
SOLID
 70
         1
 71
         1
 91
        1
 92
        1
 93
        1
 72
         2
 10
42.11544
 20
137.671775
 40
0.45
 50
0.0
 51
360.0
 73
         1
 97
        1
330
F2
 75
         0
 76
         1
 98
        1
 10
0.0
 20
0.0
  0
CIRCLE
  5
F4
100
AcDbEntity
  8
ASSEMBLY_OUTLINES_BTM
100
AcDbCircle
 10
42.11544
 20
135.131775
 30
0.0
 40
0.45
  0
HATCH
  5
F5
100
AcDbEntity
  8
ASSEMBLY_OUTLINES_BTM
100
AcDbHatch
 10
0.0
 20
0.0
 30
0.0
210
0.0
220
0.0
230
1.0
  2
SOLID
 70
         1
 71
         1
 91
        1
 92
        1
 93
        1
 72
         2
 10
42.11544
 20
135.131775
 40
0.45
 50
0.0
 51
360.0
 73
         1
 97
        1
330
F4
 75
         0
 76
         1
 98
        1
 10
0.0
 20
0.0
  0
CIRCLE
  5
F6
100
AcDbEntity
  8
ASSEMBLY_OUTLINES_BTM
100
AcDbCircle
 10
42.11544
 20
132.591775
 30
0.0
 40
0.45
  0
HATCH
  5
F7
100
AcDbEntity
  8
ASSEMBLY_OUTLINES_BTM
100
AcDbHatch
 10
0.0
 20
0.0
 30
0.0
210
0.0
220
0.0
230
1.0
  2
SOLID
 70
         1
 71
         1
 91
        1
 92
        1
 93
        1
 72
         2
 10
42.11544
 20
132.59177500000001
 40
0.45
 50
0.0
 51
360.0
 73
         1
 97
        1
330
F6
 75
         0
 76
         1
 98
        1
 10
0.0
 20
0.0
  0
CIRCLE
  5
F8
100
AcDbEntity
  8
ASSEMBLY_OUTLINES_BTM
100
AcDbCircle
 10
42.11544
 20
130.051775
 30
0.0
 40
0.45
  0
HATCH
  5
F9
100
AcDbEntity
  8
ASSEMBLY_OUTLINES_BTM
100
AcDbHatch
 10
0.0
 20
0.0
 30
0.0
210
0.0
220
0.0
230
1.0
  2
SOLID
 70
         1
 71
         1
 91
        1
 92
        1
 93
        1
 72
         2
 10
42.11544
 20
130.05177499999999
 40
0.45
 50
0.0
 51
360.0
 73
         1
 97
        1
330
F8
 75
         0
 76
         1
 98
        1
 10
0.0
 20
0.0
  0
CIRCLE
  5
FA
100
AcDbEntity
  8
ASSEMBLY_OUTLINES_BTM
100
AcDbCircle
 10
42.11544
 20
127.511775
 30
0.0
 40
0.45
  0
HATCH
  5
FB
100
AcDbEntity
  8
ASSEMBLY_OUTLINES_BTM
100
AcDbHatch
 10
0.0
 20
0.0
 30
0.0
210
0.0
220
0.0
230
1.0
  2
SOLID
 70
         1
 71
         1
 91
        1
 92
        1
 93
        1
 72
         2
 10
42.11544
 20
127.511775
 40
0.45
 50
0.0
 51
360.0
 73
         1
 97
        1
330
FA
 75
         0
 76
         1
 98
        1
 10
0.0
 20
0.0
  0
CIRCLE
  5
FC
100
AcDbEntity
  8
ASSEMBLY_OUTLINES_BTM
100
AcDbCircle
 10
42.11544
 20
124.971775
 30
0.0
 40
0.45
  0
HATCH
  5
FD
100
AcDbEntity
  8
ASSEMBLY_OUTLINES_BTM
100
AcDbHatch
 10
0.0
 20
0.0
 30
0.0
210
0.0
220
0.0
230
1.0
  2
SOLID
 70
         1
 71
         1
 91
        1
 92
        1
 93
        1
 72
         2
 10
42.11544
 20
124.97177499999999
 40
0.45
 50
0.0
 51
360.0
 73
         1
 97
        1
330
FC
 75
         0
 76
         1
 98
        1
 10
0.0
 20
0.0
  0
CIRCLE
  5
FE
100
AcDbEntity
  8
ASSEMBLY_OUTLINES_BTM
100
AcDbCircle
 10
42.12456
 20
122.428226
 30
0.0
 40
0.45
  0
HATCH
  5
FF
100
AcDbEntity
  8
ASSEMBLY_OUTLINES_BTM
100
AcDbHatch
 10
0.0
 20
0.0
 30
0.0
210
0.0
220
0.0
230
1.0
  2
SOLID
 70
         1
 71
         1
 91
        1
 92
        1
 93
        1
 72
         2
 10
42.124560000000002
 20
122.428226
 40
0.45
 50
0.0
 51
360.0
 73
         1
 97
        1
330
FE
 75
         0
 76
         1
 98
        1
 10
0.0
 20
0.0
  0
CIRCLE
  5
100
100
AcDbEntity
  8
ASSEMBLY_OUTLINES_BTM
100
AcDbCircle
 10
42.12456
 20
119.888226
 30
0.0
 40
0.45
  0
HATCH
  5
101
100
AcDbEntity
  8
ASSEMBLY_OUTLINES_BTM
100
AcDbHatch
 10
0.0
 20
0.0
 30
0.0
210
0.0
220
0.0
230
1.0
  2
SOLID
 70
         1
 71
         1
 91
        1
 92
        1
 93
        1
 72
         2
 10
42.124560000000002
 20
119.888226
 40
0.45
 50
0.0
 51
360.0
 73
         1
 97
        1
330
100
 75
         0
 76
         1
 98
        1
 10
0.0
 20
0.0
  0
CIRCLE
  5
102
100
AcDbEntity
  8
ASSEMBLY_OUTLINES_BTM
100
AcDbCircle
 10
42.12456
 20
117.348226
 30
0.0
 40
0.45
  0
HATCH
  5
103
100
AcDbEntity
  8
ASSEMBLY_OUTLINES_BTM
100
AcDbHatch
 10
0.0
 20
0.0
 30
0.0
210
0.0
220
0.0
230
1.0
  2
SOLID
 70
         1
 71
         1
 91
        1
 92
        1
 93
        1
 72
         2
 10
42.124560000000002
 20
117.348226
 40
0.45
 50
0.0
 51
360.0
 73
         1
 97
        1
330
102
 75
         0
 76
         1
 98
        1
 10
0.0
 20
0.0
  0
CIRCLE
  5
104
100
AcDbEntity
  8
ASSEMBLY_OUTLINES_BTM
100
AcDbCircle
 10
42.12456
 20
114.808226
 30
0.0
 40
0.45
  0
HATCH
  5
105
100
AcDbEntity
  8
ASSEMBLY_OUTLINES_BTM
100
AcDbHatch
 10
0.0
 20
0.0
 30
0.0
210
0.0
220
0.0
230
1.0
  2
SOLID
 70
         1
 71
         1
 91
        1
 92
        1
 93
        1
 72
         2
 10
42.124560000000002
 20
114.808226
 40
0.45
 50
0.0
 51
360.0
 73
         1
 97
        1
330
104
 75
         0
 76
         1
 98
        1
 10
0.0
 20
0.0
  0
CIRCLE
  5
106
100
AcDbEntity
  8
ASSEMBLY_OUTLINES_BTM
100
AcDbCircle
 10
42.12456
 20
112.268226
 30
0.0
 40
0.45
  0
HATCH
  5
107
100
AcDbEntity
  8
ASSEMBLY_OUTLINES_BTM
100
AcDbHatch
 10
0.0
 20
0.0
 30
0.0
210
0.0
220
0.0
230
1.0
  2
SOLID
 70
         1
 71
         1
 91
        1
 92
        1
 93
        1
 72
         2
 10
42.124560000000002
 20
112.268226
 40
0.45
 50
0.0
 51
360.0
 73
         1
 97
        1
330
106
 75
         0
 76
         1
 98
        1
 10
0.0
 20
0.0
  0
CIRCLE
  5
108
100
AcDbEntity
  8
ASSEMBLY_OUTLINES_BTM
100
AcDbCircle
 10
42.12456
 20
109.728226
 30
0.0
 40
0.45
  0
HATCH
  5
109
100
AcDbEntity
  8
ASSEMBLY_OUTLINES_BTM
100
AcDbHatch
 10
0.0
 20
0.0
 30
0.0
210
0.0
220
0.0
230
1.0
  2
SOLID
 70
         1
 71
         1
 91
        1
 92
        1
 93
        1
 72
         2
 10
42.124560000000002
 20
109.72822600000001
 40
0.45
 50
0.0
 51
360.0
 73
         1
 97
        1
330
108
 75
         0
 76
         1
 98
        1
 10
0.0
 20
0.0
  0
CIRCLE
  5
10A
100
AcDbEntity
  8
ASSEMBLY_OUTLINES_BTM
100
AcDbCircle
 10
42.12456
 20
107.188226
 30
0.0
 40
0.45
  0
HATCH
  5
10B
100
AcDbEntity
  8
ASSEMBLY_OUTLINES_BTM
100
AcDbHatch
 10
0.0
 20
0.0
 30
0.0
210
0.0
220
0.0
230
1.0
  2
SOLID
 70
         1
 71
         1
 91
        1
 92
        1
 93
        1
 72
         2
 10
42.124560000000002
 20
107.188226
 40
0.45
 50
0.0
 51
360.0
 73
         1
 97
        1
330
10A
 75
         0
 76
         1
 98
        1
 10
0.0
 20
0.0
  0
CIRCLE
  5
10C
100
AcDbEntity
  8
ASSEMBLY_OUTLINES_BTM
100
AcDbCircle
 10
42.12456
 20
104.648226
 30
0.0
 40
0.45
  0
HATCH
  5
10D
100
AcDbEntity
  8
ASSEMBLY_OUTLINES_BTM
100
AcDbHatch
 10
0.0
 20
0.0
 30
0.0
210
0.0
220
0.0
230
1.0
  2
SOLID
 70
         1
 71
         1
 91
        1
 92
        1
 93
        1
 72
         2
 10
42.124560000000002
 20
104.64822599999999
 40
0.45
 50
0.0
 51
360.0
 73
         1
 97
        1
330
10C
 75
         0
 76
         1
 98
        1
 10
0.0
 20
0.0
  0
CIRCLE
  5
10E
100
AcDbEntity
  8
ASSEMBLY_OUTLINES_BTM
100
AcDbCircle
 10
42.12456
 20
102.108226
 30
0.0
 40
0.45
  0
HATCH
  5
10F
100
AcDbEntity
  8
ASSEMBLY_OUTLINES_BTM
100
AcDbHatch
 10
0.0
 20
0.0
 30
0.0
210
0.0
220
0.0
230
1.0
  2
SOLID
 70
         1
 71
         1
 91
        1
 92
        1
 93
        1
 72
         2
 10
42.124560000000002
 20
102.108226
 40
0.45
 50
0.0
 51
360.0
 73
         1
 97
        1
330
10E
 75
         0
 76
         1
 98
        1
 10
0.0
 20
0.0
  0
CIRCLE
  5
110
100
AcDbEntity
  8
ASSEMBLY_OUTLINES_BTM
100
AcDbCircle
 10
42.12456
 20
99.568226
 30
0.0
 40
0.45
  0
HATCH
  5
111
100
AcDbEntity
  8
ASSEMBLY_OUTLINES_BTM
100
AcDbHatch
 10
0.0
 20
0.0
 30
0.0
210
0.0
220
0.0
230
1.0
  2
SOLID
 70
         1
 71
         1
 91
        1
 92
        1
 93
        1
 72
         2
 10
42.124560000000002
 20
99.568225999999996
 40
0.45
 50
0.0
 51
360.0
 73
         1
 97
        1
330
110
 75
         0
 76
         1
 98
        1
 10
0.0
 20
0.0
  0
CIRCLE
  5
112
100
AcDbEntity
  8
ASSEMBLY_OUTLINES_BTM
100
AcDbCircle
 10
39.58
 20
147.83
 30
0.0
 40
0.45
  0
HATCH
  5
113
100
AcDbEntity
  8
ASSEMBLY_OUTLINES_BTM
100
AcDbHatch
 10
0.0
 20
0.0
 30
0.0
210
0.0
220
0.0
230
1.0
  2
SOLID
 70
         1
 71
         1
 91
        1
 92
        1
 93
        1
 72
         2
 10
39.579999999999998
 20
147.83000000000001
 40
0.45
 50
0.0
 51
360.0
 73
         1
 97
        1
330
112
 75
         0
 76
         1
 98
        1
 10
0.0
 20
0.0
  0
CIRCLE
  5
114
100
AcDbEntity
  8
ASSEMBLY_OUTLINES_BTM
100
AcDbCircle
 10
39.58
 20
145.29
 30
0.0
 40
0.45
  0
HATCH
  5
115
100
AcDbEntity
  8
ASSEMBLY_OUTLINES_BTM
100
AcDbHatch
 10
0.0
 20
0.0
 30
0.0
210
0.0
220
0.0
230
1.0
  2
SOLID
 70
         1
 71
         1
 91
        1
 92
        1
 93
        1
 72
         2
 10
39.579999999999998
 20
145.28999999999999
 40
0.45
 50
0.0
 51
360.0
 73
         1
 97
        1
330
114
 75
         0
 76
         1
 98
        1
 10
0.0
 20
0.0
  0
CIRCLE
  5
116
100
AcDbEntity
  8
ASSEMBLY_OUTLINES_BTM
100
AcDbCircle
 10
39.58
 20
142.75
 30
0.0
 40
0.45
  0
HATCH
  5
117
100
AcDbEntity
  8
ASSEMBLY_OUTLINES_BTM
100
AcDbHatch
 10
0.0
 20
0.0
 30
0.0
210
0.0
220
0.0
230
1.0
  2
SOLID
 70
         1
 71
         1
 91
        1
 92
        1
 93
        1
 72
         2
 10
39.579999999999998
 20
142.75
 40
0.45
 50
0.0
 51
360.0
 73
         1
 97
        1
330
116
 75
         0
 76
         1
 98
        1
 10
0.0
 20
0.0
  0
CIRCLE
  5
118
100
AcDbEntity
  8
ASSEMBLY_OUTLINES_BTM
100
AcDbCircle
 10
39.58
 20
140.21
 30
0.0
 40
0.45
  0
HATCH
  5
119
100
AcDbEntity
  8
ASSEMBLY_OUTLINES_BTM
100
AcDbHatch
 10
0.0
 20
0.0
 30
0.0
210
0.0
220
0.0
230
1.0
  2
SOLID
 70
         1
 71
         1
 91
        1
 92
        1
 93
        1
 72
         2
 10
39.579999999999998
 20
140.21000000000001
 40
0.45
 50
0.0
 51
360.0
 73
         1
 97
        1
330
118
 75
         0
 76
         1
 98
        1
 10
0.0
 20
0.0
  0
CIRCLE
  5
11A
100
AcDbEntity
  8
ASSEMBLY_OUTLINES_BTM
100
AcDbCircle
 10
39.58
 20
137.67
 30
0.0
 40
0.45
  0
HATCH
  5
11B
100
AcDbEntity
  8
ASSEMBLY_OUTLINES_BTM
100
AcDbHatch
 10
0.0
 20
0.0
 30
0.0
210
0.0
220
0.0
230
1.0
  2
SOLID
 70
         1
 71
         1
 91
        1
 92
        1
 93
        1
 72
         2
 10
39.579999999999998
 20
137.66999999999999
 40
0.45
 50
0.0
 51
360.0
 73
         1
 97
        1
330
11A
 75
         0
 76
         1
 98
        1
 10
0.0
 20
0.0
  0
CIRCLE
  5
11C
100
AcDbEntity
  8
ASSEMBLY_OUTLINES_BTM
100
AcDbCircle
 10
39.58
 20
135.13
 30
0.0
 40
0.45
  0
HATCH
  5
11D
100
AcDbEntity
  8
ASSEMBLY_OUTLINES_BTM
100
AcDbHatch
 10
0.0
 20
0.0
 30
0.0
210
0.0
220
0.0
230
1.0
  2
SOLID
 70
         1
 71
         1
 91
        1
 92
        1
 93
        1
 72
         2
 10
39.579999999999998
 20
135.13
 40
0.45
 50
0.0
 51
360.0
 73
         1
 97
        1
330
11C
 75
         0
 76
         1
 98
        1
 10
0.0
 20
0.0
  0
CIRCLE
  5
11E
100
AcDbEntity
  8
ASSEMBLY_OUTLINES_BTM
100
AcDbCircle
 10
39.58
 20
132.59
 30
0.0
 40
0.45
  0
HATCH
  5
11F
100
AcDbEntity
  8
ASSEMBLY_OUTLINES_BTM
100
AcDbHatch
 10
0.0
 20
0.0
 30
0.0
210
0.0
220
0.0
230
1.0
  2
SOLID
 70
         1
 71
         1
 91
        1
 92
        1
 93
        1
 72
         2
 10
39.579999999999998
 20
132.59
 40
0.45
 50
0.0
 51
360.0
 73
         1
 97
        1
330
11E
 75
         0
 76
         1
 98
        1
 10
0.0
 20
0.0
  0
CIRCLE
  5
120
100
AcDbEntity
  8
ASSEMBLY_OUTLINES_BTM
100
AcDbCircle
 10
39.58
 20
130.05
 30
0.0
 40
0.45
  0
HATCH
  5
121
100
AcDbEntity
  8
ASSEMBLY_OUTLINES_BTM
100
AcDbHatch
 10
0.0
 20
0.0
 30
0.0
210
0.0
220
0.0
230
1.0
  2
SOLID
 70
         1
 71
         1
 91
        1
 92
        1
 93
        1
 72
         2
 10
39.579999999999998
 20
130.05000000000001
 40
0.45
 50
0.0
 51
360.0
 73
         1
 97
        1
330
120
 75
         0
 76
         1
 98
        1
 10
0.0
 20
0.0
  0
CIRCLE
  5
122
100
AcDbEntity
  8
ASSEMBLY_OUTLINES_BTM
100
AcDbCircle
 10
39.58
 20
127.51
 30
0.0
 40
0.45
  0
HATCH
  5
123
100
AcDbEntity
  8
ASSEMBLY_OUTLINES_BTM
100
AcDbHatch
 10
0.0
 20
0.0
 30
0.0
210
0.0
220
0.0
230
1.0
  2
SOLID
 70
         1
 71
         1
 91
        1
 92
        1
 93
        1
 72
         2
 10
39.579999999999998
 20
127.51000000000001
 40
0.45
 50
0.0
 51
360.0
 73
         1
 97
        1
330
122
 75
         0
 76
         1
 98
        1
 10
0.0
 20
0.0
  0
CIRCLE
  5
124
100
AcDbEntity
  8
ASSEMBLY_OUTLINES_BTM
100
AcDbCircle
 10
39.58
 20
124.97
 30
0.0
 40
0.45
  0
HATCH
  5
125
100
AcDbEntity
  8
ASSEMBLY_OUTLINES_BTM
100
AcDbHatch
 10
0.0
 20
0.0
 30
0.0
210
0.0
220
0.0
230
1.0
  2
SOLID
 70
         1
 71
         1
 91
        1
 92
        1
 93
        1
 72
         2
 10
39.579999999999998
 20
124.97
 40
0.45
 50
0.0
 51
360.0
 73
         1
 97
        1
330
124
 75
         0
 76
         1
 98
        1
 10
0.0
 20
0.0
  0
CIRCLE
  5
126
100
AcDbEntity
  8
ASSEMBLY_OUTLINES_BTM
100
AcDbCircle
 10
39.57912
 20
122.426451
 30
0.0
 40
0.45
  0
HATCH
  5
127
100
AcDbEntity
  8
ASSEMBLY_OUTLINES_BTM
100
AcDbHatch
 10
0.0
 20
0.0
 30
0.0
210
0.0
220
0.0
230
1.0
  2
SOLID
 70
         1
 71
         1
 91
        1
 92
        1
 93
        1
 72
         2
 10
39.579120000000003
 20
122.426451
 40
0.45
 50
0.0
 51
360.0
 73
         1
 97
        1
330
126
 75
         0
 76
         1
 98
        1
 10
0.0
 20
0.0
  0
CIRCLE
  5
128
100
AcDbEntity
  8
ASSEMBLY_OUTLINES_BTM
100
AcDbCircle
 10
39.57912
 20
119.886451
 30
0.0
 40
0.45
  0
HATCH
  5
129
100
AcDbEntity
  8
ASSEMBLY_OUTLINES_BTM
100
AcDbHatch
 10
0.0
 20
0.0
 30
0.0
210
0.0
220
0.0
230
1.0
  2
SOLID
 70
         1
 71
         1
 91
        1
 92
        1
 93
        1
 72
         2
 10
39.579120000000003
 20
119.88645099999999
 40
0.45
 50
0.0
 51
360.0
 73
         1
 97
        1
330
128
 75
         0
 76
         1
 98
        1
 10
0.0
 20
0.0
  0
CIRCLE
  5
12A
100
AcDbEntity
  8
ASSEMBLY_OUTLINES_BTM
100
AcDbCircle
 10
39.57912
 20
117.346451
 30
0.0
 40
0.45
  0
HATCH
  5
12B
100
AcDbEntity
  8
ASSEMBLY_OUTLINES_BTM
100
AcDbHatch
 10
0.0
 20
0.0
 30
0.0
210
0.0
220
0.0
230
1.0
  2
SOLID
 70
         1
 71
         1
 91
        1
 92
        1
 93
        1
 72
         2
 10
39.579120000000003
 20
117.346451
 40
0.45
 50
0.0
 51
360.0
 73
         1
 97
        1
330
12A
 75
         0
 76
         1
 98
        1
 10
0.0
 20
0.0
  0
CIRCLE
  5
12C
100
AcDbEntity
  8
ASSEMBLY_OUTLINES_BTM
100
AcDbCircle
 10
39.57912
 20
114.806451
 30
0.0
 40
0.45
  0
HATCH
  5
12D
100
AcDbEntity
  8
ASSEMBLY_OUTLINES_BTM
100
AcDbHatch
 10
0.0
 20
0.0
 30
0.0
210
0.0
220
0.0
230
1.0
  2
SOLID
 70
         1
 71
         1
 91
        1
 92
        1
 93
        1
 72
         2
 10
39.579120000000003
 20
114.806451
 40
0.45
 50
0.0
 51
360.0
 73
         1
 97
        1
330
12C
 75
         0
 76
         1
 98
        1
 10
0.0
 20
0.0
  0
CIRCLE
  5
12E
100
AcDbEntity
  8
ASSEMBLY_OUTLINES_BTM
100
AcDbCircle
 10
39.57912
 20
112.266451
 30
0.0
 40
0.45
  0
HATCH
  5
12F
100
AcDbEntity
  8
ASSEMBLY_OUTLINES_BTM
100
AcDbHatch
 10
0.0
 20
0.0
 30
0.0
210
0.0
220
0.0
230
1.0
  2
SOLID
 70
         1
 71
         1
 91
        1
 92
        1
 93
        1
 72
         2
 10
39.579120000000003
 20
112.266451
 40
0.45
 50
0.0
 51
360.0
 73
         1
 97
        1
330
12E
 75
         0
 76
         1
 98
        1
 10
0.0
 20
0.0
  0
CIRCLE
  5
130
100
AcDbEntity
  8
ASSEMBLY_OUTLINES_BTM
100
AcDbCircle
 10
39.57912
 20
109.726451
 30
0.0
 40
0.45
  0
HATCH
  5
131
100
AcDbEntity
  8
ASSEMBLY_OUTLINES_BTM
100
AcDbHatch
 10
0.0
 20
0.0
 30
0.0
210
0.0
220
0.0
230
1.0
  2
SOLID
 70
         1
 71
         1
 91
        1
 92
        1
 93
        1
 72
         2
 10
39.579120000000003
 20
109.726451
 40
0.45
 50
0.0
 51
360.0
 73
         1
 97
        1
330
130
 75
         0
 76
         1
 98
        1
 10
0.0
 20
0.0
  0
CIRCLE
  5
132
100
AcDbEntity
  8
ASSEMBLY_OUTLINES_BTM
100
AcDbCircle
 10
39.57912
 20
107.186451
 30
0.0
 40
0.45
  0
HATCH
  5
133
100
AcDbEntity
  8
ASSEMBLY_OUTLINES_BTM
100
AcDbHatch
 10
0.0
 20
0.0
 30
0.0
210
0.0
220
0.0
230
1.0
  2
SOLID
 70
         1
 71
         1
 91
        1
 92
        1
 93
        1
 72
         2
 10
39.579120000000003
 20
107.18645100000001
 40
0.45
 50
0.0
 51
360.0
 73
         1
 97
        1
330
132
 75
         0
 76
         1
 98
        1
 10
0.0
 20
0.0
  0
CIRCLE
  5
134
100
AcDbEntity
  8
ASSEMBLY_OUTLINES_BTM
100
AcDbCircle
 10
39.57912
 20
104.646451
 30
0.0
 40
0.45
  0
HATCH
  5
135
100
AcDbEntity
  8
ASSEMBLY_OUTLINES_BTM
100
AcDbHatch
 10
0.0
 20
0.0
 30
0.0
210
0.0
220
0.0
230
1.0
  2
SOLID
 70
         1
 71
         1
 91
        1
 92
        1
 93
        1
 72
         2
 10
39.579120000000003
 20
104.646451
 40
0.45
 50
0.0
 51
360.0
 73
         1
 97
        1
330
134
 75
         0
 76
         1
 98
        1
 10
0.0
 20
0.0
  0
CIRCLE
  5
136
100
AcDbEntity
  8
ASSEMBLY_OUTLINES_BTM
100
AcDbCircle
 10
39.57912
 20
102.106451
 30
0.0
 40
0.45
  0
HATCH
  5
137
100
AcDbEntity
  8
ASSEMBLY_OUTLINES_BTM
100
AcDbHatch
 10
0.0
 20
0.0
 30
0.0
210
0.0
220
0.0
230
1.0
  2
SOLID
 70
         1
 71
         1
 91
        1
 92
        1
 93
        1
 72
         2
 10
39.579120000000003
 20
102.10645100000001
 40
0.45
 50
0.0
 51
360.0
 73
         1
 97
        1
330
136
 75
         0
 76
         1
 98
        1
 10
0.0
 20
0.0
  0
CIRCLE
  5
138
100
AcDbEntity
  8
ASSEMBLY_OUTLINES_BTM
100
AcDbCircle
 10
39.57912
 20
99.566451
 30
0.0
 40
0.45
  0
HATCH
  5
139
100
AcDbEntity
  8
ASSEMBLY_OUTLINES_BTM
100
AcDbHatch
 10
0.0
 20
0.0
 30
0.0
210
0.0
220
0.0
230
1.0
  2
SOLID
 70
         1
 71
         1
 91
        1
 92
        1
 93
        1
 72
         2
 10
39.579120000000003
 20
99.566451000000001
 40
0.45
 50
0.0
 51
360.0
 73
         1
 97
        1
330
138
 75
         0
 76
         1
 98
        1
 10
0.0
 20
0.0
  0
LWPOLYLINE
  5
13A
100
AcDbEntity
  8
ASSEMBLY_OUTLINES_BTM
100
AcDbPolyline
 90
        4
 70
         1
 43
0.1
 10
74.5
 20
146.55
 10
74.5
 20
149.35
 10
75.8
 20
149.35
 10
75.8
 20
146.55
  0
LWPOLYLINE
  5
13B
100
AcDbEntity
  8
ASSEMBLY_OUTLINES_BTM
100
AcDbPolyline
 90
        4
 70
         1
 43
0.1
 10
67.45
 20
116.35
 10
67.45
 20
118.05
 10
68.25
 20
118.05
 10
68.25
 20
116.35
  0
LWPOLYLINE
  5
13C
100
AcDbEntity
  8
ASSEMBLY_OUTLINES_BTM
100
AcDbPolyline
 90
        4
 70
         1
 43
0.1
 10
63.25
 20
125.1
 10
63.25
 20
125.9
 10
64.95
 20
125.9
 10
64.95
 20
125.1
  0
LWPOLYLINE
  5
13D
100
AcDbEntity
  8
ASSEMBLY_OUTLINES_BTM
100
AcDbPolyline
 90
        4
 70
         1
 43
0.1
 10
59.8
 20
118.8
 10
59.8
 20
119.6
 10
61.5
 20
119.6
 10
61.5
 20
118.8
  0
LWPOLYLINE
  5
13E
100
AcDbEntity
  8
ASSEMBLY_OUTLINES_BTM
100
AcDbPolyline
 90
        4
 70
         1
 43
0.1
 10
68.4
 20
116.4
 10
68.4
 20
117.2
 10
70.1
 20
117.2
 10
70.1
 20
116.4
  0
LWPOLYLINE
  5
13F
100
AcDbEntity
  8
ASSEMBLY_OUTLINES_BTM
100
AcDbPolyline
 90
        4
 70
         1
 43
0.1
 10
74.25
 20
153.1
 10
74.25
 20
155.9
 10
75.55
 20
155.9
 10
75.55
 20
153.1
  0
LWPOLYLINE
  5
140
100
AcDbEntity
  8
ASSEMBLY_OUTLINES_BTM
100
AcDbPolyline
 90
        4
 70
         1
 43
0.1
 10
72.05
 20
117.15
 10
72.05
 20
118.85
 10
72.85
 20
118.85
 10
72.85
 20
117.15
  0
LWPOLYLINE
  5
141
100
AcDbEntity
  8
ASSEMBLY_OUTLINES_BTM
100
AcDbPolyline
 90
        4
 70
         1
 10
86.195
 20
98.3
 10
86.195
 20
149.1
 10
91.275
 20
149.1
 10
91.275
 20
98.3
  0
CIRCLE
  5
142
100
AcDbEntity
  8
ASSEMBLY_OUTLINES_BTM
100
AcDbCircle
 10
90.01544
 20
147.831775
 30
0.0
 40
0.45
  0
HATCH
  5
143
100
AcDbEntity
  8
ASSEMBLY_OUTLINES_BTM
100
AcDbHatch
 10
0.0
 20
0.0
 30
0.0
210
0.0
220
0.0
230
1.0
  2
SOLID
 70
         1
 71
         1
 91
        1
 92
        1
 93
        1
 72
         2
 10
90.015439999999998
 20
147.83177499999999
 40
0.45
 50
0.0
 51
360.0
 73
         1
 97
        1
330
142
 75
         0
 76
         1
 98
        1
 10
0.0
 20
0.0
  0
CIRCLE
  5
144
100
AcDbEntity
  8
ASSEMBLY_OUTLINES_BTM
100
AcDbCircle
 10
90.01544
 20
145.291775
 30
0.0
 40
0.45
  0
HATCH
  5
145
100
AcDbEntity
  8
ASSEMBLY_OUTLINES_BTM
100
AcDbHatch
 10
0.0
 20
0.0
 30
0.0
210
0.0
220
0.0
230
1.0
  2
SOLID
 70
         1
 71
         1
 91
        1
 92
        1
 93
        1
 72
         2
 10
90.015439999999998
 20
145.291775
 40
0.45
 50
0.0
 51
360.0
 73
         1
 97
        1
330
144
 75
         0
 76
         1
 98
        1
 10
0.0
 20
0.0
  0
CIRCLE
  5
146
100
AcDbEntity
  8
ASSEMBLY_OUTLINES_BTM
100
AcDbCircle
 10
90.01544
 20
142.751775
 30
0.0
 40
0.45
  0
HATCH
  5
147
100
AcDbEntity
  8
ASSEMBLY_OUTLINES_BTM
100
AcDbHatch
 10
0.0
 20
0.0
 30
0.0
210
0.0
220
0.0
230
1.0
  2
SOLID
 70
         1
 71
         1
 91
        1
 92
        1
 93
        1
 72
         2
 10
90.015439999999998
 20
142.75177500000001
 40
0.45
 50
0.0
 51
360.0
 73
         1
 97
        1
330
146
 75
         0
 76
         1
 98
        1
 10
0.0
 20
0.0
  0
CIRCLE
  5
148
100
AcDbEntity
  8
ASSEMBLY_OUTLINES_BTM
100
AcDbCircle
 10
90.01544
 20
140.211775
 30
0.0
 40
0.45
  0
HATCH
  5
149
100
AcDbEntity
  8
ASSEMBLY_OUTLINES_BTM
100
AcDbHatch
 10
0.0
 20
0.0
 30
0.0
210
0.0
220
0.0
230
1.0
  2
SOLID
 70
         1
 71
         1
 91
        1
 92
        1
 93
        1
 72
         2
 10
90.015439999999998
 20
140.21177499999999
 40
0.45
 50
0.0
 51
360.0
 73
         1
 97
        1
330
148
 75
         0
 76
         1
 98
        1
 10
0.0
 20
0.0
  0
CIRCLE
  5
14A
100
AcDbEntity
  8
ASSEMBLY_OUTLINES_BTM
100
AcDbCircle
 10
90.01544
 20
137.671775
 30
0.0
 40
0.45
  0
HATCH
  5
14B
100
AcDbEntity
  8
ASSEMBLY_OUTLINES_BTM
100
AcDbHatch
 10
0.0
 20
0.0
 30
0.0
210
0.0
220
0.0
230
1.0
  2
SOLID
 70
         1
 71
         1
 91
        1
 92
        1
 93
        1
 72
         2
 10
90.015439999999998
 20
137.671775
 40
0.45
 50
0.0
 51
360.0
 73
         1
 97
        1
330
14A
 75
         0
 76
         1
 98
        1
 10
0.0
 20
0.0
  0
CIRCLE
  5
14C
100
AcDbEntity
  8
ASSEMBLY_OUTLINES_BTM
100
AcDbCircle
 10
90.01544
 20
135.131775
 30
0.0
 40
0.45
  0
HATCH
  5
14D
100
AcDbEntity
  8
ASSEMBLY_OUTLINES_BTM
100
AcDbHatch
 10
0.0
 20
0.0
 30
0.0
210
0.0
220
0.0
230
1.0
  2
SOLID
 70
         1
 71
         1
 91
        1
 92
        1
 93
        1
 72
         2
 10
90.015439999999998
 20
135.131775
 40
0.45
 50
0.0
 51
360.0
 73
         1
 97
        1
330
14C
 75
         0
 76
         1
 98
        1
 10
0.0
 20
0.0
  0
CIRCLE
  5
14E
100
AcDbEntity
  8
ASSEMBLY_OUTLINES_BTM
100
AcDbCircle
 10
90.01544
 20
132.591775
 30
0.0
 40
0.45
  0
HATCH
  5
14F
100
AcDbEntity
  8
ASSEMBLY_OUTLINES_BTM
100
AcDbHatch
 10
0.0
 20
0.0
 30
0.0
210
0.0
220
0.0
230
1.0
  2
SOLID
 70
         1
 71
         1
 91
        1
 92
        1
 93
        1
 72
         2
 10
90.015439999999998
 20
132.59177500000001
 40
0.45
 50
0.0
 51
360.0
 73
         1
 97
        1
330
14E
 75
         0
 76
         1
 98
        1
 10
0.0
 20
0.0
  0
CIRCLE
  5
150
100
AcDbEntity
  8
ASSEMBLY_OUTLINES_BTM
100
AcDbCircle
 10
90.01544
 20
130.051775
 30
0.0
 40
0.45
  0
HATCH
  5
151
100
AcDbEntity
  8
ASSEMBLY_OUTLINES_BTM
100
AcDbHatch
 10
0.0
 20
0.0
 30
0.0
210
0.0
220
0.0
230
1.0
  2
SOLID
 70
         1
 71
         1
 91
        1
 92
        1
 93
        1
 72
         2
 10
90.015439999999998
 20
130.05177499999999
 40
0.45
 50
0.0
 51
360.0
 73
         1
 97
        1
330
150
 75
         0
 76
         1
 98
        1
 10
0.0
 20
0.0
  0
CIRCLE
  5
152
100
AcDbEntity
  8
ASSEMBLY_OUTLINES_BTM
100
AcDbCircle
 10
90.01544
 20
127.511775
 30
0.0
 40
0.45
  0
HATCH
  5
153
100
AcDbEntity
  8
ASSEMBLY_OUTLINES_BTM
100
AcDbHatch
 10
0.0
 20
0.0
 30
0.0
210
0.0
220
0.0
230
1.0
  2
SOLID
 70
         1
 71
         1
 91
        1
 92
        1
 93
        1
 72
         2
 10
90.015439999999998
 20
127.511775
 40
0.45
 50
0.0
 51
360.0
 73
         1
 97
        1
330
152
 75
         0
 76
         1
 98
        1
 10
0.0
 20
0.0
  0
CIRCLE
  5
154
100
AcDbEntity
  8
ASSEMBLY_OUTLINES_BTM
100
AcDbCircle
 10
90.01544
 20
124.971775
 30
0.0
 40
0.45
  0
HATCH
  5
155
100
AcDbEntity
  8
ASSEMBLY_OUTLINES_BTM
100
AcDbHatch
 10
0.0
 20
0.0
 30
0.0
210
0.0
220
0.0
230
1.0
  2
SOLID
 70
         1
 71
         1
 91
        1
 92
        1
 93
        1
 72
         2
 10
90.015439999999998
 20
124.97177499999999
 40
0.45
 50
0.0
 51
360.0
 73
         1
 97
        1
330
154
 75
         0
 76
         1
 98
        1
 10
0.0
 20
0.0
  0
CIRCLE
  5
156
100
AcDbEntity
  8
ASSEMBLY_OUTLINES_BTM
100
AcDbCircle
 10
90.02456
 20
122.428226
 30
0.0
 40
0.45
  0
HATCH
  5
157
100
AcDbEntity
  8
ASSEMBLY_OUTLINES_BTM
100
AcDbHatch
 10
0.0
 20
0.0
 30
0.0
210
0.0
220
0.0
230
1.0
  2
SOLID
 70
         1
 71
         1
 91
        1
 92
        1
 93
        1
 72
         2
 10
90.024559999999994
 20
122.428226
 40
0.45
 50
0.0
 51
360.0
 73
         1
 97
        1
330
156
 75
         0
 76
         1
 98
        1
 10
0.0
 20
0.0
  0
CIRCLE
  5
158
100
AcDbEntity
  8
ASSEMBLY_OUTLINES_BTM
100
AcDbCircle
 10
90.02456
 20
119.888226
 30
0.0
 40
0.45
  0
HATCH
  5
159
100
AcDbEntity
  8
ASSEMBLY_OUTLINES_BTM
100
AcDbHatch
 10
0.0
 20
0.0
 30
0.0
210
0.0
220
0.0
230
1.0
  2
SOLID
 70
         1
 71
         1
 91
        1
 92
        1
 93
        1
 72
         2
 10
90.024559999999994
 20
119.888226
 40
0.45
 50
0.0
 51
360.0
 73
         1
 97
        1
330
158
 75
         0
 76
         1
 98
        1
 10
0.0
 20
0.0
  0
CIRCLE
  5
15A
100
AcDbEntity
  8
ASSEMBLY_OUTLINES_BTM
100
AcDbCircle
 10
90.02456
 20
117.348226
 30
0.0
 40
0.45
  0
HATCH
  5
15B
100
AcDbEntity
  8
ASSEMBLY_OUTLINES_BTM
100
AcDbHatch
 10
0.0
 20
0.0
 30
0.0
210
0.0
220
0.0
230
1.0
  2
SOLID
 70
         1
 71
         1
 91
        1
 92
        1
 93
        1
 72
         2
 10
90.024559999999994
 20
117.348226
 40
0.45
 50
0.0
 51
360.0
 73
         1
 97
        1
330
15A
 75
         0
 76
         1
 98
        1
 10
0.0
 20
0.0
  0
CIRCLE
  5
15C
100
AcDbEntity
  8
ASSEMBLY_OUTLINES_BTM
100
AcDbCircle
 10
90.02456
 20
114.808226
 30
0.0
 40
0.45
  0
HATCH
  5
15D
100
AcDbEntity
  8
ASSEMBLY_OUTLINES_BTM
100
AcDbHatch
 10
0.0
 20
0.0
 30
0.0
210
0.0
220
0.0
230
1.0
  2
SOLID
 70
         1
 71
         1
 91
        1
 92
        1
 93
        1
 72
         2
 10
90.024559999999994
 20
114.808226
 40
0.45
 50
0.0
 51
360.0
 73
         1
 97
        1
330
15C
 75
         0
 76
         1
 98
        1
 10
0.0
 20
0.0
  0
CIRCLE
  5
15E
100
AcDbEntity
  8
ASSEMBLY_OUTLINES_BTM
100
AcDbCircle
 10
90.02456
 20
112.268226
 30
0.0
 40
0.45
  0
HATCH
  5
15F
100
AcDbEntity
  8
ASSEMBLY_OUTLINES_BTM
100
AcDbHatch
 10
0.0
 20
0.0
 30
0.0
210
0.0
220
0.0
230
1.0
  2
SOLID
 70
         1
 71
         1
 91
        1
 92
        1
 93
        1
 72
         2
 10
90.024559999999994
 20
112.268226
 40
0.45
 50
0.0
 51
360.0
 73
         1
 97
        1
330
15E
 75
         0
 76
         1
 98
        1
 10
0.0
 20
0.0
  0
CIRCLE
  5
160
100
AcDbEntity
  8
ASSEMBLY_OUTLINES_BTM
100
AcDbCircle
 10
90.02456
 20
109.728226
 30
0.0
 40
0.45
  0
HATCH
  5
161
100
AcDbEntity
  8
ASSEMBLY_OUTLINES_BTM
100
AcDbHatch
 10
0.0
 20
0.0
 30
0.0
210
0.0
220
0.0
230
1.0
  2
SOLID
 70
         1
 71
         1
 91
        1
 92
        1
 93
        1
 72
         2
 10
90.024559999999994
 20
109.72822600000001
 40
0.45
 50
0.0
 51
360.0
 73
         1
 97
        1
330
160
 75
         0
 76
         1
 98
        1
 10
0.0
 20
0.0
  0
CIRCLE
  5
162
100
AcDbEntity
  8
ASSEMBLY_OUTLINES_BTM
100
AcDbCircle
 10
90.02456
 20
107.188226
 30
0.0
 40
0.45
  0
HATCH
  5
163
100
AcDbEntity
  8
ASSEMBLY_OUTLINES_BTM
100
AcDbHatch
 10
0.0
 20
0.0
 30
0.0
210
0.0
220
0.0
230
1.0
  2
SOLID
 70
         1
 71
         1
 91
        1
 92
        1
 93
        1
 72
         2
 10
90.024559999999994
 20
107.188226
 40
0.45
 50
0.0
 51
360.0
 73
         1
 97
        1
330
162
 75
         0
 76
         1
 98
        1
 10
0.0
 20
0.0
  0
CIRCLE
  5
164
100
AcDbEntity
  8
ASSEMBLY_OUTLINES_BTM
100
AcDbCircle
 10
90.02456
 20
104.648226
 30
0.0
 40
0.45
  0
HATCH
  5
165
100
AcDbEntity
  8
ASSEMBLY_OUTLINES_BTM
100
AcDbHatch
 10
0.0
 20
0.0
 30
0.0
210
0.0
220
0.0
230
1.0
  2
SOLID
 70
         1
 71
         1
 91
        1
 92
        1
 93
        1
 72
         2
 10
90.024559999999994
 20
104.64822599999999
 40
0.45
 50
0.0
 51
360.0
 73
         1
 97
        1
330
164
 75
         0
 76
         1
 98
        1
 10
0.0
 20
0.0
  0
CIRCLE
  5
166
100
AcDbEntity
  8
ASSEMBLY_OUTLINES_BTM
100
AcDbCircle
 10
90.02456
 20
102.108226
 30
0.0
 40
0.45
  0
HATCH
  5
167
100
AcDbEntity
  8
ASSEMBLY_OUTLINES_BTM
100
AcDbHatch
 10
0.0
 20
0.0
 30
0.0
210
0.0
220
0.0
230
1.0
  2
SOLID
 70
         1
 71
         1
 91
        1
 92
        1
 93
        1
 72
         2
 10
90.024559999999994
 20
102.108226
 40
0.45
 50
0.0
 51
360.0
 73
         1
 97
        1
330
166
 75
         0
 76
         1
 98
        1
 10
0.0
 20
0.0
  0
CIRCLE
  5
168
100
AcDbEntity
  8
ASSEMBLY_OUTLINES_BTM
100
AcDbCircle
 10
90.02456
 20
99.568226
 30
0.0
 40
0.45
  0
HATCH
  5
169
100
AcDbEntity
  8
ASSEMBLY_OUTLINES_BTM
100
AcDbHatch
 10
0.0
 20
0.0
 30
0.0
210
0.0
220
0.0
230
1.0
  2
SOLID
 70
         1
 71
         1
 91
        1
 92
        1
 93
        1
 72
         2
 10
90.024559999999994
 20
99.568225999999996
 40
0.45
 50
0.0
 51
360.0
 73
         1
 97
        1
330
168
 75
         0
 76
         1
 98
        1
 10
0.0
 20
0.0
  0
CIRCLE
  5
16A
100
AcDbEntity
  8
ASSEMBLY_OUTLINES_BTM
100
AcDbCircle
 10
87.48
 20
147.83
 30
0.0
 40
0.45
  0
HATCH
  5
16B
100
AcDbEntity
  8
ASSEMBLY_OUTLINES_BTM
100
AcDbHatch
 10
0.0
 20
0.0
 30
0.0
210
0.0
220
0.0
230
1.0
  2
SOLID
 70
         1
 71
         1
 91
        1
 92
        1
 93
        1
 72
         2
 10
87.480000000000004
 20
147.83000000000001
 40
0.45
 50
0.0
 51
360.0
 73
         1
 97
        1
330
16A
 75
         0
 76
         1
 98
        1
 10
0.0
 20
0.0
  0
CIRCLE
  5
16C
100
AcDbEntity
  8
ASSEMBLY_OUTLINES_BTM
100
AcDbCircle
 10
87.48
 20
145.29
 30
0.0
 40
0.45
  0
HATCH
  5
16D
100
AcDbEntity
  8
ASSEMBLY_OUTLINES_BTM
100
AcDbHatch
 10
0.0
 20
0.0
 30
0.0
210
0.0
220
0.0
230
1.0
  2
SOLID
 70
         1
 71
         1
 91
        1
 92
        1
 93
        1
 72
         2
 10
87.480000000000004
 20
145.28999999999999
 40
0.45
 50
0.0
 51
360.0
 73
         1
 97
        1
330
16C
 75
         0
 76
         1
 98
        1
 10
0.0
 20
0.0
  0
CIRCLE
  5
16E
100
AcDbEntity
  8
ASSEMBLY_OUTLINES_BTM
100
AcDbCircle
 10
87.48
 20
142.75
 30
0.0
 40
0.45
  0
HATCH
  5
16F
100
AcDbEntity
  8
ASSEMBLY_OUTLINES_BTM
100
AcDbHatch
 10
0.0
 20
0.0
 30
0.0
210
0.0
220
0.0
230
1.0
  2
SOLID
 70
         1
 71
         1
 91
        1
 92
        1
 93
        1
 72
         2
 10
87.480000000000004
 20
142.75
 40
0.45
 50
0.0
 51
360.0
 73
         1
 97
        1
330
16E
 75
         0
 76
         1
 98
        1
 10
0.0
 20
0.0
  0
CIRCLE
  5
170
100
AcDbEntity
  8
ASSEMBLY_OUTLINES_BTM
100
AcDbCircle
 10
87.48
 20
140.21
 30
0.0
 40
0.45
  0
HATCH
  5
171
100
AcDbEntity
  8
ASSEMBLY_OUTLINES_BTM
100
AcDbHatch
 10
0.0
 20
0.0
 30
0.0
210
0.0
220
0.0
230
1.0
  2
SOLID
 70
         1
 71
         1
 91
        1
 92
        1
 93
        1
 72
         2
 10
87.480000000000004
 20
140.21000000000001
 40
0.45
 50
0.0
 51
360.0
 73
         1
 97
        1
330
170
 75
         0
 76
         1
 98
        1
 10
0.0
 20
0.0
  0
CIRCLE
  5
172
100
AcDbEntity
  8
ASSEMBLY_OUTLINES_BTM
100
AcDbCircle
 10
87.48
 20
137.67
 30
0.0
 40
0.45
  0
HATCH
  5
173
100
AcDbEntity
  8
ASSEMBLY_OUTLINES_BTM
100
AcDbHatch
 10
0.0
 20
0.0
 30
0.0
210
0.0
220
0.0
230
1.0
  2
SOLID
 70
         1
 71
         1
 91
        1
 92
        1
 93
        1
 72
         2
 10
87.480000000000004
 20
137.66999999999999
 40
0.45
 50
0.0
 51
360.0
 73
         1
 97
        1
330
172
 75
         0
 76
         1
 98
        1
 10
0.0
 20
0.0
  0
CIRCLE
  5
174
100
AcDbEntity
  8
ASSEMBLY_OUTLINES_BTM
100
AcDbCircle
 10
87.48
 20
135.13
 30
0.0
 40
0.45
  0
HATCH
  5
175
100
AcDbEntity
  8
ASSEMBLY_OUTLINES_BTM
100
AcDbHatch
 10
0.0
 20
0.0
 30
0.0
210
0.0
220
0.0
230
1.0
  2
SOLID
 70
         1
 71
         1
 91
        1
 92
        1
 93
        1
 72
         2
 10
87.480000000000004
 20
135.13
 40
0.45
 50
0.0
 51
360.0
 73
         1
 97
        1
330
174
 75
         0
 76
         1
 98
        1
 10
0.0
 20
0.0
  0
CIRCLE
  5
176
100
AcDbEntity
  8
ASSEMBLY_OUTLINES_BTM
100
AcDbCircle
 10
87.48
 20
132.59
 30
0.0
 40
0.45
  0
HATCH
  5
177
100
AcDbEntity
  8
ASSEMBLY_OUTLINES_BTM
100
AcDbHatch
 10
0.0
 20
0.0
 30
0.0
210
0.0
220
0.0
230
1.0
  2
SOLID
 70
         1
 71
         1
 91
        1
 92
        1
 93
        1
 72
         2
 10
87.480000000000004
 20
132.59
 40
0.45
 50
0.0
 51
360.0
 73
         1
 97
        1
330
176
 75
         0
 76
         1
 98
        1
 10
0.0
 20
0.0
  0
CIRCLE
  5
178
100
AcDbEntity
  8
ASSEMBLY_OUTLINES_BTM
100
AcDbCircle
 10
87.48
 20
130.05
 30
0.0
 40
0.45
  0
HATCH
  5
179
100
AcDbEntity
  8
ASSEMBLY_OUTLINES_BTM
100
AcDbHatch
 10
0.0
 20
0.0
 30
0.0
210
0.0
220
0.0
230
1.0
  2
SOLID
 70
         1
 71
         1
 91
        1
 92
        1
 93
        1
 72
         2
 10
87.480000000000004
 20
130.05000000000001
 40
0.45
 50
0.0
 51
360.0
 73
         1
 97
        1
330
178
 75
         0
 76
         1
 98
        1
 10
0.0
 20
0.0
  0
CIRCLE
  5
17A
100
AcDbEntity
  8
ASSEMBLY_OUTLINES_BTM
100
AcDbCircle
 10
87.48
 20
127.51
 30
0.0
 40
0.45
  0
HATCH
  5
17B
100
AcDbEntity
  8
ASSEMBLY_OUTLINES_BTM
100
AcDbHatch
 10
0.0
 20
0.0
 30
0.0
210
0.0
220
0.0
230
1.0
  2
SOLID
 70
         1
 71
         1
 91
        1
 92
        1
 93
        1
 72
         2
 10
87.480000000000004
 20
127.51000000000001
 40
0.45
 50
0.0
 51
360.0
 73
         1
 97
        1
330
17A
 75
         0
 76
         1
 98
        1
 10
0.0
 20
0.0
  0
CIRCLE
  5
17C
100
AcDbEntity
  8
ASSEMBLY_OUTLINES_BTM
100
AcDbCircle
 10
87.48
 20
124.97
 30
0.0
 40
0.45
  0
HATCH
  5
17D
100
AcDbEntity
  8
ASSEMBLY_OUTLINES_BTM
100
AcDbHatch
 10
0.0
 20
0.0
 30
0.0
210
0.0
220
0.0
230
1.0
  2
SOLID
 70
         1
 71
         1
 91
        1
 92
        1
 93
        1
 72
         2
 10
87.480000000000004
 20
124.97
 40
0.45
 50
0.0
 51
360.0
 73
         1
 97
        1
330
17C
 75
         0
 76
         1
 98
        1
 10
0.0
 20
0.0
  0
CIRCLE
  5
17E
100
AcDbEntity
  8
ASSEMBLY_OUTLINES_BTM
100
AcDbCircle
 10
87.47912
 20
122.426451
 30
0.0
 40
0.45
  0
HATCH
  5
17F
100
AcDbEntity
  8
ASSEMBLY_OUTLINES_BTM
100
AcDbHatch
 10
0.0
 20
0.0
 30
0.0
210
0.0
220
0.0
230
1.0
  2
SOLID
 70
         1
 71
         1
 91
        1
 92
        1
 93
        1
 72
         2
 10
87.479119999999995
 20
122.426451
 40
0.45
 50
0.0
 51
360.0
 73
         1
 97
        1
330
17E
 75
         0
 76
         1
 98
        1
 10
0.0
 20
0.0
  0
CIRCLE
  5
180
100
AcDbEntity
  8
ASSEMBLY_OUTLINES_BTM
100
AcDbCircle
 10
87.47912
 20
119.886451
 30
0.0
 40
0.45
  0
HATCH
  5
181
100
AcDbEntity
  8
ASSEMBLY_OUTLINES_BTM
100
AcDbHatch
 10
0.0
 20
0.0
 30
0.0
210
0.0
220
0.0
230
1.0
  2
SOLID
 70
         1
 71
         1
 91
        1
 92
        1
 93
        1
 72
         2
 10
87.479119999999995
 20
119.88645099999999
 40
0.45
 50
0.0
 51
360.0
 73
         1
 97
        1
330
180
 75
         0
 76
         1
 98
        1
 10
0.0
 20
0.0
  0
CIRCLE
  5
182
100
AcDbEntity
  8
ASSEMBLY_OUTLINES_BTM
100
AcDbCircle
 10
87.47912
 20
117.346451
 30
0.0
 40
0.45
  0
HATCH
  5
183
100
AcDbEntity
  8
ASSEMBLY_OUTLINES_BTM
100
AcDbHatch
 10
0.0
 20
0.0
 30
0.0
210
0.0
220
0.0
230
1.0
  2
SOLID
 70
         1
 71
         1
 91
        1
 92
        1
 93
        1
 72
         2
 10
87.479119999999995
 20
117.346451
 40
0.45
 50
0.0
 51
360.0
 73
         1
 97
        1
330
182
 75
         0
 76
         1
 98
        1
 10
0.0
 20
0.0
  0
CIRCLE
  5
184
100
AcDbEntity
  8
ASSEMBLY_OUTLINES_BTM
100
AcDbCircle
 10
87.47912
 20
114.806451
 30
0.0
 40
0.45
  0
HATCH
  5
185
100
AcDbEntity
  8
ASSEMBLY_OUTLINES_BTM
100
AcDbHatch
 10
0.0
 20
0.0
 30
0.0
210
0.0
220
0.0
230
1.0
  2
SOLID
 70
         1
 71
         1
 91
        1
 92
        1
 93
        1
 72
         2
 10
87.479119999999995
 20
114.806451
 40
0.45
 50
0.0
 51
360.0
 73
         1
 97
        1
330
184
 75
         0
 76
         1
 98
        1
 10
0.0
 20
0.0
  0
CIRCLE
  5
186
100
AcDbEntity
  8
ASSEMBLY_OUTLINES_BTM
100
AcDbCircle
 10
87.47912
 20
112.266451
 30
0.0
 40
0.45
  0
HATCH
  5
187
100
AcDbEntity
  8
ASSEMBLY_OUTLINES_BTM
100
AcDbHatch
 10
0.0
 20
0.0
 30
0.0
210
0.0
220
0.0
230
1.0
  2
SOLID
 70
         1
 71
         1
 91
        1
 92
        1
 93
        1
 72
         2
 10
87.479119999999995
 20
112.266451
 40
0.45
 50
0.0
 51
360.0
 73
         1
 97
        1
330
186
 75
         0
 76
         1
 98
        1
 10
0.0
 20
0.0
  0
CIRCLE
  5
188
100
AcDbEntity
  8
ASSEMBLY_OUTLINES_BTM
100
AcDbCircle
 10
87.47912
 20
109.726451
 30
0.0
 40
0.45
  0
HATCH
  5
189
100
AcDbEntity
  8
ASSEMBLY_OUTLINES_BTM
100
AcDbHatch
 10
0.0
 20
0.0
 30
0.0
210
0.0
220
0.0
230
1.0
  2
SOLID
 70
         1
 71
         1
 91
        1
 92
        1
 93
        1
 72
         2
 10
87.479119999999995
 20
109.726451
 40
0.45
 50
0.0
 51
360.0
 73
         1
 97
        1
330
188
 75
         0
 76
         1
 98
        1
 10
0.0
 20
0.0
  0
CIRCLE
  5
18A
100
AcDbEntity
  8
ASSEMBLY_OUTLINES_BTM
100
AcDbCircle
 10
87.47912
 20
107.186451
 30
0.0
 40
0.45
  0
HATCH
  5
18B
100
AcDbEntity
  8
ASSEMBLY_OUTLINES_BTM
100
AcDbHatch
 10
0.0
 20
0.0
 30
0.0
210
0.0
220
0.0
230
1.0
  2
SOLID
 70
         1
 71
         1
 91
        1
 92
        1
 93
        1
 72
         2
 10
87.479119999999995
 20
107.18645100000001
 40
0.45
 50
0.0
 51
360.0
 73
         1
 97
        1
330
18A
 75
         0
 76
         1
 98
        1
 10
0.0
 20
0.0
  0
CIRCLE
  5
18C
100
AcDbEntity
  8
ASSEMBLY_OUTLINES_BTM
100
AcDbCircle
 10
87.47912
 20
104.646451
 30
0.0
 40
0.45
  0
HATCH
  5
18D
100
AcDbEntity
  8
ASSEMBLY_OUTLINES_BTM
100
AcDbHatch
 10
0.0
 20
0.0
 30
0.0
210
0.0
220
0.0
230
1.0
  2
SOLID
 70
         1
 71
         1
 91
        1
 92
        1
 93
        1
 72
         2
 10
87.479119999999995
 20
104.646451
 40
0.45
 50
0.0
 51
360.0
 73
         1
 97
        1
330
18C
 75
         0
 76
         1
 98
        1
 10
0.0
 20
0.0
  0
CIRCLE
  5
18E
100
AcDbEntity
  8
ASSEMBLY_OUTLINES_BTM
100
AcDbCircle
 10
87.47912
 20
102.106451
 30
0.0
 40
0.45
  0
HATCH
  5
18F
100
AcDbEntity
  8
ASSEMBLY_OUTLINES_BTM
100
AcDbHatch
 10
0.0
 20
0.0
 30
0.0
210
0.0
220
0.0
230
1.0
  2
SOLID
 70
         1
 71
         1
 91
        1
 92
        1
 93
        1
 72
         2
 10
87.479119999999995
 20
102.10645100000001
 40
0.45
 50
0.0
 51
360.0
 73
         1
 97
        1
330
18E
 75
         0
 76
         1
 98
        1
 10
0.0
 20
0.0
  0
CIRCLE
  5
190
100
AcDbEntity
  8
ASSEMBLY_OUTLINES_BTM
100
AcDbCircle
 10
87.47912
 20
99.566451
 30
0.0
 40
0.45
  0
HATCH
  5
191
100
AcDbEntity
  8
ASSEMBLY_OUTLINES_BTM
100
AcDbHatch
 10
0.0
 20
0.0
 30
0.0
210
0.0
220
0.0
230
1.0
  2
SOLID
 70
         1
 71
         1
 91
        1
 92
        1
 93
        1
 72
         2
 10
87.479119999999995
 20
99.566451000000001
 40
0.45
 50
0.0
 51
360.0
 73
         1
 97
        1
330
190
 75
         0
 76
         1
 98
        1
 10
0.0
 20
0.0
  0
LWPOLYLINE
  5
192
100
AcDbEntity
  8
ASSEMBLY_OUTLINES_BTM
100
AcDbPolyline
 90
        4
 70
         1
 43
0.1
 10
78.8
 20
148.5
 10
78.8
 20
151.4
 10
80.1
 20
151.4
 10
80.1
 20
148.5
  0
LWPOLYLINE
  5
193
100
AcDbEntity
  8
ASSEMBLY_OUTLINES_BTM
100
AcDbPolyline
 90
        4
 70
         1
 43
0.1
 10
74.3
 20
150.2
 10
74.3
 20
153.0
 10
75.6
 20
153.0
 10
75.6
 20
150.2
  0
LWPOLYLINE
  5
194
100
AcDbEntity
  8
ASSEMBLY_OUTLINES_BTM
100
AcDbPolyline
 90
        4
 70
         1
 43
0.1
 10
70.7
 20
153.0
 10
70.7
 20
155.8
 10
72.0
 20
155.8
 10
72.0
 20
153.0
  0
LWPOLYLINE
  5
195
100
AcDbEntity
  8
ASSEMBLY_OUTLINES_BTM
100
AcDbPolyline
 90
        4
 70
         1
 43
0.1
 10
77.1
 20
145.95
 10
77.1
 20
148.75
 10
78.4
 20
148.75
 10
78.4
 20
145.95
  0
LWPOLYLINE
  5
196
100
AcDbEntity
  8
ASSEMBLY_OUTLINES_BTM
100
AcDbPolyline
 90
        4
 70
         1
 43
0.1
 10
58.5
 20
125.2
 10
58.5
 20
126.0
 10
60.2
 20
126.0
 10
60.2
 20
125.2
  0
LWPOLYLINE
  5
197
100
AcDbEntity
  8
ASSEMBLY_OUTLINES_BTM
100
AcDbPolyline
 90
        4
 70
         1
 43
0.1
 10
59.35
 20
120.6
 10
59.35
 20
122.3
 10
60.15
 20
122.3
 10
60.15
 20
120.6
  0
LWPOLYLINE
  5
198
100
AcDbEntity
  8
ASSEMBLY_OUTLINES_BTM
100
AcDbPolyline
 90
        2
 70
         0
 10
68.85
 20
111.75
 10
76.35
 20
111.75
  0
LWPOLYLINE
  5
199
100
AcDbEntity
  8
ASSEMBLY_OUTLINES_BTM
100
AcDbPolyline
 90
        2
 70
         0
 10
68.85
 20
107.75
 10
76.35
 20
107.75
  0
LWPOLYLINE
  5
19A
100
AcDbEntity
  8
ASSEMBLY_OUTLINES_BTM
100
AcDbPolyline
 90
        2
 70
         0
 10
76.35
 20
111.75
 42
-1.0
 10
76.35
 20
107.75
  0
LWPOLYLINE
  5
19B
100
AcDbEntity
  8
ASSEMBLY_OUTLINES_BTM
100
AcDbPolyline
 90
        2
 70
         0
 10
68.85
 20
107.75
 42
-1.0
 10
68.85
 20
111.75
  0
LWPOLYLINE
  5
19C
100
AcDbEntity
  8
ASSEMBLY_OUTLINES_BTM
100
AcDbPolyline
 90
        4
 70
         1
 43
0.1
 10
64.95
 20
124.25
 10
64.95
 20
125.95
 10
65.75
 20
125.95
 10
65.75
 20
124.25
  0
LWPOLYLINE
  5
19D
100
AcDbEntity
  8
ASSEMBLY_OUTLINES_BTM
100
AcDbPolyline
 90
        4
 70
         1
 43
0.1
 10
62.55
 20
146.2
 10
62.55
 20
147.5
 10
65.35
 20
147.5
 10
65.35
 20
146.2
  0
LWPOLYLINE
  5
19E
100
AcDbEntity
  8
ASSEMBLY_OUTLINES_BTM
100
AcDbPolyline
 90
        4
 70
         1
 43
0.1
 10
67.35
 20
127.6
 10
67.35
 20
128.4
 10
69.05
 20
128.4
 10
69.05
 20
127.6
  0
LWPOLYLINE
  5
19F
100
AcDbEntity
  8
ASSEMBLY_OUTLINES_BTM
100
AcDbPolyline
 90
        4
 70
         1
 43
0.1
 10
66.5
 20
116.35
 10
66.5
 20
118.05
 10
67.3
 20
118.05
 10
67.3
 20
116.35
  0
LWPOLYLINE
  5
1A0
100
AcDbEntity
  8
ASSEMBLY_OUTLINES_BTM
100
AcDbPolyline
 90
        4
 70
         1
 43
0.1
 10
70.7
 20
143.05
 10
70.7
 20
145.85
 10
72.0
 20
145.85
 10
72.0
 20
143.05
  0
LWPOLYLINE
  5
1A1
100
AcDbEntity
  8
ASSEMBLY_OUTLINES_BTM
100
AcDbPolyline
 90
        4
 70
         1
 43
0.1
 10
80.9
 20
141.8
 10
80.9
 20
143.1
 10
83.7
 20
143.1
 10
83.7
 20
141.8
  0
LWPOLYLINE
  5
1A2
100
AcDbEntity
  8
ASSEMBLY_OUTLINES_BTM
100
AcDbPolyline
 90
        4
 70
         1
 43
0.1
 10
61.55
 20
144.5
 10
61.55
 20
145.8
 10
64.35
 20
145.8
 10
64.35
 20
144.5
  0
LWPOLYLINE
  5
1A3
100
AcDbEntity
  8
ASSEMBLY_OUTLINES_BTM
100
AcDbPolyline
 90
        4
 70
         1
 43
0.1
 10
68.85
 20
151.15
 10
68.85
 20
153.95
 10
70.15
 20
153.95
 10
70.15
 20
151.15
  0
SOLID
  5
1A4
100
AcDbEntity
  8
ASSEMBLY_OUTLINES_TOP
100
AcDbTrace
 10
83.35
 20
90.9
 30
0.0
 11
88.35
 21
90.9
 31
0.0
 12
83.35
 22
103.4
 32
0.0
 13
88.35
 23
103.4
 33
0.0
  0
SOLID
  5
1A5
100
AcDbEntity
  8
ASSEMBLY_OUTLINES_TOP
100
AcDbTrace
 10
88.35
 20
89.95
 30
0.0
 11
93.35
 21
89.95
 31
0.0
 12
88.35
 22
104.45
 32
0.0
 13
93.35
 23
104.45
 33
0.0
  0
LWPOLYLINE
  5
1A6
100
AcDbEntity
  8
ASSEMBLY_OUTLINES_TOP
100
AcDbPolyline
 90
        4
 70
         1
 43
0.25
 10
36.35
 20
87.95
 10
36.35
 20
164.95
 10
93.35
 20
164.95
 10
93.35
 20
87.95
  0
CIRCLE
  5
1A7
100
AcDbEntity
  8
ASSEMBLY_OUTLINES_TOP
100
AcDbCircle
 10
47.95
 20
105.4
 30
0.0
 40
2.1
  0
CIRCLE
  5
1A8
100
AcDbEntity
  8
ASSEMBLY_OUTLINES_TOP
100
AcDbCircle
 10
47.95
 20
137.35
 30
0.0
 40
2.1
  0
HATCH
  5
1A9
100
AcDbEntity
  8
ASSEMBLY_OUTLINES_TOP
100
AcDbHatch
 10
0.0
 20
0.0
 30
0.0
210
0.0
220
0.0
230
1.0
  2
SOLID
 70
         1
 71
         1
 91
        1
 92
        1
 93
        1
 72
         2
 10
47.950000000000003
 20
137.34999999999999
 40
2.1000000000000001
 50
0.0
 51
360.0
 73
         1
 97
        1
330
1A8
 75
         0
 76
         1
 98
        1
 10
0.0
 20
0.0
  0
CIRCLE
  5
1AA
100
AcDbEntity
  8
ASSEMBLY_OUTLINES_TOP
100
AcDbCircle
 10
79.95
 20
137.4
 30
0.0
 40
2.1
  0
HATCH
  5
1AB
100
AcDbEntity
  8
ASSEMBLY_OUTLINES_TOP
100
AcDbHatch
 10
0.0
 20
0.0
 30
0.0
210
0.0
220
0.0
230
1.0
  2
SOLID
 70
         1
 71
         1
 91
        1
 92
        1
 93
        1
 72
         2
 10
79.950000000000003
 20
137.40000000000001
 40
2.1000000000000001
 50
0.0
 51
360.0
 73
         1
 97
        1
330
1AA
 75
         0
 76
         1
 98
        1
 10
0.0
 20
0.0
  0
CIRCLE
  5
1AC
100
AcDbEntity
  8
ASSEMBLY_OUTLINES_TOP
100
AcDbCircle
 10
79.95
 20
105.4
 30
0.0
 40
2.1
  0
HATCH
  5
1AD
100
AcDbEntity
  8
ASSEMBLY_OUTLINES_TOP
100
AcDbHatch
 10
0.0
 20
0.0
 30
0.0
210
0.0
220
0.0
230
1.0
  2
SOLID
 70
         1
 71
         1
 91
        1
 92
        1
 93
        1
 72
         2
 10
79.950000000000003
 20
105.40000000000001
 40
2.1000000000000001
 50
0.0
 51
360.0
 73
         1
 97
        1
330
1AC
 75
         0
 76
         1
 98
        1
 10
0.0
 20
0.0
  0
LWPOLYLINE
  5
1AE
100
AcDbEntity
  8
ASSEMBLY_OUTLINES_TOP
100
AcDbPolyline
 90
        2
 70
         0
 43
0.2032
 10
93.858
 20
164.95
 10
98.208
 20
164.95
  0
LWPOLYLINE
  5
1AF
100
AcDbEntity
  8
ASSEMBLY_OUTLINES_TOP
100
AcDbPolyline
 90
        2
 70
         0
 43
0.2032
 10
93.858
 20
87.95
 10
98.208
 20
87.95
  0
LWPOLYLINE
  5
1B0
100
AcDbEntity
  8
ASSEMBLY_OUTLINES_TOP
100
AcDbPolyline
 90
        2
 70
         0
 43
0.2032
 10
97.7
 20
164.3785
 10
97.7
 20
129.202597
  0
LWPOLYLINE
  5
1B1
100
AcDbEntity
  8
ASSEMBLY_OUTLINES_TOP
100
AcDbPolyline
 90
        2
 70
         0
 43
0.2032
 10
97.7
 20
123.697402
 10
97.7
 20
88.5215
  0
LWPOLYLINE
  5
1B2
100
AcDbEntity
  8
ASSEMBLY_OUTLINES_TOP
100
AcDbPolyline
 90
        3
 70
         1
 10
97.7
 20
164.95
 10
98.271499
 20
163.807
 10
97.1285
 20
163.807001
  0
HATCH
  5
1B3
100
AcDbEntity
  8
ASSEMBLY_OUTLINES_TOP
100
AcDbHatch
 10
0.0
 20
0.0
 30
0.0
210
0.0
220
0.0
230
1.0
  2
SOLID
 70
         1
 71
         1
 91
        1
 92
        2
 72
         0
 73
         1
 93
        3
 10
97.700000000000003
 20
164.94999999999999
 10
98.271499000000006
 20
163.80699999999999
 10
97.128500000000003
 20
163.80700100000001
 97
        1
330
1B2
 75
         0
 76
         1
 98
        1
 10
0.0
 20
0.0
  0
LWPOLYLINE
  5
1B4
100
AcDbEntity
  8
ASSEMBLY_OUTLINES_TOP
100
AcDbPolyline
 90
        3
 70
         1
 10
97.7
 20
87.95
 10
97.1285
 20
89.093
 10
98.2715
 20
89.093
  0
HATCH
  5
1B5
100
AcDbEntity
  8
ASSEMBLY_OUTLINES_TOP
100
AcDbHatch
 10
0.0
 20
0.0
 30
0.0
210
0.0
220
0.0
230
1.0
  2
SOLID
 70
         1
 71
         1
 91
        1
 92
        2
 72
         0
 73
         1
 93
        3
 10
97.700000000000003
 20
87.950000000000003
 10
97.128500000000003
 20
89.093000000000004
 10
98.271500000000003
 20
89.093000000000004
 97
        1
330
1B4
 75
         0
 76
         1
 98
        1
 10
0.0
 20
0.0
  0
LWPOLYLINE
  5
1B6
100
AcDbEntity
  8
ASSEMBLY_OUTLINES_TOP
100
AcDbPolyline
 90
        2
 70
         0
 43
0.2032
 10
36.35
 20
165.458
 10
36.35
 20
168.958
  0
LWPOLYLINE
  5
1B7
100
AcDbEntity
  8
ASSEMBLY_OUTLINES_TOP
100
AcDbPolyline
 90
        2
 70
         0
 43
0.2032
 10
93.35
 20
165.458
 10
93.35
 20
168.958
  0
LWPOLYLINE
  5
1B8
100
AcDbEntity
  8
ASSEMBLY_OUTLINES_TOP
100
AcDbPolyline
 90
        2
 70
         0
 43
0.2032
 10
36.9215
 20
168.45
 10
62.097402
 20
168.45
  0
LWPOLYLINE
  5
1B9
100
AcDbEntity
  8
ASSEMBLY_OUTLINES_TOP
100
AcDbPolyline
 90
        2
 70
         0
 43
0.2032
 10
67.602598
 20
168.45
 10
92.7785
 20
168.45
  0
LWPOLYLINE
  5
1BA
100
AcDbEntity
  8
ASSEMBLY_OUTLINES_TOP
100
AcDbPolyline
 90
        3
 70
         1
 10
36.35
 20
168.45
 10
37.493
 20
169.0215
 10
37.493
 20
167.8785
  0
HATCH
  5
1BB
100
AcDbEntity
  8
ASSEMBLY_OUTLINES_TOP
100
AcDbHatch
 10
0.0
 20
0.0
 30
0.0
210
0.0
220
0.0
230
1.0
  2
SOLID
 70
         1
 71
         1
 91
        1
 92
        2
 72
         0
 73
         1
 93
        3
 10
36.350000000000001
 20
168.44999999999999
 10
37.493000000000002
 20
169.0215
 10
37.493000000000002
 20
167.8785
 97
        1
330
1BA
 75
         0
 76
         1
 98
        1
 10
0.0
 20
0.0
  0
LWPOLYLINE
  5
1BC
100
AcDbEntity
  8
ASSEMBLY_OUTLINES_TOP
100
AcDbPolyline
 90
        3
 70
         1
 10
93.35
 20
168.45
 10
92.207
 20
167.878501
 10
92.207
 20
169.0215
  0
HATCH
  5
1BD
100
AcDbEntity
  8
ASSEMBLY_OUTLINES_TOP
100
AcDbHatch
 10
0.0
 20
0.0
 30
0.0
210
0.0
220
0.0
230
1.0
  2
SOLID
 70
         1
 71
         1
 91
        1
 92
        2
 72
         0
 73
         1
 93
        3
 10
93.349999999999994
 20
168.44999999999999
 10
92.206999999999994
 20
167.878501
 10
92.206999999999994
 20
169.0215
 97
        1
330
1BC
 75
         0
 76
         1
 98
        1
 10
0.0
 20
0.0
  0
TEXT
  5
1BF
100
AcDbEntity
  8
ASSEMBLY_OUTLINES_TOP
100
AcDbText
 10
98.335
 20
124.052241
 30
0.0
 40
1.27
  1
77mm
 50
90.0
  7
VERIBEST_GERBER_1
 72
         1
 11
97.7
 21
126.450001
 31
0.0
100
AcDbText
 73
         2
  0
TEXT
  5
1C0
100
AcDbEntity
  8
ASSEMBLY_OUTLINES_TOP
100
AcDbText
 10
62.45224
 20
167.815
 30
0.0
 40
1.27
  1
57mm
  7
VERIBEST_GERBER_1
 72
         1
 11
64.85
 21
168.45
 31
0.0
100
AcDbText
 73
         2
  0
LWPOLYLINE
  5
1C1
100
AcDbEntity
  8
ASSEMBLY_OUTLINES_TOP
100
AcDbPolyline
 90
        4
 70
         1
 43
0.1
 10
41.5
 20
136.9
 10
41.5
 20
139.8
 10
42.8
 20
139.8
 10
42.8
 20
136.9
  0
LWPOLYLINE
  5
1C2
100
AcDbEntity
  8
ASSEMBLY_OUTLINES_TOP
100
AcDbPolyline
 90
        4
 70
         1
 43
0.1
 10
72.8
 20
150.0
 10
72.8
 20
152.8
 10
74.1
 20
152.8
 10
74.1
 20
150.0
  0
LWPOLYLINE
  5
1C3
100
AcDbEntity
  8
ASSEMBLY_OUTLINES_TOP
100
AcDbPolyline
 90
        4
 70
         1
 43
0.1
 10
65.4
 20
156.3
 10
65.4
 20
157.6
 10
68.3
 20
157.6
 10
68.3
 20
156.3
  0
LWPOLYLINE
  5
1C4
100
AcDbEntity
  8
ASSEMBLY_OUTLINES_TOP
100
AcDbPolyline
 90
        4
 70
         1
 43
0.1
 10
71.75
 20
158.8
 10
71.75
 20
160.1
 10
74.65
 20
160.1
 10
74.65
 20
158.8
  0
LWPOLYLINE
  5
1C5
100
AcDbEntity
  8
ASSEMBLY_OUTLINES_TOP
100
AcDbPolyline
 90
        4
 70
         1
 43
0.1
 10
75.2
 20
114.4
 10
75.2
 20
115.7
 10
78.0
 20
115.7
 10
78.0
 20
114.4
  0
LWPOLYLINE
  5
1C6
100
AcDbEntity
  8
ASSEMBLY_OUTLINES_TOP
100
AcDbPolyline
 90
        4
 70
         1
 43
0.1
 10
79.6
 20
120.75
 10
79.6
 20
122.05
 10
82.5
 20
122.05
 10
82.5
 20
120.75
  0
LWPOLYLINE
  5
1C7
100
AcDbEntity
  8
ASSEMBLY_OUTLINES_TOP
100
AcDbPolyline
 90
        4
 70
         1
 43
0.1
 10
85.75
 20
107.3
 10
85.75
 20
108.6
 10
88.65
 20
108.6
 10
88.65
 20
107.3
  0
LWPOLYLINE
  5
1C8
100
AcDbEntity
  8
ASSEMBLY_OUTLINES_TOP
100
AcDbPolyline
 90
        4
 70
         1
 43
0.1
 10
88.9
 20
156.35
 10
88.9
 20
159.35
 10
91.9
 20
159.35
 10
91.9
 20
156.35
  0
LWPOLYLINE
  5
1C9
100
AcDbEntity
  8
ASSEMBLY_OUTLINES_TOP
100
AcDbPolyline
 90
        2
 70
         0
 43
0.1
 10
89.0
 20
156.35
 10
88.9
 20
156.45
  0
LWPOLYLINE
  5
1CA
100
AcDbEntity
  8
ASSEMBLY_OUTLINES_TOP
100
AcDbPolyline
 90
        2
 70
         0
 43
0.1
 10
89.1
 20
156.35
 10
88.9
 20
156.55
  0
LWPOLYLINE
  5
1CB
100
AcDbEntity
  8
ASSEMBLY_OUTLINES_TOP
100
AcDbPolyline
 90
        2
 70
         0
 43
0.1
 10
89.2
 20
156.35
 10
88.9
 20
156.65
  0
LWPOLYLINE
  5
1CC
100
AcDbEntity
  8
ASSEMBLY_OUTLINES_TOP
100
AcDbPolyline
 90
        2
 70
         0
 43
0.1
 10
89.3
 20
156.35
 10
88.9
 20
156.75
  0
LWPOLYLINE
  5
1CD
100
AcDbEntity
  8
ASSEMBLY_OUTLINES_TOP
100
AcDbPolyline
 90
        2
 70
         0
 43
0.1
 10
89.4
 20
156.35
 10
88.9
 20
156.85
  0
LWPOLYLINE
  5
1CE
100
AcDbEntity
  8
ASSEMBLY_OUTLINES_TOP
100
AcDbPolyline
 90
        2
 70
         0
 43
0.1
 10
89.5
 20
156.35
 10
88.9
 20
156.95
  0
LWPOLYLINE
  5
1CF
100
AcDbEntity
  8
ASSEMBLY_OUTLINES_TOP
100
AcDbPolyline
 90
        4
 70
         1
 43
0.1
 10
49.7
 20
120.65
 10
49.7
 20
122.45
 10
53.0
 20
122.45
 10
53.0
 20
120.65
  0
LWPOLYLINE
  5
1D0
100
AcDbEntity
  8
ASSEMBLY_OUTLINES_TOP
100
AcDbPolyline
 90
        4
 70
         1
 43
0.1
 10
50.1
 20
102.9
 10
50.1
 20
104.2
 10
53.0
 20
104.2
 10
53.0
 20
102.9
  0
LWPOLYLINE
  5
1D1
100
AcDbEntity
  8
ASSEMBLY_OUTLINES_TOP
100
AcDbPolyline
 90
        4
 70
         1
 43
0.1
 10
38.05
 20
148.4
 10
38.05
 20
151.4
 10
41.05
 20
151.4
 10
41.05
 20
148.4
  0
LWPOLYLINE
  5
1D2
100
AcDbEntity
  8
ASSEMBLY_OUTLINES_TOP
100
AcDbPolyline
 90
        2
 70
         0
 43
0.1
 10
40.95
 20
151.4
 10
41.05
 20
151.3
  0
LWPOLYLINE
  5
1D3
100
AcDbEntity
  8
ASSEMBLY_OUTLINES_TOP
100
AcDbPolyline
 90
        2
 70
         0
 43
0.1
 10
40.85
 20
151.4
 10
41.05
 20
151.2
  0
LWPOLYLINE
  5
1D4
100
AcDbEntity
  8
ASSEMBLY_OUTLINES_TOP
100
AcDbPolyline
 90
        2
 70
         0
 43
0.1
 10
40.75
 20
151.4
 10
41.05
 20
151.1
  0
LWPOLYLINE
  5
1D5
100
AcDbEntity
  8
ASSEMBLY_OUTLINES_TOP
100
AcDbPolyline
 90
        2
 70
         0
 43
0.1
 10
40.65
 20
151.4
 10
41.05
 20
151.0
  0
LWPOLYLINE
  5
1D6
100
AcDbEntity
  8
ASSEMBLY_OUTLINES_TOP
100
AcDbPolyline
 90
        2
 70
         0
 43
0.1
 10
40.55
 20
151.4
 10
41.05
 20
150.9
  0
LWPOLYLINE
  5
1D7
100
AcDbEntity
  8
ASSEMBLY_OUTLINES_TOP
100
AcDbPolyline
 90
        2
 70
         0
 43
0.1
 10
40.45
 20
151.4
 10
41.05
 20
150.8
  0
LWPOLYLINE
  5
1D8
100
AcDbEntity
  8
ASSEMBLY_OUTLINES_TOP
100
AcDbPolyline
 90
        4
 70
         1
 43
0.1
 10
53.65
 20
113.05
 10
53.65
 20
134.05
 10
74.65
 20
134.05
 10
74.65
 20
113.05
  0
LWPOLYLINE
  5
1D9
100
AcDbEntity
  8
ASSEMBLY_OUTLINES_TOP
100
AcDbPolyline
 90
        2
 70
         0
 43
0.1
 10
74.55
 20
113.05
 10
74.65
 20
113.15
  0
LWPOLYLINE
  5
1DA
100
AcDbEntity
  8
ASSEMBLY_OUTLINES_TOP
100
AcDbPolyline
 90
        2
 70
         0
 43
0.1
 10
74.45
 20
113.05
 10
74.65
 20
113.25
  0
LWPOLYLINE
  5
1DB
100
AcDbEntity
  8
ASSEMBLY_OUTLINES_TOP
100
AcDbPolyline
 90
        2
 70
         0
 43
0.1
 10
74.35
 20
113.05
 10
74.65
 20
113.35
  0
LWPOLYLINE
  5
1DC
100
AcDbEntity
  8
ASSEMBLY_OUTLINES_TOP
100
AcDbPolyline
 90
        2
 70
         0
 43
0.1
 10
74.25
 20
113.05
 10
74.65
 20
113.45
  0
LWPOLYLINE
  5
1DD
100
AcDbEntity
  8
ASSEMBLY_OUTLINES_TOP
100
AcDbPolyline
 90
        2
 70
         0
 43
0.1
 10
74.15
 20
113.05
 10
74.65
 20
113.55
  0
LWPOLYLINE
  5
1DE
100
AcDbEntity
  8
ASSEMBLY_OUTLINES_TOP
100
AcDbPolyline
 90
        2
 70
         0
 43
0.1
 10
74.05
 20
113.05
 10
74.65
 20
113.65
  0
LWPOLYLINE
  5
1DF
100
AcDbEntity
  8
ASSEMBLY_OUTLINES_TOP
100
AcDbPolyline
 90
        2
 70
         0
 43
0.1
 10
73.95
 20
113.05
 10
74.65
 20
113.75
  0
LWPOLYLINE
  5
1E0
100
AcDbEntity
  8
ASSEMBLY_OUTLINES_TOP
100
AcDbPolyline
 90
        2
 70
         0
 43
0.1
 10
73.85
 20
113.05
 10
74.65
 20
113.85
  0
LWPOLYLINE
  5
1E1
100
AcDbEntity
  8
ASSEMBLY_OUTLINES_TOP
100
AcDbPolyline
 90
        2
 70
         0
 43
0.1
 10
73.75
 20
113.05
 10
74.65
 20
113.95
  0
LWPOLYLINE
  5
1E2
100
AcDbEntity
  8
ASSEMBLY_OUTLINES_TOP
100
AcDbPolyline
 90
        2
 70
         0
 43
0.1
 10
73.65
 20
113.05
 10
74.65
 20
114.05
  0
LWPOLYLINE
  5
1E3
100
AcDbEntity
  8
ASSEMBLY_OUTLINES_TOP
100
AcDbPolyline
 90
        4
 70
         1
 43
0.1
 10
39.35
 20
112.05
 10
39.35
 20
115.05
 10
42.35
 20
115.05
 10
42.35
 20
112.05
  0
LWPOLYLINE
  5
1E4
100
AcDbEntity
  8
ASSEMBLY_OUTLINES_TOP
100
AcDbPolyline
 90
        2
 70
         0
 43
0.1
 10
42.35
 20
112.15
 10
42.25
 20
112.05
  0
LWPOLYLINE
  5
1E5
100
AcDbEntity
  8
ASSEMBLY_OUTLINES_TOP
100
AcDbPolyline
 90
        2
 70
         0
 43
0.1
 10
42.35
 20
112.25
 10
42.15
 20
112.05
  0
LWPOLYLINE
  5
1E6
100
AcDbEntity
  8
ASSEMBLY_OUTLINES_TOP
100
AcDbPolyline
 90
        2
 70
         0
 43
0.1
 10
42.35
 20
112.35
 10
42.05
 20
112.05
  0
LWPOLYLINE
  5
1E7
100
AcDbEntity
  8
ASSEMBLY_OUTLINES_TOP
100
AcDbPolyline
 90
        2
 70
         0
 43
0.1
 10
42.35
 20
112.45
 10
41.95
 20
112.05
  0
LWPOLYLINE
  5
1E8
100
AcDbEntity
  8
ASSEMBLY_OUTLINES_TOP
100
AcDbPolyline
 90
        2
 70
         0
 43
0.1
 10
42.35
 20
112.55
 10
41.85
 20
112.05
  0
LWPOLYLINE
  5
1E9
100
AcDbEntity
  8
ASSEMBLY_OUTLINES_TOP
100
AcDbPolyline
 90
        2
 70
         0
 43
0.1
 10
42.35
 20
112.65
 10
41.75
 20
112.05
  0
LWPOLYLINE
  5
1EA
100
AcDbEntity
  8
ASSEMBLY_OUTLINES_TOP
100
AcDbPolyline
 90
        8
 70
         1
 43
0.1
 10
91.0
 20
155.05
 10
87.7
 20
155.05
 42
0.4142135624
 10
86.7
 20
154.05
 10
86.7
 20
150.85
 42
0.4142135624
 10
87.7
 20
149.85
 10
91.0
 20
149.85
 42
0.4142135624
 10
92.0
 20
150.85
 10
92.0
 20
154.05
 42
0.4142135624
  0
LWPOLYLINE
  5
1EB
100
AcDbEntity
  8
ASSEMBLY_OUTLINES_TOP
100
AcDbPolyline
 90
        4
 70
         1
 43
0.1
 10
39.375
 20
124.75
 10
39.375
 20
127.75
 10
42.375
 20
127.75
 10
42.375
 20
124.75
  0
LWPOLYLINE
  5
1EC
100
AcDbEntity
  8
ASSEMBLY_OUTLINES_TOP
100
AcDbPolyline
 90
        2
 70
         0
 43
0.1
 10
42.375
 20
124.85
 10
42.275
 20
124.75
  0
LWPOLYLINE
  5
1ED
100
AcDbEntity
  8
ASSEMBLY_OUTLINES_TOP
100
AcDbPolyline
 90
        2
 70
         0
 43
0.1
 10
42.375
 20
124.95
 10
42.175
 20
124.75
  0
LWPOLYLINE
  5
1EE
100
AcDbEntity
  8
ASSEMBLY_OUTLINES_TOP
100
AcDbPolyline
 90
        2
 70
         0
 43
0.1
 10
42.375
 20
125.05
 10
42.075
 20
124.75
  0
LWPOLYLINE
  5
1EF
100
AcDbEntity
  8
ASSEMBLY_OUTLINES_TOP
100
AcDbPolyline
 90
        2
 70
         0
 43
0.1
 10
42.375
 20
125.15
 10
41.975
 20
124.75
  0
LWPOLYLINE
  5
1F0
100
AcDbEntity
  8
ASSEMBLY_OUTLINES_TOP
100
AcDbPolyline
 90
        2
 70
         0
 43
0.1
 10
42.375
 20
125.25
 10
41.875
 20
124.75
  0
LWPOLYLINE
  5
1F1
100
AcDbEntity
  8
ASSEMBLY_OUTLINES_TOP
100
AcDbPolyline
 90
        2
 70
         0
 43
0.1
 10
42.375
 20
125.35
 10
41.775
 20
124.75
  0
LWPOLYLINE
  5
1F2
100
AcDbEntity
  8
ASSEMBLY_OUTLINES_TOP
100
AcDbPolyline
 90
        4
 70
         1
 43
0.1
 10
62.35
 20
104.1
 10
62.35
 20
105.4
 10
65.15
 20
105.4
 10
65.15
 20
104.1
  0
LWPOLYLINE
  5
1F3
100
AcDbEntity
  8
ASSEMBLY_OUTLINES_TOP
100
AcDbPolyline
 90
        4
 70
         1
 43
0.1
 10
74.2
 20
150.2
 10
74.2
 20
153.0
 10
75.5
 20
153.0
 10
75.5
 20
150.2
  0
LWPOLYLINE
  5
1F4
100
AcDbEntity
  8
ASSEMBLY_OUTLINES_TOP
100
AcDbPolyline
 90
        4
 70
         1
 43
0.1
 10
72.65
 20
108.0
 10
72.65
 20
110.8
 10
73.95
 20
110.8
 10
73.95
 20
108.0
  0
LWPOLYLINE
  5
1F5
100
AcDbEntity
  8
ASSEMBLY_OUTLINES_TOP
100
AcDbPolyline
 90
        4
 70
         1
 43
0.1
 10
72.2
 20
146.75
 10
72.2
 20
150.05
 10
74.0
 20
150.05
 10
74.0
 20
146.75
  0
LWPOLYLINE
  5
1F6
100
AcDbEntity
  8
ASSEMBLY_OUTLINES_TOP
100
AcDbPolyline
 90
        4
 70
         1
 43
0.1
 10
83.45
 20
158.6
 10
83.45
 20
159.9
 10
86.35
 20
159.9
 10
86.35
 20
158.6
  0
LWPOLYLINE
  5
1F7
100
AcDbEntity
  8
ASSEMBLY_OUTLINES_TOP
100
AcDbPolyline
 90
        4
 70
         1
 43
0.1
 10
72.2
 20
152.8
 10
72.2
 20
156.1
 10
74.0
 20
156.1
 10
74.0
 20
152.8
  0
LWPOLYLINE
  5
1F8
100
AcDbEntity
  8
ASSEMBLY_OUTLINES_TOP
100
AcDbPolyline
 90
        4
 70
         1
 10
90.38
 20
92.28
 10
90.38
 20
94.82
 10
92.92
 20
94.82
 10
92.92
 20
92.28
  0
LWPOLYLINE
  5
1F9
100
AcDbEntity
  8
ASSEMBLY_OUTLINES_TOP
100
AcDbPolyline
 90
        4
 70
         1
 43
0.1
 10
37.4
 20
102.05
 10
37.4
 20
103.35
 10
40.3
 20
103.35
 10
40.3
 20
102.05
  0
LWPOLYLINE
  5
1FA
100
AcDbEntity
  8
ASSEMBLY_OUTLINES_TOP
100
AcDbPolyline
 90
        4
 70
         1
 43
0.1
 10
75.9
 20
127.05
 10
75.9
 20
128.35
 10
78.7
 20
128.35
 10
78.7
 20
127.05
  0
LWPOLYLINE
  5
1FB
100
AcDbEntity
  8
ASSEMBLY_OUTLINES_TOP
100
AcDbPolyline
 90
        4
 70
         1
 43
0.1
 10
75.1
 20
115.7
 10
75.1
 20
117.5
 10
78.4
 20
117.5
 10
78.4
 20
115.7
  0
LWPOLYLINE
  5
1FC
100
AcDbEntity
  8
ASSEMBLY_OUTLINES_TOP
100
AcDbPolyline
 90
        4
 70
         1
 43
0.1
 10
61.2
 20
146.6
 10
61.2
 20
149.4
 10
62.5
 20
149.4
 10
62.5
 20
146.6
  0
LWPOLYLINE
  5
1FD
100
AcDbEntity
  8
ASSEMBLY_OUTLINES_TOP
100
AcDbPolyline
 90
        4
 70
         1
 43
0.1
 10
41.2
 20
132.75
 10
41.2
 20
134.05
 10
44.1
 20
134.05
 10
44.1
 20
132.75
  0
LWPOLYLINE
  5
1FE
100
AcDbEntity
  8
ASSEMBLY_OUTLINES_TOP
100
AcDbPolyline
 90
        4
 70
         1
 43
0.1
 10
83.7
 20
146.6
 10
83.7
 20
149.4
 10
85.0
 20
149.4
 10
85.0
 20
146.6
  0
LWPOLYLINE
  5
1FF
100
AcDbEntity
  8
ASSEMBLY_OUTLINES_TOP
100
AcDbPolyline
 90
        4
 70
         1
 43
0.1
 10
81.5
 20
156.25
 10
81.5
 20
157.55
 10
84.4
 20
157.55
 10
84.4
 20
156.25
  0
LWPOLYLINE
  5
200
100
AcDbEntity
  8
ASSEMBLY_OUTLINES_TOP
100
AcDbPolyline
 90
        4
 70
         1
 43
0.1
 10
38.45
 20
115.35
 10
38.45
 20
118.25
 10
39.75
 20
118.25
 10
39.75
 20
115.35
  0
LWPOLYLINE
  5
201
100
AcDbEntity
  8
ASSEMBLY_OUTLINES_TOP
100
AcDbPolyline
 90
        4
 70
         1
 43
0.1
 10
84.75
 20
109.25
 10
84.75
 20
110.55
 10
87.65
 20
110.55
 10
87.65
 20
109.25
  0
LWPOLYLINE
  5
202
100
AcDbEntity
  8
ASSEMBLY_OUTLINES_TOP
100
AcDbPolyline
 90
        4
 70
         1
 43
0.1
 10
66.45
 20
98.9
 10
66.45
 20
101.8
 10
67.75
 20
101.8
 10
67.75
 20
98.9
  0
LWPOLYLINE
  5
203
100
AcDbEntity
  8
ASSEMBLY_OUTLINES_TOP
100
AcDbPolyline
 90
        4
 70
         1
 43
0.1
 10
39.9
 20
115.45
 10
39.9
 20
118.25
 10
41.2
 20
118.25
 10
41.2
 20
115.45
  0
LWPOLYLINE
  5
204
100
AcDbEntity
  8
ASSEMBLY_OUTLINES_TOP
100
AcDbPolyline
 90
        4
 70
         1
 43
0.1
 10
56.85
 20
134.55
 10
56.85
 20
135.85
 10
59.75
 20
135.85
 10
59.75
 20
134.55
  0
LWPOLYLINE
  5
205
100
AcDbEntity
  8
ASSEMBLY_OUTLINES_TOP
100
AcDbPolyline
 90
        4
 70
         1
 43
0.1
 10
49.35
 20
115.5
 10
49.35
 20
116.8
 10
52.25
 20
116.8
 10
52.25
 20
115.5
  0
LWPOLYLINE
  5
206
100
AcDbEntity
  8
ASSEMBLY_OUTLINES_TOP
100
AcDbPolyline
 90
        4
 70
         1
 43
0.1
 10
61.2
 20
152.9
 10
61.2
 20
155.7
 10
62.5
 20
155.7
 10
62.5
 20
152.9
  0
LWPOLYLINE
  5
207
100
AcDbEntity
  8
ASSEMBLY_OUTLINES_TOP
100
AcDbPolyline
 90
        4
 70
         1
 43
0.1
 10
36.75
 20
158.0
 10
36.75
 20
159.8
 10
40.05
 20
159.8
 10
40.05
 20
158.0
  0
LWPOLYLINE
  5
208
100
AcDbEntity
  8
ASSEMBLY_OUTLINES_TOP
100
AcDbPolyline
 90
        4
 70
         1
 43
0.1
 10
75.9
 20
142.65
 10
75.9
 20
155.95
 10
83.4
 20
155.95
 10
83.4
 20
142.65
  0
LWPOLYLINE
  5
209
100
AcDbEntity
  8
ASSEMBLY_OUTLINES_TOP
100
AcDbPolyline
 90
        2
 70
         0
 43
0.1
 10
83.25
 20
142.65
 10
83.35
 20
142.75
  0
LWPOLYLINE
  5
20A
100
AcDbEntity
  8
ASSEMBLY_OUTLINES_TOP
100
AcDbPolyline
 90
        2
 70
         0
 43
0.1
 10
83.15
 20
142.65
 10
83.35
 20
142.85
  0
LWPOLYLINE
  5
20B
100
AcDbEntity
  8
ASSEMBLY_OUTLINES_TOP
100
AcDbPolyline
 90
        2
 70
         0
 43
0.1
 10
83.05
 20
142.65
 10
83.35
 20
142.95
  0
LWPOLYLINE
  5
20C
100
AcDbEntity
  8
ASSEMBLY_OUTLINES_TOP
100
AcDbPolyline
 90
        2
 70
         0
 43
0.1
 10
82.95
 20
142.65
 10
83.35
 20
143.05
  0
LWPOLYLINE
  5
20D
100
AcDbEntity
  8
ASSEMBLY_OUTLINES_TOP
100
AcDbPolyline
 90
        2
 70
         0
 43
0.1
 10
82.85
 20
142.65
 10
83.35
 20
143.15
  0
LWPOLYLINE
  5
20E
100
AcDbEntity
  8
ASSEMBLY_OUTLINES_TOP
100
AcDbPolyline
 90
        2
 70
         0
 43
0.1
 10
82.75
 20
142.65
 10
83.35
 20
143.25
  0
LWPOLYLINE
  5
20F
100
AcDbEntity
  8
ASSEMBLY_OUTLINES_TOP
100
AcDbPolyline
 90
        2
 70
         0
 43
0.1
 10
82.65
 20
142.65
 10
83.35
 20
143.35
  0
LWPOLYLINE
  5
210
100
AcDbEntity
  8
ASSEMBLY_OUTLINES_TOP
100
AcDbPolyline
 90
        2
 70
         0
 43
0.1
 10
82.55
 20
142.65
 10
83.35
 20
143.45
  0
LWPOLYLINE
  5
211
100
AcDbEntity
  8
ASSEMBLY_OUTLINES_TOP
100
AcDbPolyline
 90
        2
 70
         0
 43
0.1
 10
82.45
 20
142.65
 10
83.35
 20
143.55
  0
LWPOLYLINE
  5
212
100
AcDbEntity
  8
ASSEMBLY_OUTLINES_TOP
100
AcDbPolyline
 90
        2
 70
         0
 43
0.1
 10
82.35
 20
142.65
 10
83.35
 20
143.65
  0
LWPOLYLINE
  5
213
100
AcDbEntity
  8
ASSEMBLY_OUTLINES_TOP
100
AcDbPolyline
 90
        4
 70
         1
 43
0.1
 10
36.95
 20
130.95
 10
36.95
 20
132.25
 10
39.85
 20
132.25
 10
39.85
 20
130.95
  0
LWPOLYLINE
  5
214
100
AcDbEntity
  8
ASSEMBLY_OUTLINES_TOP
100
AcDbPolyline
 90
        4
 70
         1
 43
0.1
 10
37.75
 20
142.45
 10
37.75
 20
143.25
 10
38.95
 20
143.25
 10
38.95
 20
142.45
  0
LWPOLYLINE
  5
215
100
AcDbEntity
  8
ASSEMBLY_OUTLINES_TOP
100
AcDbPolyline
 90
        2
 70
         0
 43
0.1
 10
37.75
 20
142.45
 10
37.75
 20
143.25
  0
LWPOLYLINE
  5
216
100
AcDbEntity
  8
ASSEMBLY_OUTLINES_TOP
100
AcDbPolyline
 90
        2
 70
         0
 43
0.1
 10
37.85
 20
142.45
 10
37.85
 20
143.25
  0
LWPOLYLINE
  5
217
100
AcDbEntity
  8
ASSEMBLY_OUTLINES_TOP
100
AcDbPolyline
 90
        2
 70
         0
 43
0.1
 10
37.95
 20
142.45
 10
37.95
 20
143.25
  0
LWPOLYLINE
  5
218
100
AcDbEntity
  8
ASSEMBLY_OUTLINES_TOP
100
AcDbPolyline
 90
        2
 70
         0
 43
0.1
 10
38.05
 20
142.45
 10
38.05
 20
143.25
  0
LWPOLYLINE
  5
219
100
AcDbEntity
  8
ASSEMBLY_OUTLINES_TOP
100
AcDbPolyline
 90
        2
 70
         0
 43
0.1
 10
38.15
 20
142.45
 10
38.15
 20
143.25
  0
LWPOLYLINE
  5
21A
100
AcDbEntity
  8
ASSEMBLY_OUTLINES_TOP
100
AcDbPolyline
 90
        2
 70
         0
 43
0.1
 10
38.25
 20
142.45
 10
38.25
 20
143.25
  0
LWPOLYLINE
  5
21B
100
AcDbEntity
  8
ASSEMBLY_OUTLINES_TOP
100
AcDbPolyline
 90
        4
 70
         1
 43
0.1
 10
66.0
 20
90.7
 10
66.0
 20
94.0
 10
67.8
 20
94.0
 10
67.8
 20
90.7
  0
LWPOLYLINE
  5
21C
100
AcDbEntity
  8
ASSEMBLY_OUTLINES_TOP
100
AcDbPolyline
 90
        4
 70
         1
 43
0.1
 10
41.8
 20
95.2
 10
41.8
 20
98.0
 10
43.1
 20
98.0
 10
43.1
 20
95.2
  0
LWPOLYLINE
  5
21D
100
AcDbEntity
  8
ASSEMBLY_OUTLINES_TOP
100
AcDbPolyline
 90
        4
 70
         1
 43
0.1
 10
67.45
 20
108.85
 10
67.45
 20
112.15
 10
69.25
 20
112.15
 10
69.25
 20
108.85
  0
LWPOLYLINE
  5
21E
100
AcDbEntity
  8
ASSEMBLY_OUTLINES_TOP
100
AcDbPolyline
 90
        4
 70
         1
 43
0.1
 10
85.3
 20
140.05
 10
85.3
 20
141.35
 10
88.1
 20
141.35
 10
88.1
 20
140.05
  0
LWPOLYLINE
  5
21F
100
AcDbEntity
  8
ASSEMBLY_OUTLINES_TOP
100
AcDbPolyline
 90
        4
 70
         1
 43
0.1
 10
37.2
 20
98.4
 10
37.2
 20
99.7
 10
40.1
 20
99.7
 10
40.1
 20
98.4
  0
LWPOLYLINE
  5
220
100
AcDbEntity
  8
ASSEMBLY_OUTLINES_TOP
100
AcDbPolyline
 90
        4
 70
         1
 43
0.1
 10
65.15
 20
98.9
 10
65.15
 20
101.8
 10
66.45
 20
101.8
 10
66.45
 20
98.9
  0
LWPOLYLINE
  5
221
100
AcDbEntity
  8
ASSEMBLY_OUTLINES_TOP
100
AcDbPolyline
 90
        4
 70
         1
 43
0.1
 10
86.55
 20
103.95
 10
86.55
 20
106.95
 10
87.95
 20
106.95
 10
87.95
 20
103.95
  0
LWPOLYLINE
  5
222
100
AcDbEntity
  8
ASSEMBLY_OUTLINES_TOP
100
AcDbPolyline
 90
        2
 70
         0
 43
0.1
 10
86.55
 20
106.85
 10
86.65
 20
106.95
  0
LWPOLYLINE
  5
223
100
AcDbEntity
  8
ASSEMBLY_OUTLINES_TOP
100
AcDbPolyline
 90
        2
 70
         0
 43
0.1
 10
86.55
 20
106.75
 10
86.75
 20
106.95
  0
LWPOLYLINE
  5
224
100
AcDbEntity
  8
ASSEMBLY_OUTLINES_TOP
100
AcDbPolyline
 90
        2
 70
         0
 43
0.1
 10
86.55
 20
106.65
 10
86.85
 20
106.95
  0
LWPOLYLINE
  5
225
100
AcDbEntity
  8
ASSEMBLY_OUTLINES_TOP
100
AcDbPolyline
 90
        2
 70
         0
 43
0.1
 10
86.55
 20
106.55
 10
86.95
 20
106.95
  0
LWPOLYLINE
  5
226
100
AcDbEntity
  8
ASSEMBLY_OUTLINES_TOP
100
AcDbPolyline
 90
        2
 70
         0
 43
0.1
 10
86.55
 20
106.45
 10
87.05
 20
106.95
  0
LWPOLYLINE
  5
227
100
AcDbEntity
  8
ASSEMBLY_OUTLINES_TOP
100
AcDbPolyline
 90
        2
 70
         0
 43
0.1
 10
86.55
 20
106.35
 10
87.15
 20
106.95
  0
LWPOLYLINE
  5
228
100
AcDbEntity
  8
ASSEMBLY_OUTLINES_TOP
100
AcDbPolyline
 90
        4
 70
         1
 43
0.1
 10
78.55
 20
156.25
 10
78.55
 20
157.55
 10
81.45
 20
157.55
 10
81.45
 20
156.25
  0
LWPOLYLINE
  5
229
100
AcDbEntity
  8
ASSEMBLY_OUTLINES_TOP
100
AcDbPolyline
 90
        4
 70
         1
 43
0.1
 10
50.25
 20
110.0
 10
50.25
 20
113.3
 10
52.05
 20
113.3
 10
52.05
 20
110.0
  0
LWPOLYLINE
  5
22A
100
AcDbEntity
  8
ASSEMBLY_OUTLINES_TOP
100
AcDbPolyline
 90
        4
 70
         1
 43
0.1
 10
71.2
 20
108.0
 10
71.2
 20
110.8
 10
72.5
 20
110.8
 10
72.5
 20
108.0
  0
LWPOLYLINE
  5
22B
100
AcDbEntity
  8
ASSEMBLY_OUTLINES_TOP
100
AcDbPolyline
 90
        4
 70
         1
 43
0.1
 10
41.2
 20
135.45
 10
41.2
 20
136.75
 10
44.1
 20
136.75
 10
44.1
 20
135.45
  0
LWPOLYLINE
  5
22C
100
AcDbEntity
  8
ASSEMBLY_OUTLINES_TOP
100
AcDbPolyline
 90
        4
 70
         1
 43
0.1
 10
83.7
 20
142.65
 10
83.7
 20
145.45
 10
85.0
 20
145.45
 10
85.0
 20
142.65
  0
LWPOLYLINE
  5
22D
100
AcDbEntity
  8
ASSEMBLY_OUTLINES_TOP
100
AcDbPolyline
 90
        4
 70
         1
 43
0.1
 10
83.0
 20
117.2
 10
83.0
 20
118.5
 10
85.8
 20
118.5
 10
85.8
 20
117.2
  0
LWPOLYLINE
  5
22E
100
AcDbEntity
  8
ASSEMBLY_OUTLINES_TOP
100
AcDbPolyline
 90
        4
 70
         1
 43
0.1
 10
36.95
 20
136.55
 10
36.95
 20
137.85
 10
39.85
 20
137.85
 10
39.85
 20
136.55
  0
LWPOLYLINE
  5
22F
100
AcDbEntity
  8
ASSEMBLY_OUTLINES_TOP
100
AcDbPolyline
 90
        4
 70
         1
 43
0.1
 10
59.75
 20
134.55
 10
59.75
 20
135.85
 10
62.65
 20
135.85
 10
62.65
 20
134.55
  0
LWPOLYLINE
  5
230
100
AcDbEntity
  8
ASSEMBLY_OUTLINES_TOP
100
AcDbPolyline
 90
        4
 70
         1
 43
0.1
 10
66.15
 20
109.25
 10
66.15
 20
112.05
 10
67.45
 20
112.05
 10
67.45
 20
109.25
  0
LWPOLYLINE
  5
231
100
AcDbEntity
  8
ASSEMBLY_OUTLINES_TOP
100
AcDbPolyline
 90
        4
 70
         1
 43
0.1
 10
79.9
 20
125.05
 10
79.9
 20
127.95
 10
81.2
 20
127.95
 10
81.2
 20
125.05
  0
LWPOLYLINE
  5
232
100
AcDbEntity
  8
ASSEMBLY_OUTLINES_TOP
100
AcDbPolyline
 90
        4
 70
         1
 43
0.1
 10
81.4
 20
107.45
 10
81.4
 20
108.75
 10
84.3
 20
108.75
 10
84.3
 20
107.45
  0
LWPOLYLINE
  5
233
100
AcDbEntity
  8
ASSEMBLY_OUTLINES_TOP
100
AcDbPolyline
 90
        4
 70
         1
 43
0.1
 10
75.6
 20
156.25
 10
75.6
 20
157.55
 10
78.5
 20
157.55
 10
78.5
 20
156.25
  0
LWPOLYLINE
  5
234
100
AcDbEntity
  8
ASSEMBLY_OUTLINES_TOP
100
AcDbPolyline
 90
        4
 70
         1
 43
0.1
 10
40.85
 20
105.15
 10
40.85
 20
106.45
 10
43.75
 20
106.45
 10
43.75
 20
105.15
  0
LWPOLYLINE
  5
235
100
AcDbEntity
  8
ASSEMBLY_OUTLINES_TOP
100
AcDbPolyline
 90
        4
 70
         1
 43
0.1
 10
83.65
 20
150.25
 10
83.65
 20
153.05
 10
84.95
 20
153.05
 10
84.95
 20
150.25
  0
LWPOLYLINE
  5
236
100
AcDbEntity
  8
ASSEMBLY_OUTLINES_TOP
100
AcDbPolyline
 90
        4
 70
         1
 43
0.1
 10
41.2
 20
134.1
 10
41.2
 20
135.4
 10
44.1
 20
135.4
 10
44.1
 20
134.1
  0
LWPOLYLINE
  5
237
100
AcDbEntity
  8
ASSEMBLY_OUTLINES_TOP
100
AcDbPolyline
 90
        4
 70
         1
 43
0.1
 10
85.9
 20
146.25
 10
85.9
 20
149.55
 10
87.7
 20
149.55
 10
87.7
 20
146.25
  0
LWPOLYLINE
  5
238
100
AcDbEntity
  8
ASSEMBLY_OUTLINES_TOP
100
AcDbPolyline
 90
        4
 70
         1
 43
0.1
 10
75.95
 20
120.7
 10
75.95
 20
122.0
 10
78.75
 20
122.0
 10
78.75
 20
120.7
  0
LWPOLYLINE
  5
239
100
AcDbEntity
  8
ASSEMBLY_OUTLINES_TOP
100
AcDbPolyline
 90
        4
 70
         1
 43
0.1
 10
74.9
 20
132.65
 10
74.9
 20
135.45
 10
76.2
 20
135.45
 10
76.2
 20
132.65
  0
LWPOLYLINE
  5
23A
100
AcDbEntity
  8
ASSEMBLY_OUTLINES_TOP
100
AcDbPolyline
 90
        4
 70
         1
 43
0.1
 10
61.65
 20
107.4
 10
61.65
 20
108.7
 10
64.45
 20
108.7
 10
64.45
 20
107.4
  0
LWPOLYLINE
  5
23B
100
AcDbEntity
  8
ASSEMBLY_OUTLINES_TOP
100
AcDbPolyline
 90
        4
 70
         1
 43
0.1
 10
36.75
 20
159.8
 10
36.75
 20
161.6
 10
40.05
 20
161.6
 10
40.05
 20
159.8
  0
LWPOLYLINE
  5
23C
100
AcDbEntity
  8
ASSEMBLY_OUTLINES_TOP
100
AcDbPolyline
 90
        4
 70
         1
 10
44.48
 20
104.53
 10
44.48
 20
109.61
 10
47.02
 20
109.61
 10
47.02
 20
104.53
  0
LWPOLYLINE
  5
23D
100
AcDbEntity
  8
ASSEMBLY_OUTLINES_TOP
100
AcDbPolyline
 90
        4
 70
         1
 43
0.1
 10
75.95
 20
119.4
 10
75.95
 20
120.7
 10
78.75
 20
120.7
 10
78.75
 20
119.4
  0
LWPOLYLINE
  5
23E
100
AcDbEntity
  8
ASSEMBLY_OUTLINES_TOP
100
AcDbPolyline
 90
        4
 70
         1
 43
0.1
 10
38.375
 20
122.75
 10
38.375
 20
124.55
 10
41.675
 20
124.55
 10
41.675
 20
122.75
  0
LWPOLYLINE
  5
23F
100
AcDbEntity
  8
ASSEMBLY_OUTLINES_TOP
100
AcDbPolyline
 90
        4
 70
         1
 43
0.1
 10
90.15
 20
146.2
 10
90.15
 20
149.5
 10
91.95
 20
149.5
 10
91.95
 20
146.2
  0
LWPOLYLINE
  5
240
100
AcDbEntity
  8
ASSEMBLY_OUTLINES_TOP
100
AcDbPolyline
 90
        4
 70
         1
 43
0.1
 10
56.0
 20
136.25
 10
56.0
 20
138.05
 10
59.3
 20
138.05
 10
59.3
 20
136.25
  0
LWPOLYLINE
  5
241
100
AcDbEntity
  8
ASSEMBLY_OUTLINES_TOP
100
AcDbPolyline
 90
        4
 70
         1
 43
0.1
 10
85.25
 20
144.1
 10
85.25
 20
145.4
 10
88.15
 20
145.4
 10
88.15
 20
144.1
  0
LWPOLYLINE
  5
242
100
AcDbEntity
  8
ASSEMBLY_OUTLINES_TOP
100
AcDbPolyline
 90
        4
 70
         1
 43
0.1
 10
85.25
 20
142.65
 10
85.25
 20
143.95
 10
88.15
 20
143.95
 10
88.15
 20
142.65
  0
LWPOLYLINE
  5
243
100
AcDbEntity
  8
ASSEMBLY_OUTLINES_TOP
100
AcDbPolyline
 90
        4
 70
         1
 43
0.1
 10
37.45
 20
104.15
 10
37.45
 20
105.45
 10
40.35
 20
105.45
 10
40.35
 20
104.15
  0
LWPOLYLINE
  5
244
100
AcDbEntity
  8
ASSEMBLY_OUTLINES_TOP
100
AcDbPolyline
 90
        4
 70
         1
 43
0.1
 10
61.2
 20
149.95
 10
61.2
 20
152.75
 10
62.5
 20
152.75
 10
62.5
 20
149.95
  0
LWPOLYLINE
  5
245
100
AcDbEntity
  8
ASSEMBLY_OUTLINES_TOP
100
AcDbPolyline
 90
        4
 70
         1
 43
0.1
 10
70.7
 20
153.15
 10
70.7
 20
155.95
 10
72.0
 20
155.95
 10
72.0
 20
153.15
  0
LWPOLYLINE
  5
246
100
AcDbEntity
  8
ASSEMBLY_OUTLINES_TOP
100
AcDbPolyline
 90
        4
 70
         1
 43
0.1
 10
36.95
 20
135.15
 10
36.95
 20
136.45
 10
39.85
 20
136.45
 10
39.85
 20
135.15
  0
LWPOLYLINE
  5
247
100
AcDbEntity
  8
ASSEMBLY_OUTLINES_TOP
100
AcDbPolyline
 90
        4
 70
         1
 43
0.1
 10
87.85
 20
135.65
 10
87.85
 20
136.95
 10
90.75
 20
136.95
 10
90.75
 20
135.65
  0
LWPOLYLINE
  5
248
100
AcDbEntity
  8
ASSEMBLY_OUTLINES_TOP
100
AcDbPolyline
 90
        4
 70
         1
 43
0.1
 10
48.45
 20
110.0
 10
48.45
 20
113.3
 10
50.25
 20
113.3
 10
50.25
 20
110.0
  0
LWPOLYLINE
  5
249
100
AcDbEntity
  8
ASSEMBLY_OUTLINES_TOP
100
AcDbPolyline
 90
        4
 70
         1
 10
45.15
 20
145.8
 10
45.15
 20
157.9
 10
58.55
 20
157.9
 10
58.55
 20
145.8
  0
LWPOLYLINE
  5
24A
100
AcDbEntity
  8
ASSEMBLY_OUTLINES_TOP
100
AcDbPolyline
 90
        4
 70
         1
 10
46.85
 20
157.9
 10
46.85
 20
164.9
 10
57.85
 20
164.9
 10
57.85
 20
157.9
  0
LWPOLYLINE
  5
24B
100
AcDbEntity
  8
ASSEMBLY_OUTLINES_TOP
100
AcDbPolyline
 90
        4
 70
         1
 43
0.1
 10
51.35
 20
105.95
 10
51.35
 20
108.85
 10
52.65
 20
108.85
 10
52.65
 20
105.95
  0
LWPOLYLINE
  5
24C
100
AcDbEntity
  8
ASSEMBLY_OUTLINES_TOP
100
AcDbPolyline
 90
        4
 70
         1
 43
0.1
 10
85.2
 20
152.35
 10
85.2
 20
155.25
 10
86.5
 20
155.25
 10
86.5
 20
152.35
  0
LWPOLYLINE
  5
24D
100
AcDbEntity
  8
ASSEMBLY_OUTLINES_TOP
100
AcDbPolyline
 90
        4
 70
         1
 43
0.1
 10
70.7
 20
146.7
 10
70.7
 20
149.5
 10
72.0
 20
149.5
 10
72.0
 20
146.7
  0
LWPOLYLINE
  5
24E
100
AcDbEntity
  8
ASSEMBLY_OUTLINES_TOP
100
AcDbPolyline
 90
        4
 70
         1
 43
0.1
 10
82.925
 20
113.875
 10
82.925
 20
116.925
 10
84.675
 20
116.925
 10
84.675
 20
113.875
  0
LWPOLYLINE
  5
24F
100
AcDbEntity
  8
ASSEMBLY_OUTLINES_TOP
100
AcDbPolyline
 90
        2
 70
         0
 43
0.1
 10
84.675
 20
113.975
 10
84.575
 20
113.875
  0
LWPOLYLINE
  5
250
100
AcDbEntity
  8
ASSEMBLY_OUTLINES_TOP
100
AcDbPolyline
 90
        2
 70
         0
 43
0.1
 10
84.675
 20
114.075
 10
84.475
 20
113.875
  0
LWPOLYLINE
  5
251
100
AcDbEntity
  8
ASSEMBLY_OUTLINES_TOP
100
AcDbPolyline
 90
        2
 70
         0
 43
0.1
 10
84.675
 20
114.175
 10
84.375
 20
113.875
  0
LWPOLYLINE
  5
252
100
AcDbEntity
  8
ASSEMBLY_OUTLINES_TOP
100
AcDbPolyline
 90
        2
 70
         0
 43
0.1
 10
84.675
 20
114.275
 10
84.275
 20
113.875
  0
LWPOLYLINE
  5
253
100
AcDbEntity
  8
ASSEMBLY_OUTLINES_TOP
100
AcDbPolyline
 90
        2
 70
         0
 43
0.1
 10
84.675
 20
114.375
 10
84.175
 20
113.875
  0
LWPOLYLINE
  5
254
100
AcDbEntity
  8
ASSEMBLY_OUTLINES_TOP
100
AcDbPolyline
 90
        2
 70
         0
 43
0.1
 10
84.675
 20
114.475
 10
84.075
 20
113.875
  0
LWPOLYLINE
  5
255
100
AcDbEntity
  8
ASSEMBLY_OUTLINES_TOP
100
AcDbPolyline
 90
        4
 70
         1
 43
0.1
 10
62.35
 20
105.7
 10
62.35
 20
107.0
 10
65.15
 20
107.0
 10
65.15
 20
105.7
  0
LWPOLYLINE
  5
256
100
AcDbEntity
  8
ASSEMBLY_OUTLINES_TOP
100
AcDbPolyline
 90
        4
 70
         1
 43
0.1
 10
74.2
 20
153.15
 10
74.2
 20
155.95
 10
75.5
 20
155.95
 10
75.5
 20
153.15
  0
LWPOLYLINE
  5
257
100
AcDbEntity
  8
ASSEMBLY_OUTLINES_TOP
100
AcDbPolyline
 90
        4
 70
         1
 43
0.1
 10
40.675
 20
130.1
 10
40.675
 20
131.4
 10
43.575
 20
131.4
 10
43.575
 20
130.1
  0
LWPOLYLINE
  5
258
100
AcDbEntity
  8
ASSEMBLY_OUTLINES_TOP
100
AcDbPolyline
 90
        4
 70
         1
 43
0.1
 10
80.0
 20
115.45
 10
80.0
 20
118.75
 10
81.8
 20
118.75
 10
81.8
 20
115.45
  0
LWPOLYLINE
  5
259
100
AcDbEntity
  8
ASSEMBLY_OUTLINES_TOP
100
AcDbPolyline
 90
        4
 70
         1
 43
0.1
 10
81.65
 20
127.95
 10
81.65
 20
130.75
 10
82.95
 20
130.75
 10
82.95
 20
127.95
  0
LWPOLYLINE
  5
25A
100
AcDbEntity
  8
ASSEMBLY_OUTLINES_TOP
100
AcDbPolyline
 90
        4
 70
         1
 43
0.1
 10
75.75
 20
123.8
 10
75.75
 20
125.6
 10
79.05
 20
125.6
 10
79.05
 20
123.8
  0
LWPOLYLINE
  5
25B
100
AcDbEntity
  8
ASSEMBLY_OUTLINES_TOP
100
AcDbPolyline
 90
        4
 70
         1
 43
0.1
 10
40.85
 20
107.1
 10
40.85
 20
108.4
 10
43.75
 20
108.4
 10
43.75
 20
107.1
  0
LWPOLYLINE
  5
25C
100
AcDbEntity
  8
ASSEMBLY_OUTLINES_TOP
100
AcDbPolyline
 90
        4
 70
         1
 43
0.1
 10
44.1
 20
102.9
 10
44.1
 20
104.2
 10
47.0
 20
104.2
 10
47.0
 20
102.9
  0
LWPOLYLINE
  5
25D
100
AcDbEntity
  8
ASSEMBLY_OUTLINES_TOP
100
AcDbPolyline
 90
        4
 70
         1
 43
0.1
 10
75.1
 20
117.6
 10
75.1
 20
119.4
 10
78.4
 20
119.4
 10
78.4
 20
117.6
  0
LWPOLYLINE
  5
25E
100
AcDbEntity
  8
ASSEMBLY_OUTLINES_TOP
100
AcDbPolyline
 90
        4
 70
         1
 43
0.1
 10
80.0
 20
118.85
 10
80.0
 20
120.65
 10
83.3
 20
120.65
 10
83.3
 20
118.85
  0
LWPOLYLINE
  5
25F
100
AcDbEntity
  8
ASSEMBLY_OUTLINES_TOP
100
AcDbPolyline
 90
        4
 70
         1
 43
0.1
 10
81.3
 20
110.9
 10
81.3
 20
112.2
 10
84.2
 20
112.2
 10
84.2
 20
110.9
  0
LWPOLYLINE
  5
260
100
AcDbEntity
  8
ASSEMBLY_OUTLINES_TOP
100
AcDbPolyline
 90
        4
 70
         1
 43
0.1
 10
53.95
 20
134.55
 10
53.95
 20
135.85
 10
56.85
 20
135.85
 10
56.85
 20
134.55
  0
LWPOLYLINE
  5
261
100
AcDbEntity
  8
ASSEMBLY_OUTLINES_TOP
100
AcDbPolyline
 90
        4
 70
         1
 43
0.1
 10
70.7
 20
143.05
 10
70.7
 20
145.85
 10
72.0
 20
145.85
 10
72.0
 20
143.05
  0
LWPOLYLINE
  5
262
100
AcDbEntity
  8
ASSEMBLY_OUTLINES_TOP
100
AcDbPolyline
 90
        4
 70
         1
 43
0.1
 10
44.8
 20
90.45
 10
44.8
 20
102.55
 10
63.3
 20
102.55
 10
63.3
 20
90.45
  0
LWPOLYLINE
  5
263
100
AcDbEntity
  8
ASSEMBLY_OUTLINES_TOP
100
AcDbPolyline
 90
        2
 70
         1
 43
0.1
 10
61.8
 20
91.45
 42
-1.0
 10
62.8
 20
91.45
 42
-1.0
  0
LWPOLYLINE
  5
264
100
AcDbEntity
  8
ASSEMBLY_OUTLINES_TOP
100
AcDbPolyline
 90
        4
 70
         1
 43
0.1
 10
51.75
 20
137.75
 10
51.75
 20
141.75
 10
55.75
 20
141.75
 10
55.75
 20
137.75
  0
LWPOLYLINE
  5
265
100
AcDbEntity
  8
ASSEMBLY_OUTLINES_TOP
100
AcDbPolyline
 90
        2
 70
         0
 43
0.1
 10
51.75
 20
137.85
 10
51.85
 20
137.75
  0
LWPOLYLINE
  5
266
100
AcDbEntity
  8
ASSEMBLY_OUTLINES_TOP
100
AcDbPolyline
 90
        2
 70
         0
 43
0.1
 10
51.75
 20
137.95
 10
51.95
 20
137.75
  0
LWPOLYLINE
  5
267
100
AcDbEntity
  8
ASSEMBLY_OUTLINES_TOP
100
AcDbPolyline
 90
        2
 70
         0
 43
0.1
 10
51.75
 20
138.05
 10
52.05
 20
137.75
  0
LWPOLYLINE
  5
268
100
AcDbEntity
  8
ASSEMBLY_OUTLINES_TOP
100
AcDbPolyline
 90
        2
 70
         0
 43
0.1
 10
51.75
 20
138.15
 10
52.15
 20
137.75
  0
LWPOLYLINE
  5
269
100
AcDbEntity
  8
ASSEMBLY_OUTLINES_TOP
100
AcDbPolyline
 90
        2
 70
         0
 43
0.1
 10
51.75
 20
138.25
 10
52.25
 20
137.75
  0
LWPOLYLINE
  5
26A
100
AcDbEntity
  8
ASSEMBLY_OUTLINES_TOP
100
AcDbPolyline
 90
        2
 70
         0
 43
0.1
 10
51.75
 20
138.35
 10
52.35
 20
137.75
  0
LWPOLYLINE
  5
26B
100
AcDbEntity
  8
ASSEMBLY_OUTLINES_TOP
100
AcDbPolyline
 90
        2
 70
         0
 43
0.1
 10
51.75
 20
138.45
 10
52.45
 20
137.75
  0
LWPOLYLINE
  5
26C
100
AcDbEntity
  8
ASSEMBLY_OUTLINES_TOP
100
AcDbPolyline
 90
        2
 70
         0
 43
0.1
 10
51.75
 20
138.55
 10
52.55
 20
137.75
  0
LWPOLYLINE
  5
26D
100
AcDbEntity
  8
ASSEMBLY_OUTLINES_TOP
100
AcDbPolyline
 90
        2
 70
         0
 43
0.1
 10
51.75
 20
138.65
 10
52.65
 20
137.75
  0
LWPOLYLINE
  5
26E
100
AcDbEntity
  8
ASSEMBLY_OUTLINES_TOP
100
AcDbPolyline
 90
        2
 70
         0
 43
0.1
 10
51.75
 20
138.75
 10
52.75
 20
137.75
  0
LWPOLYLINE
  5
26F
100
AcDbEntity
  8
ASSEMBLY_OUTLINES_TOP
100
AcDbPolyline
 90
        4
 70
         1
 43
0.1
 10
36.95
 20
139.45
 10
36.95
 20
140.75
 10
39.85
 20
140.75
 10
39.85
 20
139.45
  0
LWPOLYLINE
  5
270
100
AcDbEntity
  8
ASSEMBLY_OUTLINES_TOP
100
AcDbPolyline
 90
        4
 70
         1
 43
0.1
 10
43.15
 20
115.65
 10
43.15
 20
116.95
 10
46.05
 20
116.95
 10
46.05
 20
115.65
  0
LWPOLYLINE
  5
271
100
AcDbEntity
  8
ASSEMBLY_OUTLINES_TOP
100
AcDbPolyline
 90
        4
 70
         1
 10
36.78
 20
92.88
 10
36.78
 20
95.42
 10
39.32
 20
95.42
 10
39.32
 20
92.88
  0
LWPOLYLINE
  5
272
100
AcDbEntity
  8
ASSEMBLY_OUTLINES_TOP
100
AcDbPolyline
 90
        4
 70
         1
 43
0.1
 10
89.25
 20
105.45
 10
89.25
 20
106.75
 10
92.15
 20
106.75
 10
92.15
 20
105.45
  0
LWPOLYLINE
  5
273
100
AcDbEntity
  8
ASSEMBLY_OUTLINES_TOP
100
AcDbPolyline
 90
        4
 70
         1
 43
0.1
 10
61.2
 20
143.0
 10
61.2
 20
145.8
 10
62.5
 20
145.8
 10
62.5
 20
143.0
  0
LWPOLYLINE
  5
274
100
AcDbEntity
  8
ASSEMBLY_OUTLINES_TOP
100
AcDbPolyline
 90
        4
 70
         1
 43
0.1
 10
83.65
 20
153.15
 10
83.65
 20
155.95
 10
84.95
 20
155.95
 10
84.95
 20
153.15
  0
LWPOLYLINE
  5
275
100
AcDbEntity
  8
ASSEMBLY_OUTLINES_TOP
100
AcDbPolyline
 90
        4
 70
         1
 43
0.1
 10
62.9
 20
142.65
 10
62.9
 20
155.95
 10
70.4
 20
155.95
 10
70.4
 20
142.65
  0
LWPOLYLINE
  5
276
100
AcDbEntity
  8
ASSEMBLY_OUTLINES_TOP
100
AcDbPolyline
 90
        2
 70
         0
 43
0.1
 10
70.3
 20
142.65
 10
70.4
 20
142.75
  0
LWPOLYLINE
  5
277
100
AcDbEntity
  8
ASSEMBLY_OUTLINES_TOP
100
AcDbPolyline
 90
        2
 70
         0
 43
0.1
 10
70.2
 20
142.65
 10
70.4
 20
142.85
  0
LWPOLYLINE
  5
278
100
AcDbEntity
  8
ASSEMBLY_OUTLINES_TOP
100
AcDbPolyline
 90
        2
 70
         0
 43
0.1
 10
70.1
 20
142.65
 10
70.4
 20
142.95
  0
LWPOLYLINE
  5
279
100
AcDbEntity
  8
ASSEMBLY_OUTLINES_TOP
100
AcDbPolyline
 90
        2
 70
         0
 43
0.1
 10
70.0
 20
142.65
 10
70.4
 20
143.05
  0
LWPOLYLINE
  5
27A
100
AcDbEntity
  8
ASSEMBLY_OUTLINES_TOP
100
AcDbPolyline
 90
        2
 70
         0
 43
0.1
 10
69.9
 20
142.65
 10
70.4
 20
143.15
  0
LWPOLYLINE
  5
27B
100
AcDbEntity
  8
ASSEMBLY_OUTLINES_TOP
100
AcDbPolyline
 90
        2
 70
         0
 43
0.1
 10
69.8
 20
142.65
 10
70.4
 20
143.25
  0
LWPOLYLINE
  5
27C
100
AcDbEntity
  8
ASSEMBLY_OUTLINES_TOP
100
AcDbPolyline
 90
        2
 70
         0
 43
0.1
 10
69.7
 20
142.65
 10
70.4
 20
143.35
  0
LWPOLYLINE
  5
27D
100
AcDbEntity
  8
ASSEMBLY_OUTLINES_TOP
100
AcDbPolyline
 90
        2
 70
         0
 43
0.1
 10
69.6
 20
142.65
 10
70.4
 20
143.45
  0
LWPOLYLINE
  5
27E
100
AcDbEntity
  8
ASSEMBLY_OUTLINES_TOP
100
AcDbPolyline
 90
        2
 70
         0
 43
0.1
 10
69.5
 20
142.65
 10
70.4
 20
143.55
  0
LWPOLYLINE
  5
27F
100
AcDbEntity
  8
ASSEMBLY_OUTLINES_TOP
100
AcDbPolyline
 90
        2
 70
         0
 43
0.1
 10
69.4
 20
142.65
 10
70.4
 20
143.65
  0
LWPOLYLINE
  5
280
100
AcDbEntity
  8
ASSEMBLY_OUTLINES_TOP
100
AcDbPolyline
 90
        4
 70
         1
 43
0.1
 10
61.8
 20
141.15
 10
61.8
 20
142.45
 10
64.6
 20
142.45
 10
64.6
 20
141.15
  0
LWPOLYLINE
  5
281
100
AcDbEntity
  8
ASSEMBLY_OUTLINES_TOP
100
AcDbPolyline
 90
        4
 70
         1
 43
0.1
 10
40.05
 20
142.0
 10
40.05
 20
144.8
 10
41.35
 20
144.8
 10
41.35
 20
142.0
  0
LWPOLYLINE
  5
282
100
AcDbEntity
  8
ASSEMBLY_OUTLINES_TOP
100
AcDbPolyline
 90
        4
 70
         1
 43
0.1
 10
52.15
 20
133.55
 10
52.15
 20
136.45
 10
53.45
 20
136.45
 10
53.45
 20
133.55
  0
LWPOLYLINE
  5
283
100
AcDbEntity
  8
ASSEMBLY_OUTLINES_TOP
100
AcDbPolyline
 90
        4
 70
         1
 43
0.1
 10
43.45
 20
155.15
 10
43.45
 20
158.05
 10
44.75
 20
158.05
 10
44.75
 20
155.15
  0
LWPOLYLINE
  5
284
100
AcDbEntity
  8
ASSEMBLY_OUTLINES_TOP
100
AcDbPolyline
 90
        4
 70
         1
 43
0.1
 10
67.15
 20
104.65
 10
67.15
 20
107.55
 10
68.45
 20
107.55
 10
68.45
 20
104.65
  0
LWPOLYLINE
  5
285
100
AcDbEntity
  8
ASSEMBLY_OUTLINES_TOP
100
AcDbPolyline
 90
        4
 70
         1
 43
0.1
 10
57.55
 20
103.2
 10
57.55
 20
104.5
 10
60.45
 20
104.5
 10
60.45
 20
103.2
  0
LWPOLYLINE
  5
286
100
AcDbEntity
  8
ASSEMBLY_OUTLINES_TOP
100
AcDbPolyline
 90
        4
 70
         1
 43
0.1
 10
84.85
 20
110.8
 10
84.85
 20
113.7
 10
86.15
 20
113.7
 10
86.15
 20
110.8
  0
LWPOLYLINE
  5
287
100
AcDbEntity
  8
ASSEMBLY_OUTLINES_TOP
100
AcDbPolyline
 90
        4
 70
         1
 43
0.1
 10
37.575
 20
128.0
 10
37.575
 20
129.3
 10
40.475
 20
129.3
 10
40.475
 20
128.0
  0
LWPOLYLINE
  5
288
100
AcDbEntity
  8
ASSEMBLY_OUTLINES_TOP
100
AcDbPolyline
 90
        4
 70
         1
 43
0.1
 10
47.1
 20
102.9
 10
47.1
 20
104.2
 10
50.0
 20
104.2
 10
50.0
 20
102.9
  0
LWPOLYLINE
  5
289
100
AcDbEntity
  8
ASSEMBLY_OUTLINES_TOP
100
AcDbPolyline
 90
        4
 70
         1
 43
0.1
 10
43.45
 20
148.6
 10
43.45
 20
151.5
 10
44.75
 20
151.5
 10
44.75
 20
148.6
  0
LWPOLYLINE
  5
28A
100
AcDbEntity
  8
ASSEMBLY_OUTLINES_TOP
100
AcDbPolyline
 90
        4
 70
         1
 43
0.1
 10
43.75
 20
130.55
 10
43.75
 20
132.35
 10
47.05
 20
132.35
 10
47.05
 20
130.55
  0
LWPOLYLINE
  5
28B
100
AcDbEntity
  8
ASSEMBLY_OUTLINES_TOP
100
AcDbPolyline
 90
        4
 70
         1
 43
0.1
 10
41.1
 20
102.9
 10
41.1
 20
104.2
 10
44.0
 20
104.2
 10
44.0
 20
102.9
  0
LWPOLYLINE
  5
28C
100
AcDbEntity
  8
ASSEMBLY_OUTLINES_TOP
100
AcDbPolyline
 90
        4
 70
         1
 43
0.1
 10
60.0
 20
108.9
 10
60.0
 20
111.7
 10
61.3
 20
111.7
 10
61.3
 20
108.9
  0
LWPOLYLINE
  5
28D
100
AcDbEntity
  8
ASSEMBLY_OUTLINES_TOP
100
AcDbPolyline
 90
        4
 70
         1
 43
0.1
 10
36.95
 20
138.0
 10
36.95
 20
139.3
 10
39.85
 20
139.3
 10
39.85
 20
138.0
  0
LWPOLYLINE
  5
28E
100
AcDbEntity
  8
ASSEMBLY_OUTLINES_TOP
100
AcDbPolyline
 90
        4
 70
         1
 43
0.1
 10
75.2
 20
112.9
 10
75.2
 20
114.2
 10
78.1
 20
114.2
 10
78.1
 20
112.9
  0
LWPOLYLINE
  5
28F
100
AcDbEntity
  8
ASSEMBLY_OUTLINES_TOP
100
AcDbPolyline
 90
        8
 70
         1
 43
0.1
 10
42.9
 20
114.25
 10
42.9
 20
110.95
 42
0.4142135624
 10
43.9
 20
109.95
 10
47.1
 20
109.95
 42
0.4142135624
 10
48.1
 20
110.95
 10
48.1
 20
114.25
 42
0.4142135624
 10
47.1
 20
115.25
 10
43.9
 20
115.25
 42
0.4142135624
  0
LWPOLYLINE
  5
290
100
AcDbEntity
  8
ASSEMBLY_OUTLINES_TOP
100
AcDbPolyline
 90
        4
 70
         1
 43
0.1
 10
36.95
 20
132.35
 10
36.95
 20
133.65
 10
39.85
 20
133.65
 10
39.85
 20
132.35
  0
LWPOLYLINE
  5
291
100
AcDbEntity
  8
ASSEMBLY_OUTLINES_TOP
100
AcDbPolyline
 90
        4
 70
         1
 43
0.1
 10
68.75
 20
106.45
 10
68.75
 20
107.75
 10
71.55
 20
107.75
 10
71.55
 20
106.45
  0
LWPOLYLINE
  5
292
100
AcDbEntity
  8
ASSEMBLY_OUTLINES_TOP
100
AcDbPolyline
 90
        4
 70
         1
 43
0.1
 10
44.3
 20
128.65
 10
44.3
 20
130.45
 10
47.6
 20
130.45
 10
47.6
 20
128.65
  0
LWPOLYLINE
  5
293
100
AcDbEntity
  8
ASSEMBLY_OUTLINES_TOP
100
AcDbPolyline
 90
        4
 70
         1
 43
0.1
 10
65.1
 20
95.15
 10
65.1
 20
97.95
 10
66.4
 20
97.95
 10
66.4
 20
95.15
  0
LWPOLYLINE
  5
294
100
AcDbEntity
  8
ASSEMBLY_OUTLINES_TOP
100
AcDbPolyline
 90
        4
 70
         1
 43
0.1
 10
85.2
 20
155.35
 10
85.2
 20
158.25
 10
86.5
 20
158.25
 10
86.5
 20
155.35
  0
LWPOLYLINE
  5
295
100
AcDbEntity
  8
ASSEMBLY_OUTLINES_TOP
100
AcDbPolyline
 90
        4
 70
         1
 43
0.1
 10
89.050001
 20
107.65
 10
89.050001
 20
129.75
 10
93.15
 20
129.75
 10
93.15
 20
107.65
  0
LWPOLYLINE
  5
296
100
AcDbEntity
  8
ASSEMBLY_OUTLINES_TOP
100
AcDbPolyline
 90
        4
 70
         1
 43
0.1
 10
81.6
 20
109.1
 10
81.6
 20
110.4
 10
84.5
 20
110.4
 10
84.5
 20
109.1
  0
LWPOLYLINE
  5
297
100
AcDbEntity
  8
ASSEMBLY_OUTLINES_TOP
100
AcDbPolyline
 90
        4
 70
         1
 43
0.1
 10
49.65
 20
122.95
 10
49.65
 20
124.75
 10
52.95
 20
124.75
 10
52.95
 20
122.95
  0
LWPOLYLINE
  5
298
100
AcDbEntity
  8
ASSEMBLY_OUTLINES_TOP
100
AcDbPolyline
 90
        8
 70
         1
 43
0.1
 10
38.8
 20
152.4
 10
42.1
 20
152.4
 42
0.4142135624
 10
43.1
 20
153.4
 10
43.1
 20
156.6
 42
0.4142135624
 10
42.1
 20
157.6
 10
38.8
 20
157.6
 42
0.4142135624
 10
37.8
 20
156.6
 10
37.8
 20
153.4
 42
0.4142135624
  0
LWPOLYLINE
  5
299
100
AcDbEntity
  8
ASSEMBLY_OUTLINES_TOP
100
AcDbPolyline
 90
        4
 70
         1
 43
0.1
 10
78.95
 20
108.05
 10
78.95
 20
111.05
 10
80.35
 20
111.05
 10
80.35
 20
108.05
  0
LWPOLYLINE
  5
29A
100
AcDbEntity
  8
ASSEMBLY_OUTLINES_TOP
100
AcDbPolyline
 90
        2
 70
         0
 43
0.1
 10
78.95
 20
110.95
 10
79.05
 20
111.05
  0
LWPOLYLINE
  5
29B
100
AcDbEntity
  8
ASSEMBLY_OUTLINES_TOP
100
AcDbPolyline
 90
        2
 70
         0
 43
0.1
 10
78.95
 20
110.85
 10
79.15
 20
111.05
  0
LWPOLYLINE
  5
29C
100
AcDbEntity
  8
ASSEMBLY_OUTLINES_TOP
100
AcDbPolyline
 90
        2
 70
         0
 43
0.1
 10
78.95
 20
110.75
 10
79.25
 20
111.05
  0
LWPOLYLINE
  5
29D
100
AcDbEntity
  8
ASSEMBLY_OUTLINES_TOP
100
AcDbPolyline
 90
        2
 70
         0
 43
0.1
 10
78.95
 20
110.65
 10
79.35
 20
111.05
  0
LWPOLYLINE
  5
29E
100
AcDbEntity
  8
ASSEMBLY_OUTLINES_TOP
100
AcDbPolyline
 90
        2
 70
         0
 43
0.1
 10
78.95
 20
110.55
 10
79.45
 20
111.05
  0
LWPOLYLINE
  5
29F
100
AcDbEntity
  8
ASSEMBLY_OUTLINES_TOP
100
AcDbPolyline
 90
        2
 70
         0
 43
0.1
 10
78.95
 20
110.45
 10
79.55
 20
111.05
  0
LWPOLYLINE
  5
2A0
100
AcDbEntity
  8
ASSEMBLY_OUTLINES_TOP
100
AcDbPolyline
 90
        4
 70
         1
 43
0.1
 10
50.5
 20
134.5
 10
50.5
 20
137.4
 10
51.8
 20
137.4
 10
51.8
 20
134.5
  0
LWPOLYLINE
  5
2A1
100
AcDbEntity
  8
ASSEMBLY_OUTLINES_TOP
100
AcDbPolyline
 90
        4
 70
         1
 43
0.1
 10
74.25
 20
143.0
 10
74.25
 20
145.8
 10
75.55
 20
145.8
 10
75.55
 20
143.0
  0
LWPOLYLINE
  5
2A2
100
AcDbEntity
  8
ASSEMBLY_OUTLINES_TOP
100
AcDbPolyline
 90
        4
 70
         1
 43
0.1
 10
70.7
 20
150.2
 10
70.7
 20
153.0
 10
72.0
 20
153.0
 10
72.0
 20
150.2
  0
LWPOLYLINE
  5
2A3
100
AcDbEntity
  8
ASSEMBLY_OUTLINES_TOP
100
AcDbPolyline
 90
        4
 70
         1
 43
0.1
 10
50.65
 20
131.6
 10
50.65
 20
134.5
 10
51.95
 20
134.5
 10
51.95
 20
131.6
  0
LWPOLYLINE
  5
2A4
100
AcDbEntity
  8
ASSEMBLY_OUTLINES_TOP
100
AcDbPolyline
 90
        4
 70
         1
 43
0.1
 10
62.45
 20
156.3
 10
62.45
 20
157.6
 10
65.35
 20
157.6
 10
65.35
 20
156.3
  0
LWPOLYLINE
  5
2A5
100
AcDbEntity
  8
ASSEMBLY_OUTLINES_TOP
100
AcDbPolyline
 90
        4
 70
         1
 43
0.1
 10
83.1
 20
103.95
 10
83.1
 20
106.95
 10
84.5
 20
106.95
 10
84.5
 20
103.95
  0
LWPOLYLINE
  5
2A6
100
AcDbEntity
  8
ASSEMBLY_OUTLINES_TOP
100
AcDbPolyline
 90
        2
 70
         0
 43
0.1
 10
83.1
 20
106.85
 10
83.2
 20
106.95
  0
LWPOLYLINE
  5
2A7
100
AcDbEntity
  8
ASSEMBLY_OUTLINES_TOP
100
AcDbPolyline
 90
        2
 70
         0
 43
0.1
 10
83.1
 20
106.75
 10
83.3
 20
106.95
  0
LWPOLYLINE
  5
2A8
100
AcDbEntity
  8
ASSEMBLY_OUTLINES_TOP
100
AcDbPolyline
 90
        2
 70
         0
 43
0.1
 10
83.1
 20
106.65
 10
83.4
 20
106.95
  0
LWPOLYLINE
  5
2A9
100
AcDbEntity
  8
ASSEMBLY_OUTLINES_TOP
100
AcDbPolyline
 90
        2
 70
         0
 43
0.1
 10
83.1
 20
106.55
 10
83.5
 20
106.95
  0
LWPOLYLINE
  5
2AA
100
AcDbEntity
  8
ASSEMBLY_OUTLINES_TOP
100
AcDbPolyline
 90
        2
 70
         0
 43
0.1
 10
83.1
 20
106.45
 10
83.6
 20
106.95
  0
LWPOLYLINE
  5
2AB
100
AcDbEntity
  8
ASSEMBLY_OUTLINES_TOP
100
AcDbPolyline
 90
        2
 70
         0
 43
0.1
 10
83.1
 20
106.35
 10
83.7
 20
106.95
  0
LWPOLYLINE
  5
2AC
100
AcDbEntity
  8
ASSEMBLY_OUTLINES_TOP
100
AcDbPolyline
 90
        4
 70
         1
 43
0.1
 10
75.0
 20
158.8
 10
75.0
 20
160.1
 10
77.8
 20
160.1
 10
77.8
 20
158.8
  0
LWPOLYLINE
  5
2AD
100
AcDbEntity
  8
ASSEMBLY_OUTLINES_TOP
100
AcDbPolyline
 90
        4
 70
         1
 10
90.38
 20
94.83
 10
90.38
 20
97.37
 10
92.92
 20
97.37
 10
92.92
 20
94.83
  0
LWPOLYLINE
  5
2AE
100
AcDbEntity
  8
ASSEMBLY_OUTLINES_TOP
100
AcDbPolyline
 90
        4
 70
         1
 43
0.1
 10
40.2
 20
158.15
 10
40.2
 20
159.45
 10
43.1
 20
159.45
 10
43.1
 20
158.15
  0
LWPOLYLINE
  5
2AF
100
AcDbEntity
  8
ASSEMBLY_OUTLINES_TOP
100
AcDbPolyline
 90
        4
 70
         1
 43
0.1
 10
48.2
 20
141.55
 10
48.2
 20
143.35
 10
51.5
 20
143.35
 10
51.5
 20
141.55
  0
LWPOLYLINE
  5
2B0
100
AcDbEntity
  8
ASSEMBLY_OUTLINES_TOP
100
AcDbPolyline
 90
        4
 70
         1
 10
36.78
 20
95.43
 10
36.78
 20
97.97
 10
39.32
 20
97.97
 10
39.32
 20
95.43
  0
LWPOLYLINE
  5
2B1
100
AcDbEntity
  8
ASSEMBLY_OUTLINES_TOP
100
AcDbPolyline
 90
        4
 70
         1
 43
0.1
 10
75.95
 20
122.0
 10
75.95
 20
123.8
 10
79.25
 20
123.8
 10
79.25
 20
122.0
  0
LWPOLYLINE
  5
2B2
100
AcDbEntity
  8
ASSEMBLY_OUTLINES_TOP
100
AcDbPolyline
 90
        4
 70
         1
 43
0.1
 10
69.65
 20
135.8
 10
69.65
 20
139.1
 10
71.45
 20
139.1
 10
71.45
 20
135.8
  0
LWPOLYLINE
  5
2B3
100
AcDbEntity
  8
ASSEMBLY_OUTLINES_TOP
100
AcDbPolyline
 90
        4
 70
         1
 43
0.1
 10
74.2
 20
146.55
 10
74.2
 20
149.35
 10
75.5
 20
149.35
 10
75.5
 20
146.55
  0
LWPOLYLINE
  5
2B4
100
AcDbEntity
  8
ASSEMBLY_OUTLINES_TOP
100
AcDbPolyline
 90
        4
 70
         1
 43
0.1
 10
42.1
 20
144.15
 10
42.1
 20
147.05
 10
43.4
 20
147.05
 10
43.4
 20
144.15
  0
LWPOLYLINE
  5
2B5
100
AcDbEntity
  8
ASSEMBLY_OUTLINES_TOP
100
AcDbPolyline
 90
        4
 70
         1
 43
0.1
 10
72.25
 20
142.65
 10
72.25
 20
145.95
 10
74.05
 20
145.95
 10
74.05
 20
142.65
  0
LWPOLYLINE
  5
2B6
100
AcDbEntity
  8
ASSEMBLY_OUTLINES_TOP
100
AcDbPolyline
 90
        4
 70
         1
 43
0.1
 10
80.45
 20
158.6
 10
80.45
 20
159.9
 10
83.25
 20
159.9
 10
83.25
 20
158.6
  0
LWPOLYLINE
  5
2B7
100
AcDbEntity
  8
ASSEMBLY_OUTLINES_TOP
100
AcDbPolyline
 90
        4
 70
         1
 43
0.1
 10
61.25
 20
108.95
 10
61.25
 20
110.75
 10
64.55
 20
110.75
 10
64.55
 20
108.95
  0
LWPOLYLINE
  5
2B8
100
AcDbEntity
  8
ASSEMBLY_OUTLINES_TOP
100
AcDbPolyline
 90
        4
 70
         1
 43
0.1
 10
77.1
 20
128.55
 10
77.1
 20
130.35
 10
80.4
 20
130.35
 10
80.4
 20
128.55
  0
LWPOLYLINE
  5
2B9
100
AcDbEntity
  8
ASSEMBLY_OUTLINES_TOP
100
AcDbPolyline
 90
        8
 70
         1
 43
0.1
 10
43.975
 20
127.35
 10
43.975
 20
124.05
 42
0.4142135624
 10
44.975
 20
123.05
 10
48.175
 20
123.05
 42
0.4142135624
 10
49.175
 20
124.05
 10
49.175
 20
127.35
 42
0.4142135624
 10
48.175
 20
128.35
 10
44.975
 20
128.35
 42
0.4142135624
  0
LWPOLYLINE
  5
2BA
100
AcDbEntity
  8
ASSEMBLY_OUTLINES_TOP
100
AcDbPolyline
 90
        4
 70
         1
 43
0.1
 10
37.575
 20
129.4
 10
37.575
 20
130.7
 10
40.475
 20
130.7
 10
40.475
 20
129.4
  0
LWPOLYLINE
  5
2BB
100
AcDbEntity
  8
ASSEMBLY_OUTLINES_TOP
100
AcDbPolyline
 90
        4
 70
         1
 43
0.1
 10
75.9
 20
125.65
 10
75.9
 20
126.95
 10
78.7
 20
126.95
 10
78.7
 20
125.65
  0
LWPOLYLINE
  5
2BC
100
AcDbEntity
  8
ASSEMBLY_OUTLINES_TOP
100
AcDbPolyline
 90
        4
 70
         1
 43
0.1
 10
79.6
 20
122.1
 10
79.6
 20
123.4
 10
82.5
 20
123.4
 10
82.5
 20
122.1
  0
LWPOLYLINE
  5
2BD
100
AcDbEntity
  8
ASSEMBLY_OUTLINES_TOP
100
AcDbPolyline
 90
        4
 70
         1
 43
0.1
 10
72.05
 20
106.6
 10
72.05
 20
107.9
 10
74.95
 20
107.9
 10
74.95
 20
106.6
  0
LWPOLYLINE
  5
2BE
100
AcDbEntity
  8
ASSEMBLY_OUTLINES_TOP
100
AcDbPolyline
 90
        4
 70
         1
 43
0.1
 10
56.95
 20
139.25
 10
56.95
 20
142.15
 10
58.25
 20
142.15
 10
58.25
 20
139.25
  0
LWPOLYLINE
  5
2BF
100
AcDbEntity
  8
ASSEMBLY_OUTLINES_TOP
100
AcDbPolyline
 90
        4
 70
         1
 43
0.1
 10
78.15
 20
112.65
 10
78.15
 20
115.95
 10
79.95
 20
115.95
 10
79.95
 20
112.65
  0
LWPOLYLINE
  5
2C0
100
AcDbEntity
  8
ASSEMBLY_OUTLINES_TOP
100
AcDbPolyline
 90
        4
 70
         1
 43
0.1
 10
77.05
 20
111.25
 10
77.05
 20
112.55
 10
79.95
 20
112.55
 10
79.95
 20
111.25
  0
LWPOLYLINE
  5
2C1
100
AcDbEntity
  8
ASSEMBLY_OUTLINES_TOP
100
AcDbPolyline
 90
        4
 70
         1
 43
0.1
 10
68.1
 20
141.15
 10
68.1
 20
142.45
 10
70.9
 20
142.45
 10
70.9
 20
141.15
  0
LWPOLYLINE
  5
2C2
100
AcDbEntity
  8
ASSEMBLY_OUTLINES_TOP
100
AcDbPolyline
 90
        4
 70
         1
 43
0.1
 10
86.95
 20
156.1
 10
86.95
 20
159.4
 10
88.75
 20
159.4
 10
88.75
 20
156.1
  0
LWPOLYLINE
  5
2C3
100
AcDbEntity
  8
ASSEMBLY_OUTLINES_TOP
100
AcDbPolyline
 90
        4
 70
         1
 43
0.1
 10
69.325
 20
90.875
 10
69.325
 20
103.375
 10
83.325
 20
103.375
 10
83.325
 20
90.875
  0
LWPOLYLINE
  5
2C4
100
AcDbEntity
  8
ASSEMBLY_OUTLINES_TOP
100
AcDbPolyline
 90
        4
 70
         1
 43
0.1
 10
50.05
 20
119.25
 10
50.05
 20
120.55
 10
52.85
 20
120.55
 10
52.85
 20
119.25
  0
LWPOLYLINE
  5
2C5
100
AcDbEntity
  8
ASSEMBLY_OUTLINES_TOP
100
AcDbPolyline
 90
        4
 70
         1
 43
0.1
 10
74.5
 20
141.15
 10
74.5
 20
142.45
 10
77.3
 20
142.45
 10
77.3
 20
141.15
  0
LWPOLYLINE
  5
2C6
100
AcDbEntity
  8
ASSEMBLY_OUTLINES_TOP
100
AcDbPolyline
 90
        4
 70
         1
 43
0.1
 10
36.95
 20
133.75
 10
36.95
 20
135.05
 10
39.85
 20
135.05
 10
39.85
 20
133.75
  0
LWPOLYLINE
  5
2C7
100
AcDbEntity
  8
ASSEMBLY_OUTLINES_TOP
100
AcDbPolyline
 90
        4
 70
         1
 43
0.1
 10
39.05
 20
110.15
 10
39.05
 20
111.95
 10
42.35
 20
111.95
 10
42.35
 20
110.15
  0
LWPOLYLINE
  5
2C8
100
AcDbEntity
  8
ASSEMBLY_OUTLINES_TOP
100
AcDbPolyline
 90
        4
 70
         1
 43
0.1
 10
41.3
 20
147.75
 10
41.3
 20
151.05
 10
43.1
 20
151.05
 10
43.1
 20
147.75
  0
LWPOLYLINE
  5
2C9
100
AcDbEntity
  8
ASSEMBLY_OUTLINES_TOP
100
AcDbPolyline
 90
        4
 70
         1
 43
0.1
 10
68.35
 20
156.3
 10
68.35
 20
157.6
 10
71.25
 20
157.6
 10
71.25
 20
156.3
  0
LWPOLYLINE
  5
2CA
100
AcDbEntity
  8
ASSEMBLY_OUTLINES_TOP
100
AcDbPolyline
 90
        4
 70
         1
 43
0.1
 10
41.5
 20
140.15
 10
41.5
 20
143.05
 10
42.8
 20
143.05
 10
42.8
 20
140.15
  0
LWPOLYLINE
  5
2CB
100
AcDbEntity
  8
ASSEMBLY_OUTLINES_TOP
100
AcDbPolyline
 90
        4
 70
         1
 43
0.1
 10
58.15
 20
108.2
 10
58.15
 20
111.5
 10
59.95
 20
111.5
 10
59.95
 20
108.2
  0
LWPOLYLINE
  5
2CC
100
AcDbEntity
  8
ASSEMBLY_OUTLINES_TOP
100
AcDbPolyline
 90
        4
 70
         1
 43
0.1
 10
46.15
 20
115.65
 10
46.15
 20
116.95
 10
49.05
 20
116.95
 10
49.05
 20
115.65
  0
LWPOLYLINE
  5
2CD
100
AcDbEntity
  8
ASSEMBLY_OUTLINES_TOP
100
AcDbPolyline
 90
        4
 70
         1
 43
0.1
 10
81.35
 20
112.35
 10
81.35
 20
113.65
 10
84.15
 20
113.65
 10
84.15
 20
112.35
  0
LWPOLYLINE
  5
2CE
100
AcDbEntity
  8
ASSEMBLY_OUTLINES_TOP
100
AcDbPolyline
 90
        4
 70
         1
 43
0.1
 10
64.85
 20
109.25
 10
64.85
 20
112.05
 10
66.15
 20
112.05
 10
66.15
 20
109.25
  0
TEXT
  5
2D0
100
AcDbEntity
  8
ASSEMBLY_REF_DES_TOP
100
AcDbText
 10
41.780525
 20
139.13045
 30
0.0
 40
0.85
  1
R21
 50
270.0
  7
GOST_TYPE_B
 72
         1
 11
42.2
 21
138.3
 31
0.0
100
AcDbText
 73
         2
  0
TEXT
  5
2D1
100
AcDbEntity
  8
ASSEMBLY_REF_DES_TOP
100
AcDbText
 10
73.030525
 20
152.1888
 30
0.0
 40
0.85
  1
C13
 50
270.0
  7
GOST_TYPE_B
 72
         1
 11
73.45
 21
151.4
 31
0.0
100
AcDbText
 73
         2
  0
TEXT
  5
2D2
100
AcDbEntity
  8
ASSEMBLY_REF_DES_TOP
100
AcDbText
 10
66.227375
 20
156.530525
 30
0.0
 40
0.85
  1
R6
  7
GOST_TYPE_B
 72
         1
 11
66.85
 21
156.95
 31
0.0
100
AcDbText
 73
         2
  0
TEXT
  5
2D3
100
AcDbEntity
  8
ASSEMBLY_REF_DES_TOP
100
AcDbText
 10
72.627375
 20
159.080525
 30
0.0
 40
0.85
  1
R2
  7
GOST_TYPE_B
 72
         1
 11
73.25
 21
159.5
 31
0.0
100
AcDbText
 73
         2
  0
TEXT
  5
2D4
100
AcDbEntity
  8
ASSEMBLY_REF_DES_TOP
100
AcDbText
 10
75.686675
 20
114.630525
 30
0.0
 40
0.85
  1
C58
  7
GOST_TYPE_B
 72
         1
 11
76.6
 21
115.05
 31
0.0
100
AcDbText
 73
         2
  0
TEXT
  5
2D5
100
AcDbEntity
  8
ASSEMBLY_REF_DES_TOP
100
AcDbText
 10
80.04545
 20
120.930525
 30
0.0
 40
0.85
  1
R42
  7
GOST_TYPE_B
 72
         1
 11
81.0
 21
121.35
 31
0.0
100
AcDbText
 73
         2
  0
TEXT
  5
2D6
100
AcDbEntity
  8
ASSEMBLY_REF_DES_TOP
100
AcDbText
 10
86.46645
 20
107.55455
 30
0.0
 40
0.7
  1
R71
  7
GOST_TYPE_B
 72
         1
 11
87.15
 21
107.9
 31
0.0
100
AcDbText
 73
         2
  0
TEXT
  5
2D7
100
AcDbEntity
  8
ASSEMBLY_REF_DES_TOP
100
AcDbText
 10
89.437609
 20
157.480016
 30
0.0
 40
0.85
  1
DA1
  7
GOST_TYPE_B
 72
         1
 11
90.350509
 21
157.899491
 31
0.0
100
AcDbText
 73
         2
  0
TEXT
  5
2D8
100
AcDbEntity
  8
ASSEMBLY_REF_DES_TOP
100
AcDbText
 10
50.7885
 20
121.30325
 30
0.0
 40
0.5
  1
C48
  7
GOST_TYPE_B
 72
         1
 11
51.35
 21
121.55
 31
0.0
100
AcDbText
 73
         2
  0
TEXT
  5
2D9
100
AcDbEntity
  8
ASSEMBLY_REF_DES_TOP
100
AcDbText
 10
50.74785
 20
103.15455
 30
0.0
 40
0.7
  1
R65
  7
GOST_TYPE_B
 72
         1
 11
51.5
 21
103.5
 31
0.0
100
AcDbText
 73
         2
  0
TEXT
  5
2DA
100
AcDbEntity
  8
ASSEMBLY_REF_DES_TOP
100
AcDbText
 10
38.603291
 20
149.181034
 30
0.0
 40
0.85
  1
DA2
  7
GOST_TYPE_B
 72
         1
 11
39.599491
 21
149.600509
 31
0.0
100
AcDbText
 73
         2
  0
TEXT
  5
2DB
100
AcDbEntity
  8
ASSEMBLY_REF_DES_TOP
100
AcDbText
 10
64.598885
 20
122.33236
 30
0.0
 40
0.85
  1
DD4
 50
90.0
  7
GOST_TYPE_B
 72
         1
 11
64.17941
 21
123.32941
 31
0.0
100
AcDbText
 73
         2
  0
TEXT
  5
2DC
100
AcDbEntity
  8
ASSEMBLY_REF_DES_TOP
100
AcDbText
 10
39.8038
 20
112.530525
 30
0.0
 40
0.85
  1
DA5
  7
GOST_TYPE_B
 72
         1
 11
40.8
 21
112.95
 31
0.0
100
AcDbText
 73
         2
  0
TEXT
  5
2DD
100
AcDbEntity
  8
ASSEMBLY_REF_DES_TOP
100
AcDbText
 10
88.769109
 20
152.030016
 30
0.0
 40
0.85
  1
L2
  7
GOST_TYPE_B
 72
         1
 11
89.350509
 21
152.449491
 31
0.0
100
AcDbText
 73
         2
  0
TEXT
  5
2DE
100
AcDbEntity
  8
ASSEMBLY_REF_DES_TOP
100
AcDbText
 10
39.9288
 20
125.780525
 30
0.0
 40
0.85
  1
DA3
  7
GOST_TYPE_B
 72
         1
 11
40.925
 21
126.2
 31
0.0
100
AcDbText
 73
         2
  0
TEXT
  5
2DF
100
AcDbEntity
  8
ASSEMBLY_REF_DES_TOP
100
AcDbText
 10
62.8779
 20
104.330525
 30
0.0
 40
0.85
  1
C75
  7
GOST_TYPE_B
 72
         1
 11
63.75
 21
104.75
 31
0.0
100
AcDbText
 73
         2
  0
TEXT
  5
2E0
100
AcDbEntity
  8
ASSEMBLY_REF_DES_TOP
100
AcDbText
 10
74.430525
 20
152.43045
 30
0.0
 40
0.85
  1
C14
 50
270.0
  7
GOST_TYPE_B
 72
         1
 11
74.85
 21
151.6
 31
0.0
100
AcDbText
 73
         2
  0
TEXT
  5
2E1
100
AcDbEntity
  8
ASSEMBLY_REF_DES_TOP
100
AcDbText
 10
72.880525
 20
110.2721
 30
0.0
 40
0.85
  1
C72
 50
270.0
  7
GOST_TYPE_B
 72
         1
 11
73.3
 21
109.4
 31
0.0
100
AcDbText
 73
         2
  0
TEXT
  5
2E2
100
AcDbEntity
  8
ASSEMBLY_REF_DES_TOP
100
AcDbText
 10
72.680525
 20
149.1888
 30
0.0
 40
0.85
  1
C19
 50
270.0
  7
GOST_TYPE_B
 72
         1
 11
73.1
 21
148.4
 31
0.0
100
AcDbText
 73
         2
  0
TEXT
  5
2E3
100
AcDbEntity
  8
ASSEMBLY_REF_DES_TOP
100
AcDbText
 10
84.277375
 20
158.830525
 30
0.0
 40
0.85
  1
R3
  7
GOST_TYPE_B
 72
         1
 11
84.9
 21
159.25
 31
0.0
100
AcDbText
 73
         2
  0
TEXT
  5
2E4
100
AcDbEntity
  8
ASSEMBLY_REF_DES_TOP
100
AcDbText
 10
72.680525
 20
155.07305
 30
0.0
 40
0.85
  1
C8
 50
270.0
  7
GOST_TYPE_B
 72
         1
 11
73.1
 21
154.45
 31
0.0
100
AcDbText
 73
         2
  0
TEXT
  5
2E5
100
AcDbEntity
  8
ASSEMBLY_REF_DES_TOP
100
AcDbText
 10
90.92145
 20
93.25
 30
0.0
 40
0.85
  1
X7
  7
GOST_TYPE_B
 72
         2
 11
92.25
 21
93.25
 31
0.0
100
AcDbText
 73
         1
  0
TEXT
  5
2E6
100
AcDbEntity
  8
ASSEMBLY_REF_DES_TOP
100
AcDbText
 10
38.21645
 20
102.40455
 30
0.0
 40
0.7
  1
R61
  7
GOST_TYPE_B
 72
         1
 11
38.9
 21
102.75
 31
0.0
100
AcDbText
 73
         2
  0
TEXT
  5
2E7
100
AcDbEntity
  8
ASSEMBLY_REF_DES_TOP
100
AcDbText
 10
76.386675
 20
127.280525
 30
0.0
 40
0.85
  1
C42
  7
GOST_TYPE_B
 72
         1
 11
77.3
 21
127.7
 31
0.0
100
AcDbText
 73
         2
  0
TEXT
  5
2E8
100
AcDbEntity
  8
ASSEMBLY_REF_DES_TOP
100
AcDbText
 10
75.8779
 20
116.180525
 30
0.0
 40
0.85
  1
C55
  7
GOST_TYPE_B
 72
         1
 11
76.75
 21
116.6
 31
0.0
100
AcDbText
 73
         2
  0
TEXT
  5
2E9
100
AcDbEntity
  8
ASSEMBLY_REF_DES_TOP
100
AcDbText
 10
61.430525
 20
148.7888
 30
0.0
 40
0.85
  1
C17
 50
270.0
  7
GOST_TYPE_B
 72
         1
 11
61.85
 21
148.0
 31
0.0
100
AcDbText
 73
         2
  0
TEXT
  5
2EA
100
AcDbEntity
  8
ASSEMBLY_REF_DES_TOP
100
AcDbText
 10
41.64545
 20
132.930525
 30
0.0
 40
0.85
  1
R34
  7
GOST_TYPE_B
 72
         1
 11
42.6
 21
133.35
 31
0.0
100
AcDbText
 73
         2
  0
TEXT
  5
2EB
100
AcDbEntity
  8
ASSEMBLY_REF_DES_TOP
100
AcDbText
 10
83.930525
 20
148.8721
 30
0.0
 40
0.85
  1
C20
 50
270.0
  7
GOST_TYPE_B
 72
         1
 11
84.35
 21
148.0
 31
0.0
100
AcDbText
 73
         2
  0
TEXT
  5
2EC
100
AcDbEntity
  8
ASSEMBLY_REF_DES_TOP
100
AcDbText
 10
82.119975
 20
156.480525
 30
0.0
 40
0.85
  1
R10
  7
GOST_TYPE_B
 72
         1
 11
82.95
 21
156.9
 31
0.0
100
AcDbText
 73
         2
  0
TEXT
  5
2ED
100
AcDbEntity
  8
ASSEMBLY_REF_DES_TOP
100
AcDbText
 10
38.680525
 20
117.7554
 30
0.0
 40
0.85
  1
R43
 50
270.0
  7
GOST_TYPE_B
 72
         1
 11
39.1
 21
116.8
 31
0.0
100
AcDbText
 73
         2
  0
TEXT
  5
2EE
100
AcDbEntity
  8
ASSEMBLY_REF_DES_TOP
100
AcDbText
 10
85.49785
 20
109.60455
 30
0.0
 40
0.7
  1
R53
  7
GOST_TYPE_B
 72
         1
 11
86.25
 21
109.95
 31
0.0
100
AcDbText
 73
         2
  0
TEXT
  5
2EF
100
AcDbEntity
  8
ASSEMBLY_REF_DES_TOP
100
AcDbText
 10
66.80455
 20
101.0868
 30
0.0
 40
0.7
  1
R68
 50
270.0
  7
GOST_TYPE_B
 72
         1
 11
67.15
 21
100.3
 31
0.0
100
AcDbText
 73
         2
  0
TEXT
  5
2F0
100
AcDbEntity
  8
ASSEMBLY_REF_DES_TOP
100
AcDbText
 10
40.130525
 20
117.76375
 30
0.0
 40
0.85
  1
C54
 50
270.0
  7
GOST_TYPE_B
 72
         1
 11
40.55
 21
116.85
 31
0.0
100
AcDbText
 73
         2
  0
TEXT
  5
2F1
100
AcDbEntity
  8
ASSEMBLY_REF_DES_TOP
100
AcDbText
 10
57.519975
 20
134.830525
 30
0.0
 40
0.85
  1
R31
  7
GOST_TYPE_B
 72
         1
 11
58.35
 21
135.25
 31
0.0
100
AcDbText
 73
         2
  0
TEXT
  5
2F2
100
AcDbEntity
  8
ASSEMBLY_REF_DES_TOP
100
AcDbText
 10
49.79545
 20
115.680525
 30
0.0
 40
0.85
  1
R46
  7
GOST_TYPE_B
 72
         1
 11
50.75
 21
116.1
 31
0.0
100
AcDbText
 73
         2
  0
TEXT
  5
2F3
100
AcDbEntity
  8
ASSEMBLY_REF_DES_TOP
100
AcDbText
 10
61.430525
 20
154.8814
 30
0.0
 40
0.85
  1
C6
 50
270.0
  7
GOST_TYPE_B
 72
         1
 11
61.85
 21
154.3
 31
0.0
100
AcDbText
 73
         2
  0
TEXT
  5
2F4
100
AcDbEntity
  8
ASSEMBLY_REF_DES_TOP
100
AcDbText
 10
37.8186
 20
158.480525
 30
0.0
 40
0.85
  1
C2
  7
GOST_TYPE_B
 72
         1
 11
38.4
 21
158.9
 31
0.0
100
AcDbText
 73
         2
  0
TEXT
  5
2F5
100
AcDbEntity
  8
ASSEMBLY_REF_DES_TOP
100
AcDbText
 10
78.462726
 20
148.897799
 30
0.0
 40
0.85
  1
DD2
  7
GOST_TYPE_B
 72
         1
 11
79.417276
 21
149.317274
 31
0.0
100
AcDbText
 73
         2
  0
TEXT
  5
2F6
100
AcDbEntity
  8
ASSEMBLY_REF_DES_TOP
100
AcDbText
 10
37.536675
 20
131.230525
 30
0.0
 40
0.85
  1
R36
  7
GOST_TYPE_B
 72
         1
 11
38.45
 21
131.65
 31
0.0
100
AcDbText
 73
         2
  0
TEXT
  5
2F7
100
AcDbEntity
  8
ASSEMBLY_REF_DES_TOP
100
AcDbText
 10
37.813
 20
142.60325
 30
0.0
 40
0.5
  1
VD1
  7
GOST_TYPE_B
 72
         1
 11
38.35
 21
142.85
 31
0.0
100
AcDbText
 73
         2
  0
TEXT
  5
2F8
100
AcDbEntity
  8
ASSEMBLY_REF_DES_TOP
100
AcDbText
 10
66.65325
 20
92.8875
 30
0.0
 40
0.5
  1
C78
 50
270.0
  7
GOST_TYPE_B
 72
         1
 11
66.9
 21
92.35
 31
0.0
100
AcDbText
 73
         2
  0
TEXT
  5
2F9
100
AcDbEntity
  8
ASSEMBLY_REF_DES_TOP
100
AcDbText
 10
42.030525
 20
97.4721
 30
0.0
 40
0.85
  1
C76
 50
270.0
  7
GOST_TYPE_B
 72
         1
 11
42.45
 21
96.6
 31
0.0
100
AcDbText
 73
         2
  0
TEXT
  5
2FA
100
AcDbEntity
  8
ASSEMBLY_REF_DES_TOP
100
AcDbText
 10
67.930525
 20
111.3721
 30
0.0
 40
0.85
  1
C67
 50
270.0
  7
GOST_TYPE_B
 72
         1
 11
68.35
 21
110.5
 31
0.0
100
AcDbText
 73
         2
  0
TEXT
  5
2FB
100
AcDbEntity
  8
ASSEMBLY_REF_DES_TOP
100
AcDbText
 10
85.786675
 20
140.280525
 30
0.0
 40
0.85
  1
C34
  7
GOST_TYPE_B
 72
         1
 11
86.7
 21
140.7
 31
0.0
100
AcDbText
 73
         2
  0
TEXT
  5
2FC
100
AcDbEntity
  8
ASSEMBLY_REF_DES_TOP
100
AcDbText
 10
37.84785
 20
98.65455
 30
0.0
 40
0.7
  1
R69
  7
GOST_TYPE_B
 72
         1
 11
38.6
 21
99.0
 31
0.0
100
AcDbText
 73
         2
  0
TEXT
  5
2FD
100
AcDbEntity
  8
ASSEMBLY_REF_DES_TOP
100
AcDbText
 10
65.50455
 20
101.0525
 30
0.0
 40
0.7
  1
R67
 50
270.0
  7
GOST_TYPE_B
 72
         1
 11
65.85
 21
100.3
 31
0.0
100
AcDbText
 73
         2
  0
TEXT
  5
2FE
100
AcDbEntity
  8
ASSEMBLY_REF_DES_TOP
100
AcDbText
 10
86.90455
 20
106.27075
 30
0.0
 40
0.7
  1
VT2
 50
270.0
  7
GOST_TYPE_B
 72
         1
 11
87.25
 21
105.45
 31
0.0
100
AcDbText
 73
         2
  0
TEXT
  5
2FF
100
AcDbEntity
  8
ASSEMBLY_REF_DES_TOP
100
AcDbText
 10
79.377375
 20
156.480525
 30
0.0
 40
0.85
  1
R9
  7
GOST_TYPE_B
 72
         1
 11
80.0
 21
156.9
 31
0.0
100
AcDbText
 73
         2
  0
TEXT
  5
300
100
AcDbEntity
  8
ASSEMBLY_REF_DES_TOP
100
AcDbText
 10
50.90325
 20
112.163
 30
0.0
 40
0.5
  1
C63
 50
270.0
  7
GOST_TYPE_B
 72
         1
 11
51.15
 21
111.65
 31
0.0
100
AcDbText
 73
         2
  0
TEXT
  5
301
100
AcDbEntity
  8
ASSEMBLY_REF_DES_TOP
100
AcDbText
 10
71.430525
 20
110.1888
 30
0.0
 40
0.85
  1
C71
 50
270.0
  7
GOST_TYPE_B
 72
         1
 11
71.85
 21
109.4
 31
0.0
100
AcDbText
 73
         2
  0
TEXT
  5
302
100
AcDbEntity
  8
ASSEMBLY_REF_DES_TOP
100
AcDbText
 10
41.786675
 20
135.730525
 30
0.0
 40
0.85
  1
R23
  7
GOST_TYPE_B
 72
         1
 11
42.7
 21
136.15
 31
0.0
100
AcDbText
 73
         2
  0
TEXT
  5
303
100
AcDbEntity
  8
ASSEMBLY_REF_DES_TOP
100
AcDbText
 10
83.930525
 20
144.96375
 30
0.0
 40
0.85
  1
C28
 50
270.0
  7
GOST_TYPE_B
 72
         1
 11
84.35
 21
144.05
 31
0.0
100
AcDbText
 73
         2
  0
TEXT
  5
304
100
AcDbEntity
  8
ASSEMBLY_REF_DES_TOP
100
AcDbText
 10
83.6818
 20
117.50455
 30
0.0
 40
0.7
  1
C57
  7
GOST_TYPE_B
 72
         1
 11
84.4
 21
117.85
 31
0.0
100
AcDbText
 73
         2
  0
TEXT
  5
305
100
AcDbEntity
  8
ASSEMBLY_REF_DES_TOP
100
AcDbText
 10
37.536675
 20
136.830525
 30
0.0
 40
0.85
  1
R22
  7
GOST_TYPE_B
 72
         1
 11
38.45
 21
137.25
 31
0.0
100
AcDbText
 73
         2
  0
TEXT
  5
306
100
AcDbEntity
  8
ASSEMBLY_REF_DES_TOP
100
AcDbText
 10
60.336675
 20
134.830525
 30
0.0
 40
0.85
  1
R32
  7
GOST_TYPE_B
 72
         1
 11
61.25
 21
135.25
 31
0.0
100
AcDbText
 73
         2
  0
TEXT
  5
307
100
AcDbEntity
  8
ASSEMBLY_REF_DES_TOP
100
AcDbText
 10
66.380525
 20
111.5221
 30
0.0
 40
0.85
  1
C66
 50
270.0
  7
GOST_TYPE_B
 72
         1
 11
66.8
 21
110.65
 31
0.0
100
AcDbText
 73
         2
  0
TEXT
  5
308
100
AcDbEntity
  8
ASSEMBLY_REF_DES_TOP
100
AcDbText
 10
80.180525
 20
127.4054
 30
0.0
 40
0.85
  1
R40
 50
270.0
  7
GOST_TYPE_B
 72
         1
 11
80.6
 21
126.45
 31
0.0
100
AcDbText
 73
         2
  0
TEXT
  5
309
100
AcDbEntity
  8
ASSEMBLY_REF_DES_TOP
100
AcDbText
 10
82.21645
 20
107.80455
 30
0.0
 40
0.7
  1
R51
  7
GOST_TYPE_B
 72
         1
 11
82.9
 21
108.15
 31
0.0
100
AcDbText
 73
         2
  0
TEXT
  5
30A
100
AcDbEntity
  8
ASSEMBLY_REF_DES_TOP
100
AcDbText
 10
76.38615
 20
156.480525
 30
0.0
 40
0.85
  1
R8
  7
GOST_TYPE_B
 72
         1
 11
77.05
 21
156.9
 31
0.0
100
AcDbText
 73
         2
  0
TEXT
  5
30B
100
AcDbEntity
  8
ASSEMBLY_REF_DES_TOP
100
AcDbText
 10
41.436675
 20
105.430525
 30
0.0
 40
0.85
  1
R60
  7
GOST_TYPE_B
 72
         1
 11
42.35
 21
105.85
 31
0.0
100
AcDbText
 73
         2
  0
TEXT
  5
30C
100
AcDbEntity
  8
ASSEMBLY_REF_DES_TOP
100
AcDbText
 10
83.880525
 20
152.4388
 30
0.0
 40
0.85
  1
C15
 50
270.0
  7
GOST_TYPE_B
 72
         1
 11
84.3
 21
151.65
 31
0.0
100
AcDbText
 73
         2
  0
TEXT
  5
30D
100
AcDbEntity
  8
ASSEMBLY_REF_DES_TOP
100
AcDbText
 10
41.786675
 20
134.380525
 30
0.0
 40
0.85
  1
R27
  7
GOST_TYPE_B
 72
         1
 11
42.7
 21
134.8
 31
0.0
100
AcDbText
 73
         2
  0
TEXT
  5
30E
100
AcDbEntity
  8
ASSEMBLY_REF_DES_TOP
100
AcDbText
 10
86.380525
 20
148.7721
 30
0.0
 40
0.85
  1
C22
 50
270.0
  7
GOST_TYPE_B
 72
         1
 11
86.8
 21
147.9
 31
0.0
100
AcDbText
 73
         2
  0
TEXT
  5
30F
100
AcDbEntity
  8
ASSEMBLY_REF_DES_TOP
100
AcDbText
 10
76.436675
 20
120.930525
 30
0.0
 40
0.85
  1
C49
  7
GOST_TYPE_B
 72
         1
 11
77.35
 21
121.35
 31
0.0
100
AcDbText
 73
         2
  0
TEXT
  5
310
100
AcDbEntity
  8
ASSEMBLY_REF_DES_TOP
100
AcDbText
 10
75.130525
 20
134.9221
 30
0.0
 40
0.85
  1
C37
 50
270.0
  7
GOST_TYPE_B
 72
         1
 11
75.55
 21
134.05
 31
0.0
100
AcDbText
 73
         2
  0
TEXT
  5
311
100
AcDbEntity
  8
ASSEMBLY_REF_DES_TOP
100
AcDbText
 10
62.3318
 20
107.70455
 30
0.0
 40
0.7
  1
C70
  7
GOST_TYPE_B
 72
         1
 11
63.05
 21
108.05
 31
0.0
100
AcDbText
 73
         2
  0
TEXT
  5
312
100
AcDbEntity
  8
ASSEMBLY_REF_DES_TOP
100
AcDbText
 10
37.9019
 20
160.280525
 30
0.0
 40
0.85
  1
C1
  7
GOST_TYPE_B
 72
         1
 11
38.4
 21
160.7
 31
0.0
100
AcDbText
 73
         2
  0
TEXT
  5
313
100
AcDbEntity
  8
ASSEMBLY_REF_DES_TOP
100
AcDbText
 10
45.380525
 20
107.50645
 30
0.0
 40
0.85
  1
J1
 50
270.0
  7
GOST_TYPE_B
 72
         1
 11
45.8
 21
107.05
 31
0.0
100
AcDbText
 73
         2
  0
TEXT
  5
314
100
AcDbEntity
  8
ASSEMBLY_REF_DES_TOP
100
AcDbText
 10
76.4779
 20
119.630525
 30
0.0
 40
0.85
  1
C50
  7
GOST_TYPE_B
 72
         1
 11
77.35
 21
120.05
 31
0.0
100
AcDbText
 73
         2
  0
TEXT
  5
315
100
AcDbEntity
  8
ASSEMBLY_REF_DES_TOP
100
AcDbText
 10
39.111675
 20
123.230525
 30
0.0
 40
0.85
  1
C45
  7
GOST_TYPE_B
 72
         1
 11
40.025
 21
123.65
 31
0.0
100
AcDbText
 73
         2
  0
TEXT
  5
316
100
AcDbEntity
  8
ASSEMBLY_REF_DES_TOP
100
AcDbText
 10
90.630525
 20
148.7221
 30
0.0
 40
0.85
  1
C23
 50
270.0
  7
GOST_TYPE_B
 72
         1
 11
91.05
 21
147.85
 31
0.0
100
AcDbText
 73
         2
  0
TEXT
  5
317
100
AcDbEntity
  8
ASSEMBLY_REF_DES_TOP
100
AcDbText
 10
57.137
 20
136.90325
 30
0.0
 40
0.5
  1
C35
  7
GOST_TYPE_B
 72
         1
 11
57.65
 21
137.15
 31
0.0
100
AcDbText
 73
         2
  0
TEXT
  5
318
100
AcDbEntity
  8
ASSEMBLY_REF_DES_TOP
100
AcDbText
 10
85.869975
 20
144.330525
 30
0.0
 40
0.85
  1
R15
  7
GOST_TYPE_B
 72
         1
 11
86.7
 21
144.75
 31
0.0
100
AcDbText
 73
         2
  0
TEXT
  5
319
100
AcDbEntity
  8
ASSEMBLY_REF_DES_TOP
100
AcDbText
 10
85.869975
 20
142.880525
 30
0.0
 40
0.85
  1
R16
  7
GOST_TYPE_B
 72
         1
 11
86.7
 21
143.3
 31
0.0
100
AcDbText
 73
         2
  0
TEXT
  5
31A
100
AcDbEntity
  8
ASSEMBLY_REF_DES_TOP
100
AcDbText
 10
38.19785
 20
104.50455
 30
0.0
 40
0.7
  1
R59
  7
GOST_TYPE_B
 72
         1
 11
38.95
 21
104.85
 31
0.0
100
AcDbText
 73
         2
  0
TEXT
  5
31B
100
AcDbEntity
  8
ASSEMBLY_REF_DES_TOP
100
AcDbText
 10
61.430525
 20
152.0555
 30
0.0
 40
0.85
  1
C11
 50
270.0
  7
GOST_TYPE_B
 72
         1
 11
61.85
 21
151.35
 31
0.0
100
AcDbText
 73
         2
  0
TEXT
  5
31C
100
AcDbEntity
  8
ASSEMBLY_REF_DES_TOP
100
AcDbText
 10
70.930525
 20
155.1314
 30
0.0
 40
0.85
  1
C7
 50
270.0
  7
GOST_TYPE_B
 72
         1
 11
71.35
 21
154.55
 31
0.0
100
AcDbText
 73
         2
  0
TEXT
  5
31D
100
AcDbEntity
  8
ASSEMBLY_REF_DES_TOP
100
AcDbText
 10
37.436675
 20
135.330525
 30
0.0
 40
0.85
  1
R25
  7
GOST_TYPE_B
 72
         1
 11
38.35
 21
135.75
 31
0.0
100
AcDbText
 73
         2
  0
TEXT
  5
31E
100
AcDbEntity
  8
ASSEMBLY_REF_DES_TOP
100
AcDbText
 10
88.4639
 20
135.90455
 30
0.0
 40
0.7
  1
R24
  7
GOST_TYPE_B
 72
         1
 11
89.25
 21
136.25
 31
0.0
100
AcDbText
 73
         2
  0
TEXT
  5
31F
100
AcDbEntity
  8
ASSEMBLY_REF_DES_TOP
100
AcDbText
 10
49.10325
 20
112.163
 30
0.0
 40
0.5
  1
C62
 50
270.0
  7
GOST_TYPE_B
 72
         1
 11
49.35
 21
111.65
 31
0.0
100
AcDbText
 73
         2
  0
TEXT
  5
320
100
AcDbEntity
  8
ASSEMBLY_REF_DES_TOP
100
AcDbText
 10
51.269025
 20
150.230525
 30
0.0
 40
0.85
  1
X1
  7
GOST_TYPE_B
 72
         1
 11
51.85
 21
150.65
 31
0.0
100
AcDbText
 73
         2
  0
TEXT
  5
321
100
AcDbEntity
  8
ASSEMBLY_REF_DES_TOP
100
AcDbText
 10
51.580525
 20
108.31375
 30
0.0
 40
0.85
  1
R55
 50
270.0
  7
GOST_TYPE_B
 72
         1
 11
52.0
 21
107.4
 31
0.0
100
AcDbText
 73
         2
  0
TEXT
  5
322
100
AcDbEntity
  8
ASSEMBLY_REF_DES_TOP
100
AcDbText
 10
85.430525
 20
154.63045
 30
0.0
 40
0.85
  1
R12
 50
270.0
  7
GOST_TYPE_B
 72
         1
 11
85.85
 21
153.8
 31
0.0
100
AcDbText
 73
         2
  0
TEXT
  5
323
100
AcDbEntity
  8
ASSEMBLY_REF_DES_TOP
100
AcDbText
 10
70.930525
 20
148.93045
 30
0.0
 40
0.85
  1
C18
 50
270.0
  7
GOST_TYPE_B
 72
         1
 11
71.35
 21
148.1
 31
0.0
100
AcDbText
 73
         2
  0
TEXT
  5
324
100
AcDbEntity
  8
ASSEMBLY_REF_DES_TOP
100
AcDbText
 10
84.3048
 20
114.3928
 30
0.0
 40
0.8
  1
DA4
 50
90.0
  7
GOST_TYPE_B
 72
         1
 11
83.91
 21
115.37
 31
0.0
100
AcDbText
 73
         2
  0
TEXT
  5
325
100
AcDbEntity
  8
ASSEMBLY_REF_DES_TOP
100
AcDbText
 10
62.8779
 20
105.930525
 30
0.0
 40
0.85
  1
C73
  7
GOST_TYPE_B
 72
         1
 11
63.75
 21
106.35
 31
0.0
100
AcDbText
 73
         2
  0
TEXT
  5
326
100
AcDbEntity
  8
ASSEMBLY_REF_DES_TOP
100
AcDbText
 10
74.430525
 20
155.1314
 30
0.0
 40
0.85
  1
C9
 50
270.0
  7
GOST_TYPE_B
 72
         1
 11
74.85
 21
154.55
 31
0.0
100
AcDbText
 73
         2
  0
TEXT
  5
327
100
AcDbEntity
  8
ASSEMBLY_REF_DES_TOP
100
AcDbText
 10
41.12045
 20
130.280525
 30
0.0
 40
0.85
  1
R38
  7
GOST_TYPE_B
 72
         1
 11
42.075
 21
130.7
 31
0.0
100
AcDbText
 73
         2
  0
TEXT
  5
328
100
AcDbEntity
  8
ASSEMBLY_REF_DES_TOP
100
AcDbText
 10
80.65325
 20
117.613
 30
0.0
 40
0.5
  1
C56
 50
270.0
  7
GOST_TYPE_B
 72
         1
 11
80.9
 21
117.1
 31
0.0
100
AcDbText
 73
         2
  0
TEXT
  5
329
100
AcDbEntity
  8
ASSEMBLY_REF_DES_TOP
100
AcDbText
 10
81.880525
 20
130.18045
 30
0.0
 40
0.85
  1
C41
 50
270.0
  7
GOST_TYPE_B
 72
         1
 11
82.3
 21
129.35
 31
0.0
100
AcDbText
 73
         2
  0
TEXT
  5
32A
100
AcDbEntity
  8
ASSEMBLY_REF_DES_TOP
100
AcDbText
 10
76.44545
 20
124.280525
 30
0.0
 40
0.85
  1
C44
  7
GOST_TYPE_B
 72
         1
 11
77.4
 21
124.7
 31
0.0
100
AcDbText
 73
         2
  0
TEXT
  5
32B
100
AcDbEntity
  8
ASSEMBLY_REF_DES_TOP
100
AcDbText
 10
41.39545
 20
107.380525
 30
0.0
 40
0.85
  1
R54
  7
GOST_TYPE_B
 72
         1
 11
42.35
 21
107.8
 31
0.0
100
AcDbText
 73
         2
  0
TEXT
  5
32C
100
AcDbEntity
  8
ASSEMBLY_REF_DES_TOP
100
AcDbText
 10
44.84785
 20
103.25455
 30
0.0
 40
0.7
  1
R63
  7
GOST_TYPE_B
 72
         1
 11
45.6
 21
103.6
 31
0.0
100
AcDbText
 73
         2
  0
TEXT
  5
32D
100
AcDbEntity
  8
ASSEMBLY_REF_DES_TOP
100
AcDbText
 10
75.8779
 20
118.080525
 30
0.0
 40
0.85
  1
C52
  7
GOST_TYPE_B
 72
         1
 11
76.75
 21
118.5
 31
0.0
100
AcDbText
 73
         2
  0
TEXT
  5
32E
100
AcDbEntity
  8
ASSEMBLY_REF_DES_TOP
100
AcDbText
 10
81.137
 20
119.50325
 30
0.0
 40
0.5
  1
C53
  7
GOST_TYPE_B
 72
         1
 11
81.65
 21
119.75
 31
0.0
100
AcDbText
 73
         2
  0
TEXT
  5
32F
100
AcDbEntity
  8
ASSEMBLY_REF_DES_TOP
100
AcDbText
 10
81.94785
 20
111.15455
 30
0.0
 40
0.7
  1
R50
  7
GOST_TYPE_B
 72
         1
 11
82.7
 21
111.5
 31
0.0
100
AcDbText
 73
         2
  0
TEXT
  5
330
100
AcDbEntity
  8
ASSEMBLY_REF_DES_TOP
100
AcDbText
 10
54.536675
 20
134.830525
 30
0.0
 40
0.85
  1
R30
  7
GOST_TYPE_B
 72
         1
 11
55.45
 21
135.25
 31
0.0
100
AcDbText
 73
         2
  0
TEXT
  5
331
100
AcDbEntity
  8
ASSEMBLY_REF_DES_TOP
100
AcDbText
 10
70.930525
 20
145.3221
 30
0.0
 40
0.85
  1
C25
 50
270.0
  7
GOST_TYPE_B
 72
         1
 11
71.35
 21
144.45
 31
0.0
100
AcDbText
 73
         2
  0
TEXT
  5
332
100
AcDbEntity
  8
ASSEMBLY_REF_DES_TOP
100
AcDbText
 10
54.548376
 20
95.524519
 30
0.0
 40
0.85
  1
DD5
 50
90.0
  7
GOST_TYPE_B
 72
         1
 11
54.128901
 21
96.479919
 31
0.0
100
AcDbText
 73
         2
  0
TEXT
  5
333
100
AcDbEntity
  8
ASSEMBLY_REF_DES_TOP
100
AcDbText
 10
53.486325
 20
138.702375
 30
0.0
 40
1.0
  1
DD3
 50
90.0
  7
GOST_TYPE_B
 72
         1
 11
52.992825
 21
139.826375
 31
0.0
100
AcDbText
 73
         2
  0
TEXT
  5
334
100
AcDbEntity
  8
ASSEMBLY_REF_DES_TOP
100
AcDbText
 10
37.66645
 20
139.70455
 30
0.0
 40
0.7
  1
R17
  7
GOST_TYPE_B
 72
         1
 11
38.35
 21
140.05
 31
0.0
100
AcDbText
 73
         2
  0
TEXT
  5
335
100
AcDbEntity
  8
ASSEMBLY_REF_DES_TOP
100
AcDbText
 10
43.554225
 20
115.830525
 30
0.0
 40
0.85
  1
R44
  7
GOST_TYPE_B
 72
         1
 11
44.55
 21
116.25
 31
0.0
100
AcDbText
 73
         2
  0
TEXT
  5
337
100
AcDbEntity
  8
ASSEMBLY_REF_DES_TOP
100
AcDbText
 10
39.26
 20
93.65
 30
0.0
 40
1.0
  1
X6
  7
VERIBEST_GERBER_0
 72
         2
 11
41.15
 21
93.65
 31
0.0
100
AcDbText
 73
         1
  0
TEXT
  5
338
100
AcDbEntity
  8
ASSEMBLY_REF_DES_TOP
100
AcDbText
 10
89.8639
 20
105.70455
 30
0.0
 40
0.7
  1
R58
  7
GOST_TYPE_B
 72
         1
 11
90.65
 21
106.05
 31
0.0
100
AcDbText
 73
         2
  0
TEXT
  5
339
100
AcDbEntity
  8
ASSEMBLY_REF_DES_TOP
100
AcDbText
 10
61.430525
 20
145.31375
 30
0.0
 40
0.85
  1
C24
 50
270.0
  7
GOST_TYPE_B
 72
         1
 11
61.85
 21
144.4
 31
0.0
100
AcDbText
 73
         2
  0
TEXT
  5
33A
100
AcDbEntity
  8
ASSEMBLY_REF_DES_TOP
100
AcDbText
 10
83.880525
 20
155.3388
 30
0.0
 40
0.85
  1
C10
 50
270.0
  7
GOST_TYPE_B
 72
         1
 11
84.3
 21
154.55
 31
0.0
100
AcDbText
 73
         2
  0
TEXT
  5
33B
100
AcDbEntity
  8
ASSEMBLY_REF_DES_TOP
100
AcDbText
 10
65.546026
 20
148.897799
 30
0.0
 40
0.85
  1
DD1
  7
GOST_TYPE_B
 72
         1
 11
66.417276
 21
149.317274
 31
0.0
100
AcDbText
 73
         2
  0
TEXT
  5
33C
100
AcDbEntity
  8
ASSEMBLY_REF_DES_TOP
100
AcDbText
 10
62.4112
 20
141.380525
 30
0.0
 40
0.85
  1
C31
  7
GOST_TYPE_B
 72
         1
 11
63.2
 21
141.8
 31
0.0
100
AcDbText
 73
         2
  0
TEXT
  5
33D
100
AcDbEntity
  8
ASSEMBLY_REF_DES_TOP
100
AcDbText
 10
40.280525
 20
144.2721
 30
0.0
 40
0.85
  1
C29
 50
270.0
  7
GOST_TYPE_B
 72
         1
 11
40.7
 21
143.4
 31
0.0
100
AcDbText
 73
         2
  0
TEXT
  5
33E
100
AcDbEntity
  8
ASSEMBLY_REF_DES_TOP
100
AcDbText
 10
52.40455
 20
135.8025
 30
0.0
 40
0.7
  1
R29
 50
270.0
  7
GOST_TYPE_B
 72
         1
 11
52.75
 21
135.05
 31
0.0
100
AcDbText
 73
         2
  0
TEXT
  5
33F
100
AcDbEntity
  8
ASSEMBLY_REF_DES_TOP
100
AcDbText
 10
43.680525
 20
157.2647
 30
0.0
 40
0.85
  1
R4
 50
270.0
  7
GOST_TYPE_B
 72
         1
 11
44.1
 21
156.6
 31
0.0
100
AcDbText
 73
         2
  0
TEXT
  5
340
100
AcDbEntity
  8
ASSEMBLY_REF_DES_TOP
100
AcDbText
 10
67.40455
 20
106.9025
 30
0.0
 40
0.7
  1
R56
 50
270.0
  7
GOST_TYPE_B
 72
         1
 11
67.75
 21
106.15
 31
0.0
100
AcDbText
 73
         2
  0
TEXT
  5
341
100
AcDbEntity
  8
ASSEMBLY_REF_DES_TOP
100
AcDbText
 10
58.086675
 20
103.430525
 30
0.0
 40
0.85
  1
R66
  7
GOST_TYPE_B
 72
         1
 11
59.0
 21
103.85
 31
0.0
100
AcDbText
 73
         2
  0
TEXT
  5
342
100
AcDbEntity
  8
ASSEMBLY_REF_DES_TOP
100
AcDbText
 10
85.10455
 20
113.1211
 30
0.0
 40
0.7
  1
R48
 50
270.0
  7
GOST_TYPE_B
 72
         1
 11
85.45
 21
112.3
 31
0.0
100
AcDbText
 73
         2
  0
TEXT
  5
343
100
AcDbEntity
  8
ASSEMBLY_REF_DES_TOP
100
AcDbText
 10
38.161675
 20
128.280525
 30
0.0
 40
0.85
  1
R39
  7
GOST_TYPE_B
 72
         1
 11
39.075
 21
128.7
 31
0.0
100
AcDbText
 73
         2
  0
TEXT
  5
344
100
AcDbEntity
  8
ASSEMBLY_REF_DES_TOP
100
AcDbText
 10
47.8139
 20
103.25455
 30
0.0
 40
0.7
  1
R64
  7
GOST_TYPE_B
 72
         1
 11
48.6
 21
103.6
 31
0.0
100
AcDbText
 73
         2
  0
TEXT
  5
345
100
AcDbEntity
  8
ASSEMBLY_REF_DES_TOP
100
AcDbText
 10
43.680525
 20
150.88045
 30
0.0
 40
0.85
  1
R13
 50
270.0
  7
GOST_TYPE_B
 72
         1
 11
44.1
 21
150.05
 31
0.0
100
AcDbText
 73
         2
  0
TEXT
  5
346
100
AcDbEntity
  8
ASSEMBLY_REF_DES_TOP
100
AcDbText
 10
44.86275
 20
131.20325
 30
0.0
 40
0.5
  1
C38
  7
GOST_TYPE_B
 72
         1
 11
45.4
 21
131.45
 31
0.0
100
AcDbText
 73
         2
  0
TEXT
  5
347
100
AcDbEntity
  8
ASSEMBLY_REF_DES_TOP
100
AcDbText
 10
41.74785
 20
103.15455
 30
0.0
 40
0.7
  1
R62
  7
GOST_TYPE_B
 72
         1
 11
42.5
 21
103.5
 31
0.0
100
AcDbText
 73
         2
  0
TEXT
  5
348
100
AcDbEntity
  8
ASSEMBLY_REF_DES_TOP
100
AcDbText
 10
60.230525
 20
111.21375
 30
0.0
 40
0.85
  1
C64
 50
270.0
  7
GOST_TYPE_B
 72
         1
 11
60.65
 21
110.3
 31
0.0
100
AcDbText
 73
         2
  0
TEXT
  5
349
100
AcDbEntity
  8
ASSEMBLY_REF_DES_TOP
100
AcDbText
 10
37.59785
 20
138.25455
 30
0.0
 40
0.7
  1
R20
  7
GOST_TYPE_B
 72
         1
 11
38.35
 21
138.6
 31
0.0
100
AcDbText
 73
         2
  0
TEXT
  5
34A
100
AcDbEntity
  8
ASSEMBLY_REF_DES_TOP
100
AcDbText
 10
75.64545
 20
113.080525
 30
0.0
 40
0.85
  1
R47
  7
GOST_TYPE_B
 72
         1
 11
76.6
 21
113.5
 31
0.0
100
AcDbText
 73
         2
  0
TEXT
  5
34B
100
AcDbEntity
  8
ASSEMBLY_REF_DES_TOP
100
AcDbText
 10
44.927375
 20
112.230525
 30
0.0
 40
0.85
  1
L4
  7
GOST_TYPE_B
 72
         1
 11
45.55
 21
112.65
 31
0.0
100
AcDbText
 73
         2
  0
TEXT
  5
34C
100
AcDbEntity
  8
ASSEMBLY_REF_DES_TOP
100
AcDbText
 10
37.536675
 20
132.630525
 30
0.0
 40
0.85
  1
R33
  7
GOST_TYPE_B
 72
         1
 11
38.45
 21
133.05
 31
0.0
100
AcDbText
 73
         2
  0
TEXT
  5
34D
100
AcDbEntity
  8
ASSEMBLY_REF_DES_TOP
100
AcDbText
 10
69.39785
 20
106.75455
 30
0.0
 40
0.7
  1
C74
  7
GOST_TYPE_B
 72
         1
 11
70.15
 21
107.1
 31
0.0
100
AcDbText
 73
         2
  0
TEXT
  5
34E
100
AcDbEntity
  8
ASSEMBLY_REF_DES_TOP
100
AcDbText
 10
45.437
 20
129.30325
 30
0.0
 40
0.5
  1
C39
  7
GOST_TYPE_B
 72
         1
 11
45.95
 21
129.55
 31
0.0
100
AcDbText
 73
         2
  0
TEXT
  5
34F
100
AcDbEntity
  8
ASSEMBLY_REF_DES_TOP
100
AcDbText
 10
65.330525
 20
97.4221
 30
0.0
 40
0.85
  1
C77
 50
270.0
  7
GOST_TYPE_B
 72
         1
 11
65.75
 21
96.55
 31
0.0
100
AcDbText
 73
         2
  0
TEXT
  5
350
100
AcDbEntity
  8
ASSEMBLY_REF_DES_TOP
100
AcDbText
 10
85.430525
 20
157.54715
 30
0.0
 40
0.85
  1
R11
 50
270.0
  7
GOST_TYPE_B
 72
         1
 11
85.85
 21
156.8
 31
0.0
100
AcDbText
 73
         2
  0
TEXT
  5
351
100
AcDbEntity
  8
ASSEMBLY_REF_DES_TOP
100
AcDbText
 10
90.1565
 20
119.4815
 30
0.0
 40
1.0
  1
X2
 50
270.0
  7
GOST_TYPE_B
 72
         1
 11
90.65
 21
118.7
 31
0.0
100
AcDbText
 73
         2
  0
TEXT
  5
352
100
AcDbEntity
  8
ASSEMBLY_REF_DES_TOP
100
AcDbText
 10
82.186675
 20
109.380525
 30
0.0
 40
0.85
  1
R52
  7
GOST_TYPE_B
 72
         1
 11
83.1
 21
109.8
 31
0.0
100
AcDbText
 73
         2
  0
TEXT
  5
353
100
AcDbEntity
  8
ASSEMBLY_REF_DES_TOP
100
AcDbText
 10
50.386675
 20
123.430525
 30
0.0
 40
0.85
  1
C46
  7
GOST_TYPE_B
 72
         1
 11
51.3
 21
123.85
 31
0.0
100
AcDbText
 73
         2
  0
TEXT
  5
354
100
AcDbEntity
  8
ASSEMBLY_REF_DES_TOP
100
AcDbText
 10
39.951391
 20
154.581034
 30
0.0
 40
0.85
  1
L1
  7
GOST_TYPE_B
 72
         1
 11
40.449491
 21
155.000509
 31
0.0
100
AcDbText
 73
         2
  0
TEXT
  5
355
100
AcDbEntity
  8
ASSEMBLY_REF_DES_TOP
100
AcDbText
 10
79.230525
 20
110.546625
 30
0.0
 40
0.85
  1
VD2
 50
270.0
  7
GOST_TYPE_B
 72
         1
 11
79.65
 21
109.55
 31
0.0
100
AcDbText
 73
         2
  0
TEXT
  5
356
100
AcDbEntity
  8
ASSEMBLY_REF_DES_TOP
100
AcDbText
 10
50.85455
 20
136.6868
 30
0.0
 40
0.7
  1
R28
 50
270.0
  7
GOST_TYPE_B
 72
         1
 11
51.2
 21
135.9
 31
0.0
100
AcDbText
 73
         2
  0
TEXT
  5
357
100
AcDbEntity
  8
ASSEMBLY_REF_DES_TOP
100
AcDbText
 10
74.480525
 20
145.2721
 30
0.0
 40
0.85
  1
C27
 50
270.0
  7
GOST_TYPE_B
 72
         1
 11
74.9
 21
144.4
 31
0.0
100
AcDbText
 73
         2
  0
TEXT
  5
358
100
AcDbEntity
  8
ASSEMBLY_REF_DES_TOP
100
AcDbText
 10
70.930525
 20
152.3888
 30
0.0
 40
0.85
  1
C12
 50
270.0
  7
GOST_TYPE_B
 72
         1
 11
71.35
 21
151.6
 31
0.0
100
AcDbText
 73
         2
  0
TEXT
  5
359
100
AcDbEntity
  8
ASSEMBLY_REF_DES_TOP
100
AcDbText
 10
51.00455
 20
133.7525
 30
0.0
 40
0.7
  1
R35
 50
270.0
  7
GOST_TYPE_B
 72
         1
 11
51.35
 21
133.0
 31
0.0
100
AcDbText
 73
         2
  0
TEXT
  5
35A
100
AcDbEntity
  8
ASSEMBLY_REF_DES_TOP
100
AcDbText
 10
63.277375
 20
156.530525
 30
0.0
 40
0.85
  1
R5
  7
GOST_TYPE_B
 72
         1
 11
63.9
 21
156.95
 31
0.0
100
AcDbText
 73
         2
  0
TEXT
  5
35B
100
AcDbEntity
  8
ASSEMBLY_REF_DES_TOP
100
AcDbText
 10
83.45455
 20
106.20215
 30
0.0
 40
0.7
  1
VT1
 50
270.0
  7
GOST_TYPE_B
 72
         1
 11
83.8
 21
105.45
 31
0.0
100
AcDbText
 73
         2
  0
TEXT
  5
35C
100
AcDbEntity
  8
ASSEMBLY_REF_DES_TOP
100
AcDbText
 10
75.8186
 20
159.030525
 30
0.0
 40
0.85
  1
C3
  7
GOST_TYPE_B
 72
         1
 11
76.4
 21
159.45
 31
0.0
100
AcDbText
 73
         2
  0
TEXT
  5
35D
100
AcDbEntity
  8
ASSEMBLY_REF_DES_TOP
100
AcDbText
 10
91.21
 20
93.4
 30
0.0
 40
1.0
  1
X5
  7
VERIBEST_GERBER_0
 72
         2
 11
93.1
 21
93.4
 31
0.0
100
AcDbText
 73
         1
  0
TEXT
  5
35E
100
AcDbEntity
  8
ASSEMBLY_REF_DES_TOP
100
AcDbText
 10
41.110675
 20
158.380525
 30
0.0
 40
0.85
  1
R1
  7
GOST_TYPE_B
 72
         1
 11
41.65
 21
158.8
 31
0.0
100
AcDbText
 73
         2
  0
TEXT
  5
35F
100
AcDbEntity
  8
ASSEMBLY_REF_DES_TOP
100
AcDbText
 10
49.337
 20
142.20325
 30
0.0
 40
0.5
  1
C30
  7
GOST_TYPE_B
 72
         1
 11
49.85
 21
142.45
 31
0.0
100
AcDbText
 73
         2
  0
TEXT
  5
360
100
AcDbEntity
  8
ASSEMBLY_REF_DES_TOP
100
AcDbText
 10
39.26
 20
96.2
 30
0.0
 40
1.0
  1
X3
  7
VERIBEST_GERBER_0
 72
         2
 11
41.15
 21
96.2
 31
0.0
100
AcDbText
 73
         1
  0
TEXT
  5
361
100
AcDbEntity
  8
ASSEMBLY_REF_DES_TOP
100
AcDbText
 10
76.686675
 20
122.480525
 30
0.0
 40
0.85
  1
C47
  7
GOST_TYPE_B
 72
         1
 11
77.6
 21
122.9
 31
0.0
100
AcDbText
 73
         2
  0
TEXT
  5
362
100
AcDbEntity
  8
ASSEMBLY_REF_DES_TOP
100
AcDbText
 10
70.130525
 20
138.3221
 30
0.0
 40
0.85
  1
C36
 50
270.0
  7
GOST_TYPE_B
 72
         1
 11
70.55
 21
137.45
 31
0.0
100
AcDbText
 73
         2
  0
TEXT
  5
363
100
AcDbEntity
  8
ASSEMBLY_REF_DES_TOP
100
AcDbText
 10
74.430525
 20
148.7388
 30
0.0
 40
0.85
  1
C21
 50
270.0
  7
GOST_TYPE_B
 72
         1
 11
74.85
 21
147.95
 31
0.0
100
AcDbText
 73
         2
  0
TEXT
  5
364
100
AcDbEntity
  8
ASSEMBLY_REF_DES_TOP
100
AcDbText
 10
42.330525
 20
146.4721
 30
0.0
 40
0.85
  1
R14
 50
270.0
  7
GOST_TYPE_B
 72
         1
 11
42.75
 21
145.6
 31
0.0
100
AcDbText
 73
         2
  0
TEXT
  5
365
100
AcDbEntity
  8
ASSEMBLY_REF_DES_TOP
100
AcDbText
 10
72.730525
 20
145.1721
 30
0.0
 40
0.85
  1
C26
 50
270.0
  7
GOST_TYPE_B
 72
         1
 11
73.15
 21
144.3
 31
0.0
100
AcDbText
 73
         2
  0
TEXT
  5
366
100
AcDbEntity
  8
ASSEMBLY_REF_DES_TOP
100
AcDbText
 10
81.227375
 20
158.830525
 30
0.0
 40
0.85
  1
C4
  7
GOST_TYPE_B
 72
         1
 11
81.85
 21
159.25
 31
0.0
100
AcDbText
 73
         2
  0
TEXT
  5
367
100
AcDbEntity
  8
ASSEMBLY_REF_DES_TOP
100
AcDbText
 10
62.0279
 20
109.430525
 30
0.0
 40
0.85
  1
C69
  7
GOST_TYPE_B
 72
         1
 11
62.9
 21
109.85
 31
0.0
100
AcDbText
 73
         2
  0
TEXT
  5
368
100
AcDbEntity
  8
ASSEMBLY_REF_DES_TOP
100
AcDbText
 10
78.21275
 20
129.20325
 30
0.0
 40
0.5
  1
C40
  7
GOST_TYPE_B
 72
         1
 11
78.75
 21
129.45
 31
0.0
100
AcDbText
 73
         2
  0
TEXT
  5
369
100
AcDbEntity
  8
ASSEMBLY_REF_DES_TOP
100
AcDbText
 10
46.0436
 20
125.330525
 30
0.0
 40
0.85
  1
L3
  7
GOST_TYPE_B
 72
         1
 11
46.625
 21
125.75
 31
0.0
100
AcDbText
 73
         2
  0
TEXT
  5
36A
100
AcDbEntity
  8
ASSEMBLY_REF_DES_TOP
100
AcDbText
 10
38.061675
 20
129.580525
 30
0.0
 40
0.85
  1
R37
  7
GOST_TYPE_B
 72
         1
 11
38.975
 21
130.0
 31
0.0
100
AcDbText
 73
         2
  0
TEXT
  5
36B
100
AcDbEntity
  8
ASSEMBLY_REF_DES_TOP
100
AcDbText
 10
76.386675
 20
125.880525
 30
0.0
 40
0.85
  1
C43
  7
GOST_TYPE_B
 72
         1
 11
77.3
 21
126.3
 31
0.0
100
AcDbText
 73
         2
  0
TEXT
  5
36C
100
AcDbEntity
  8
ASSEMBLY_REF_DES_TOP
100
AcDbText
 10
80.22875
 20
122.380525
 30
0.0
 40
0.85
  1
R41
  7
GOST_TYPE_B
 72
         1
 11
81.1
 21
122.8
 31
0.0
100
AcDbText
 73
         2
  0
TEXT
  5
36D
100
AcDbEntity
  8
ASSEMBLY_REF_DES_TOP
100
AcDbText
 10
72.586675
 20
106.830525
 30
0.0
 40
0.85
  1
R57
  7
GOST_TYPE_B
 72
         1
 11
73.5
 21
107.25
 31
0.0
100
AcDbText
 73
         2
  0
TEXT
  5
36E
100
AcDbEntity
  8
ASSEMBLY_REF_DES_TOP
100
AcDbText
 10
57.30455
 20
141.3339
 30
0.0
 40
0.7
  1
R19
 50
270.0
  7
GOST_TYPE_B
 72
         1
 11
57.65
 21
140.65
 31
0.0
100
AcDbText
 73
         2
  0
TEXT
  5
36F
100
AcDbEntity
  8
ASSEMBLY_REF_DES_TOP
100
AcDbText
 10
78.630525
 20
115.1721
 30
0.0
 40
0.85
  1
C59
 50
270.0
  7
GOST_TYPE_B
 72
         1
 11
79.05
 21
114.3
 31
0.0
100
AcDbText
 73
         2
  0
TEXT
  5
370
100
AcDbEntity
  8
ASSEMBLY_REF_DES_TOP
100
AcDbText
 10
77.59545
 20
111.530525
 30
0.0
 40
0.85
  1
R49
  7
GOST_TYPE_B
 72
         1
 11
78.55
 21
111.95
 31
0.0
100
AcDbText
 73
         2
  0
TEXT
  5
371
100
AcDbEntity
  8
ASSEMBLY_REF_DES_TOP
100
AcDbText
 10
68.6279
 20
141.380525
 30
0.0
 40
0.85
  1
C32
  7
GOST_TYPE_B
 72
         1
 11
69.5
 21
141.8
 31
0.0
100
AcDbText
 73
         2
  0
TEXT
  5
372
100
AcDbEntity
  8
ASSEMBLY_REF_DES_TOP
100
AcDbText
 10
87.430525
 20
158.3314
 30
0.0
 40
0.85
  1
C5
 50
270.0
  7
GOST_TYPE_B
 72
         1
 11
87.85
 21
157.75
 31
0.0
100
AcDbText
 73
         2
  0
TEXT
  5
373
100
AcDbEntity
  8
ASSEMBLY_REF_DES_TOP
100
AcDbText
 10
72.011325
 20
96.270875
 30
0.0
 40
1.0
  1
X4
 50
90.0
  7
GOST_TYPE_B
 72
         1
 11
71.517825
 21
97.101375
 31
0.0
100
AcDbText
 73
         2
  0
TEXT
  5
374
100
AcDbEntity
  8
ASSEMBLY_REF_DES_TOP
100
AcDbText
 10
50.6612
 20
119.480525
 30
0.0
 40
0.85
  1
C51
  7
GOST_TYPE_B
 72
         1
 11
51.45
 21
119.9
 31
0.0
100
AcDbText
 73
         2
  0
TEXT
  5
375
100
AcDbEntity
  8
ASSEMBLY_REF_DES_TOP
100
AcDbText
 10
75.0279
 20
141.380525
 30
0.0
 40
0.85
  1
C33
  7
GOST_TYPE_B
 72
         1
 11
75.9
 21
141.8
 31
0.0
100
AcDbText
 73
         2
  0
TEXT
  5
376
100
AcDbEntity
  8
ASSEMBLY_REF_DES_TOP
100
AcDbText
 10
37.436675
 20
133.930525
 30
0.0
 40
0.85
  1
R26
  7
GOST_TYPE_B
 72
         1
 11
38.35
 21
134.35
 31
0.0
100
AcDbText
 73
         2
  0
TEXT
  5
377
100
AcDbEntity
  8
ASSEMBLY_REF_DES_TOP
100
AcDbText
 10
39.9112
 20
110.630525
 30
0.0
 40
0.85
  1
C61
  7
GOST_TYPE_B
 72
         1
 11
40.7
 21
111.05
 31
0.0
100
AcDbText
 73
         2
  0
TEXT
  5
378
100
AcDbEntity
  8
ASSEMBLY_REF_DES_TOP
100
AcDbText
 10
41.780525
 20
150.1888
 30
0.0
 40
0.85
  1
C16
 50
270.0
  7
GOST_TYPE_B
 72
         1
 11
42.2
 21
149.4
 31
0.0
100
AcDbText
 73
         2
  0
TEXT
  5
379
100
AcDbEntity
  8
ASSEMBLY_REF_DES_TOP
100
AcDbText
 10
69.177375
 20
156.530525
 30
0.0
 40
0.85
  1
R7
  7
GOST_TYPE_B
 72
         1
 11
69.8
 21
156.95
 31
0.0
100
AcDbText
 73
         2
  0
TEXT
  5
37A
100
AcDbEntity
  8
ASSEMBLY_REF_DES_TOP
100
AcDbText
 10
41.680525
 20
142.5221
 30
0.0
 40
0.85
  1
R18
 50
270.0
  7
GOST_TYPE_B
 72
         1
 11
42.1
 21
141.65
 31
0.0
100
AcDbText
 73
         2
  0
TEXT
  5
37B
100
AcDbEntity
  8
ASSEMBLY_REF_DES_TOP
100
AcDbText
 10
58.80325
 20
110.3875
 30
0.0
 40
0.5
  1
C68
 50
270.0
  7
GOST_TYPE_B
 72
         1
 11
59.05
 21
109.85
 31
0.0
100
AcDbText
 73
         2
  0
TEXT
  5
37C
100
AcDbEntity
  8
ASSEMBLY_REF_DES_TOP
100
AcDbText
 10
46.59545
 20
115.830525
 30
0.0
 40
0.85
  1
R45
  7
GOST_TYPE_B
 72
         1
 11
47.55
 21
116.25
 31
0.0
100
AcDbText
 73
         2
  0
TEXT
  5
37D
100
AcDbEntity
  8
ASSEMBLY_REF_DES_TOP
100
AcDbText
 10
82.0318
 20
112.65455
 30
0.0
 40
0.7
  1
C60
  7
GOST_TYPE_B
 72
         1
 11
82.75
 21
113.0
 31
0.0
100
AcDbText
 73
         2
  0
TEXT
  5
37E
100
AcDbEntity
  8
ASSEMBLY_REF_DES_TOP
100
AcDbText
 10
65.080525
 20
111.5221
 30
0.0
 40
0.85
  1
C65
 50
270.0
  7
GOST_TYPE_B
 72
         1
 11
65.5
 21
110.65
 31
0.0
100
AcDbText
 73
         2
  0
LWPOLYLINE
  5
37F
100
AcDbEntity
  8
BOARD_OUTLINE
100
AcDbPolyline
 90
        4
 70
         1
 43
0.1
 10
36.35
 20
87.95
 10
36.35
 20
164.95
 10
93.35
 20
164.95
 10
93.35
 20
87.95
  0
CIRCLE
  5
380
100
AcDbEntity
  8
MOUNTING_HOLES_LAYER_TOP
100
AcDbCircle
 10
47.95
 20
137.35
 30
0.0
 40
1.25
  0
HATCH
  5
381
100
AcDbEntity
  8
MOUNTING_HOLES_LAYER_TOP
100
AcDbHatch
 10
0.0
 20
0.0
 30
0.0
210
0.0
220
0.0
230
1.0
  2
SOLID
 70
         1
 71
         1
 91
        1
 92
        1
 93
        1
 72
         2
 10
47.950000000000003
 20
137.34999999999999
 40
1.25
 50
0.0
 51
360.0
 73
         1
 97
        1
330
380
 75
         0
 76
         1
 98
        1
 10
0.0
 20
0.0
  0
CIRCLE
  5
382
100
AcDbEntity
  8
MOUNTING_HOLES_LAYER_TOP
100
AcDbCircle
 10
79.95
 20
105.4
 30
0.0
 40
1.25
  0
HATCH
  5
383
100
AcDbEntity
  8
MOUNTING_HOLES_LAYER_TOP
100
AcDbHatch
 10
0.0
 20
0.0
 30
0.0
210
0.0
220
0.0
230
1.0
  2
SOLID
 70
         1
 71
         1
 91
        1
 92
        1
 93
        1
 72
         2
 10
79.950000000000003
 20
105.40000000000001
 40
1.25
 50
0.0
 51
360.0
 73
         1
 97
        1
330
382
 75
         0
 76
         1
 98
        1
 10
0.0
 20
0.0
  0
CIRCLE
  5
384
100
AcDbEntity
  8
MOUNTING_HOLES_LAYER_TOP
100
AcDbCircle
 10
41.99
 20
160.5
 30
0.0
 40
0.9
  0
HATCH
  5
385
100
AcDbEntity
  8
MOUNTING_HOLES_LAYER_TOP
100
AcDbHatch
 10
0.0
 20
0.0
 30
0.0
210
0.0
220
0.0
230
1.0
  2
SOLID
 70
         1
 71
         1
 91
        1
 92
        1
 93
        1
 72
         2
 10
41.990000000000002
 20
160.5
 40
0.9
 50
0.0
 51
360.0
 73
         1
 97
        1
330
384
 75
         0
 76
         1
 98
        1
 10
0.0
 20
0.0
  0
CIRCLE
  5
386
100
AcDbEntity
  8
MOUNTING_HOLES_LAYER_TOP
100
AcDbCircle
 10
87.71
 20
160.5
 30
0.0
 40
0.9
  0
HATCH
  5
387
100
AcDbEntity
  8
MOUNTING_HOLES_LAYER_TOP
100
AcDbHatch
 10
0.0
 20
0.0
 30
0.0
210
0.0
220
0.0
230
1.0
  2
SOLID
 70
         1
 71
         1
 91
        1
 92
        1
 93
        1
 72
         2
 10
87.709999999999994
 20
160.5
 40
0.9
 50
0.0
 51
360.0
 73
         1
 97
        1
330
386
 75
         0
 76
         1
 98
        1
 10
0.0
 20
0.0
  0
CIRCLE
  5
388
100
AcDbEntity
  8
MOUNTING_HOLES_LAYER_TOP
100
AcDbCircle
 10
41.99
 20
92.5
 30
0.0
 40
0.9
  0
HATCH
  5
389
100
AcDbEntity
  8
MOUNTING_HOLES_LAYER_TOP
100
AcDbHatch
 10
0.0
 20
0.0
 30
0.0
210
0.0
220
0.0
230
1.0
  2
SOLID
 70
         1
 71
         1
 91
        1
 92
        1
 93
        1
 72
         2
 10
41.990000000000002
 20
92.5
 40
0.9
 50
0.0
 51
360.0
 73
         1
 97
        1
330
388
 75
         0
 76
         1
 98
        1
 10
0.0
 20
0.0
  0
CIRCLE
  5
38A
100
AcDbEntity
  8
MOUNTING_HOLES_LAYER_TOP
100
AcDbCircle
 10
87.71
 20
92.5
 30
0.0
 40
0.9
  0
HATCH
  5
38B
100
AcDbEntity
  8
MOUNTING_HOLES_LAYER_TOP
100
AcDbHatch
 10
0.0
 20
0.0
 30
0.0
210
0.0
220
0.0
230
1.0
  2
SOLID
 70
         1
 71
         1
 91
        1
 92
        1
 93
        1
 72
         2
 10
87.709999999999994
 20
92.5
 40
0.9
 50
0.0
 51
360.0
 73
         1
 97
        1
330
38A
 75
         0
 76
         1
 98
        1
 10
0.0
 20
0.0
  0
CIRCLE
  5
38C
100
AcDbEntity
  8
MOUNTING_HOLES_LAYER_TOP
100
AcDbCircle
 10
56.85
 20
148.4
 30
0.0
 40
0.75
  0
HATCH
  5
38D
100
AcDbEntity
  8
MOUNTING_HOLES_LAYER_TOP
100
AcDbHatch
 10
0.0
 20
0.0
 30
0.0
210
0.0
220
0.0
230
1.0
  2
SOLID
 70
         1
 71
         1
 91
        1
 92
        1
 93
        1
 72
         2
 10
56.850000000000001
 20
148.40000000000001
 40
0.75
 50
0.0
 51
360.0
 73
         1
 97
        1
330
38C
 75
         0
 76
         1
 98
        1
 10
0.0
 20
0.0
  0
CIRCLE
  5
38E
100
AcDbEntity
  8
MOUNTING_HOLES_LAYER_TOP
100
AcDbCircle
 10
46.85
 20
148.4
 30
0.0
 40
0.75
  0
HATCH
  5
38F
100
AcDbEntity
  8
MOUNTING_HOLES_LAYER_TOP
100
AcDbHatch
 10
0.0
 20
0.0
 30
0.0
210
0.0
220
0.0
230
1.0
  2
SOLID
 70
         1
 71
         1
 91
        1
 92
        1
 93
        1
 72
         2
 10
46.850000000000001
 20
148.40000000000001
 40
0.75
 50
0.0
 51
360.0
 73
         1
 97
        1
330
38E
 75
         0
 76
         1
 98
        1
 10
0.0
 20
0.0
  0
CIRCLE
  5
390
100
AcDbEntity
  8
MOUNTING_HOLES_LAYER_TOP
100
AcDbCircle
 10
40.85
 20
146.56
 30
0.0
 40
0.9
  0
HATCH
  5
391
100
AcDbEntity
  8
MOUNTING_HOLES_LAYER_TOP
100
AcDbHatch
 10
0.0
 20
0.0
 30
0.0
210
0.0
220
0.0
230
1.0
  2
SOLID
 70
         1
 71
         1
 91
        1
 92
        1
 93
        1
 72
         2
 10
40.850000000000001
 20
146.56
 40
0.9
 50
0.0
 51
360.0
 73
         1
 97
        1
330
390
 75
         0
 76
         1
 98
        1
 10
0.0
 20
0.0
  0
CIRCLE
  5
392
100
AcDbEntity
  8
MOUNTING_HOLES_LAYER_TOP
100
AcDbCircle
 10
40.85
 20
100.84
 30
0.0
 40
0.9
  0
HATCH
  5
393
100
AcDbEntity
  8
MOUNTING_HOLES_LAYER_TOP
100
AcDbHatch
 10
0.0
 20
0.0
 30
0.0
210
0.0
220
0.0
230
1.0
  2
SOLID
 70
         1
 71
         1
 91
        1
 92
        1
 93
        1
 72
         2
 10
40.850000000000001
 20
100.84
 40
0.9
 50
0.0
 51
360.0
 73
         1
 97
        1
330
392
 75
         0
 76
         1
 98
        1
 10
0.0
 20
0.0
  0
CIRCLE
  5
394
100
AcDbEntity
  8
MOUNTING_HOLES_LAYER_TOP
100
AcDbCircle
 10
88.75
 20
146.56
 30
0.0
 40
0.9
  0
HATCH
  5
395
100
AcDbEntity
  8
MOUNTING_HOLES_LAYER_TOP
100
AcDbHatch
 10
0.0
 20
0.0
 30
0.0
210
0.0
220
0.0
230
1.0
  2
SOLID
 70
         1
 71
         1
 91
        1
 92
        1
 93
        1
 72
         2
 10
88.75
 20
146.56
 40
0.9
 50
0.0
 51
360.0
 73
         1
 97
        1
330
394
 75
         0
 76
         1
 98
        1
 10
0.0
 20
0.0
  0
CIRCLE
  5
396
100
AcDbEntity
  8
MOUNTING_HOLES_LAYER_TOP
100
AcDbCircle
 10
88.75
 20
100.84
 30
0.0
 40
0.9
  0
HATCH
  5
397
100
AcDbEntity
  8
MOUNTING_HOLES_LAYER_TOP
100
AcDbHatch
 10
0.0
 20
0.0
 30
0.0
210
0.0
220
0.0
230
1.0
  2
SOLID
 70
         1
 71
         1
 91
        1
 92
        1
 93
        1
 72
         2
 10
88.75
 20
100.84
 40
0.9
 50
0.0
 51
360.0
 73
         1
 97
        1
330
396
 75
         0
 76
         1
 98
        1
 10
0.0
 20
0.0
  0
CIRCLE
  5
398
100
AcDbEntity
  8
PART_HOLES_LAYER_TOP
100
AcDbCircle
 10
91.65
 20
93.55
 30
0.0
 40
0.45
  0
HATCH
  5
399
100
AcDbEntity
  8
PART_HOLES_LAYER_TOP
100
AcDbHatch
 10
0.0
 20
0.0
 30
0.0
210
0.0
220
0.0
230
1.0
  2
SOLID
 70
         1
 71
         1
 91
        1
 92
        1
 93
        1
 72
         2
 10
91.650000000000006
 20
93.549999999999997
 40
0.45
 50
0.0
 51
360.0
 73
         1
 97
        1
330
398
 75
         0
 76
         1
 98
        1
 10
0.0
 20
0.0
  0
CIRCLE
  5
39A
100
AcDbEntity
  8
PART_HOLES_LAYER_TOP
100
AcDbCircle
 10
66.300001
 20
104.579999
 30
0.0
 40
0.45
  0
HATCH
  5
39B
100
AcDbEntity
  8
PART_HOLES_LAYER_TOP
100
AcDbHatch
 10
0.0
 20
0.0
 30
0.0
210
0.0
220
0.0
230
1.0
  2
SOLID
 70
         1
 71
         1
 91
        1
 92
        1
 93
        1
 72
         2
 10
66.300000999999995
 20
104.579999
 40
0.45
 50
0.0
 51
360.0
 73
         1
 97
        1
330
39A
 75
         0
 76
         1
 98
        1
 10
0.0
 20
0.0
  0
CIRCLE
  5
39C
100
AcDbEntity
  8
PART_HOLES_LAYER_TOP
100
AcDbCircle
 10
66.300001
 20
107.120001
 30
0.0
 40
0.45
  0
HATCH
  5
39D
100
AcDbEntity
  8
PART_HOLES_LAYER_TOP
100
AcDbHatch
 10
0.0
 20
0.0
 30
0.0
210
0.0
220
0.0
230
1.0
  2
SOLID
 70
         1
 71
         1
 91
        1
 92
        1
 93
        1
 72
         2
 10
66.300000999999995
 20
107.120001
 40
0.45
 50
0.0
 51
360.0
 73
         1
 97
        1
330
39C
 75
         0
 76
         1
 98
        1
 10
0.0
 20
0.0
  0
CIRCLE
  5
39E
100
AcDbEntity
  8
PART_HOLES_LAYER_TOP
100
AcDbCircle
 10
45.75
 20
105.8
 30
0.0
 40
0.45
  0
HATCH
  5
39F
100
AcDbEntity
  8
PART_HOLES_LAYER_TOP
100
AcDbHatch
 10
0.0
 20
0.0
 30
0.0
210
0.0
220
0.0
230
1.0
  2
SOLID
 70
         1
 71
         1
 91
        1
 92
        1
 93
        1
 72
         2
 10
45.75
 20
105.8
 40
0.45
 50
0.0
 51
360.0
 73
         1
 97
        1
330
39E
 75
         0
 76
         1
 98
        1
 10
0.0
 20
0.0
  0
CIRCLE
  5
3A0
100
AcDbEntity
  8
PART_HOLES_LAYER_TOP
100
AcDbCircle
 10
45.75
 20
108.34
 30
0.0
 40
0.45
  0
HATCH
  5
3A1
100
AcDbEntity
  8
PART_HOLES_LAYER_TOP
100
AcDbHatch
 10
0.0
 20
0.0
 30
0.0
210
0.0
220
0.0
230
1.0
  2
SOLID
 70
         1
 71
         1
 91
        1
 92
        1
 93
        1
 72
         2
 10
45.75
 20
108.34
 40
0.45
 50
0.0
 51
360.0
 73
         1
 97
        1
330
3A0
 75
         0
 76
         1
 98
        1
 10
0.0
 20
0.0
  0
CIRCLE
  5
3A2
100
AcDbEntity
  8
PART_HOLES_LAYER_TOP
100
AcDbCircle
 10
38.05
 20
94.15
 30
0.0
 40
0.45
  0
HATCH
  5
3A3
100
AcDbEntity
  8
PART_HOLES_LAYER_TOP
100
AcDbHatch
 10
0.0
 20
0.0
 30
0.0
210
0.0
220
0.0
230
1.0
  2
SOLID
 70
         1
 71
         1
 91
        1
 92
        1
 93
        1
 72
         2
 10
38.049999999999997
 20
94.150000000000006
 40
0.45
 50
0.0
 51
360.0
 73
         1
 97
        1
330
3A2
 75
         0
 76
         1
 98
        1
 10
0.0
 20
0.0
  0
CIRCLE
  5
3A4
100
AcDbEntity
  8
PART_HOLES_LAYER_TOP
100
AcDbCircle
 10
91.65
 20
96.1
 30
0.0
 40
0.45
  0
HATCH
  5
3A5
100
AcDbEntity
  8
PART_HOLES_LAYER_TOP
100
AcDbHatch
 10
0.0
 20
0.0
 30
0.0
210
0.0
220
0.0
230
1.0
  2
SOLID
 70
         1
 71
         1
 91
        1
 92
        1
 93
        1
 72
         2
 10
91.650000000000006
 20
96.099999999999994
 40
0.45
 50
0.0
 51
360.0
 73
         1
 97
        1
330
3A4
 75
         0
 76
         1
 98
        1
 10
0.0
 20
0.0
  0
CIRCLE
  5
3A6
100
AcDbEntity
  8
PART_HOLES_LAYER_TOP
100
AcDbCircle
 10
38.05
 20
96.7
 30
0.0
 40
0.45
  0
HATCH
  5
3A7
100
AcDbEntity
  8
PART_HOLES_LAYER_TOP
100
AcDbHatch
 10
0.0
 20
0.0
 30
0.0
210
0.0
220
0.0
230
1.0
  2
SOLID
 70
         1
 71
         1
 91
        1
 92
        1
 93
        1
 72
         2
 10
38.049999999999997
 20
96.700000000000003
 40
0.45
 50
0.0
 51
360.0
 73
         1
 97
        1
330
3A6
 75
         0
 76
         1
 98
        1
 10
0.0
 20
0.0
  0
CIRCLE
  5
3A8
100
AcDbEntity
  8
PART_HOLES_LAYER_TOP
100
AcDbCircle
 10
70.16
 20
109.75
 30
0.0
 40
0.45
  0
HATCH
  5
3A9
100
AcDbEntity
  8
PART_HOLES_LAYER_TOP
100
AcDbHatch
 10
0.0
 20
0.0
 30
0.0
210
0.0
220
0.0
230
1.0
  2
SOLID
 70
         1
 71
         1
 91
        1
 92
        1
 93
        1
 72
         2
 10
70.159999999999997
 20
109.75
 40
0.45
 50
0.0
 51
360.0
 73
         1
 97
        1
330
3A8
 75
         0
 76
         1
 98
        1
 10
0.0
 20
0.0
  0
CIRCLE
  5
3AA
100
AcDbEntity
  8
PART_HOLES_LAYER_TOP
100
AcDbCircle
 10
75.04
 20
109.75
 30
0.0
 40
0.45
  0
HATCH
  5
3AB
100
AcDbEntity
  8
PART_HOLES_LAYER_TOP
100
AcDbHatch
 10
0.0
 20
0.0
 30
0.0
210
0.0
220
0.0
230
1.0
  2
SOLID
 70
         1
 71
         1
 91
        1
 92
        1
 93
        1
 72
         2
 10
75.040000000000006
 20
109.75
 40
0.45
 50
0.0
 51
360.0
 73
         1
 97
        1
330
3AA
 75
         0
 76
         1
 98
        1
 10
0.0
 20
0.0
  0
ENDSEC
  0
SECTION
  2
OBJECTS
  0
DICTIONARY
  5
19
100
AcDbDictionary
  3
ACAD_GROUP
350
1A
  3
ACAD_MLINESTYLE
350
1B
  0
DICTIONARY
  5
1A
102
{ACAD_REACTORS
330
19
102
}
100
AcDbDictionary
  0
DICTIONARY
  5
1B
102
{ACAD_REACTORS
330
19
102
}
100
AcDbDictionary
  3
STANDARD
350
1C
  0
MLINESTYLE
  5
1C
102
{ACAD_REACTORS
330
1B
102
}
100
AcDbMlineStyle
  2
STANDARD
 70
         0
  3

 62
         0
 51
90.0
 52
90.0
 71
         2
 49
0.5
 62
       256
  6
BYLAYER
 49
-0.5
 62
       256
  6
BYLAYER
  0
DICTIONARY
  5
22
102
{ACAD_REACTORS
330
19
102
}
100
AcDbDictionary
  0
ENDSEC
  0
EOF
