  0
SECTION
  2
HEADER
  9
$ACADVER
  1
AC1014
  9
$ACADMAINTVER
 70
         0
  9
$DWGCODEPAGE
  3
ANSI_1252
  9
$INSBASE
 10
0.0
 20
0.0
 30
0.0
  9
$EXTMIN
 10
0.0
 20
-6.721479
 30
0.0
  9
$EXTMAX
 10
143.25
 20
100.3
 30
0.0
  9
$LIMMIN
 10
0.0
 20
0.0
  9
$LIMMAX
 10
0.0
 20
0.0
  9
$ORTHOMODE
 70
         0
  9
$REGENMODE
 70
         1
  9
$FILLMODE
 70
         1
  9
$QTEXTMODE
 70
         0
  9
$MIRRTEXT
 70
         1
  9
$DRAGMODE
 70
         2
  9
$LTSCALE
 40
1.0
  9
$OSMODE
 70
         0
  9
$ATTMODE
 70
         1
  9
$TEXTSIZE
 40
0.2
  9
$TRACEWID
 40
0.05
  9
$TEXTSTYLE
  7
STANDARD
  9
$CLAYER
  8
0
  9
$CELTYPE
  6
CONTINUOUS
  9
$CECOLOR
 62
       256
  9
$CELTSCALE
 40
1.0
  9
$DELOBJ
 70
         1
  9
$DISPSILH
 70
         0
  9
$DIMSCALE
 40
1.0
  9
$DIMASZ
 40
0.18
  9
$DIMEXO
 40
0.0625
  9
$DIMDLI
 40
0.38
  9
$DIMRND
 40
0.0
  9
$DIMDLE
 40
0.0
  9
$DIMEXE
 40
0.18
  9
$DIMTP
 40
0.0
  9
$DIMTM
 40
0.0
  9
$DIMTXT
 40
0.18
  9
$DIMCEN
 40
0.09
  9
$DIMTSZ
 40
0.0
  9
$DIMTOL
 70
         0
  9
$DIMLIM
 70
         0
  9
$DIMTIH
 70
         1
  9
$DIMTOH
 70
         1
  9
$DIMSE1
 70
         0
  9
$DIMSE2
 70
         0
  9
$DIMTAD
 70
         0
  9
$DIMZIN
 70
         0
  9
$DIMBLK
  1

  9
$DIMASO
 70
         1
  9
$DIMSHO
 70
         1
  9
$DIMPOST
  1

  9
$DIMAPOST
  1

  9
$DIMALT
 70
         0
  9
$DIMALTD
 70
         2
  9
$DIMALTF
 40
25.4
  9
$DIMLFAC
 40
1.0
  9
$DIMTOFL
 70
         0
  9
$DIMTVP
 40
0.0
  9
$DIMTIX
 70
         0
  9
$DIMSOXD
 70
         0
  9
$DIMSAH
 70
         0
  9
$DIMBLK1
  1

  9
$DIMBLK2
  1

  9
$DIMSTYLE
  2
STANDARD
  9
$DIMCLRD
 70
         0
  9
$DIMCLRE
 70
         0
  9
$DIMCLRT
 70
         0
  9
$DIMTFAC
 40
1.0
  9
$DIMGAP
 40
0.09
  9
$DIMJUST
 70
         0
  9
$DIMSD1
 70
         0
  9
$DIMSD2
 70
         0
  9
$DIMTOLJ
 70
         1
  9
$DIMTZIN
 70
         0
  9
$DIMALTZ
 70
         0
  9
$DIMALTTZ
 70
         0
  9
$DIMFIT
 70
         3
  9
$DIMUPT
 70
         0
  9
$DIMUNIT
 70
         2
  9
$DIMDEC
 70
         4
  9
$DIMTDEC
 70
         4
  9
$DIMALTU
 70
         2
  9
$DIMALTTD
 70
         2
  9
$DIMTXSTY
  7
STANDARD
  9
$DIMAUNIT
 70
         0
  9
$LUNITS
 70
         2
  9
$LUPREC
 70
         4
  9
$SKETCHINC
 40
0.1
  9
$FILLETRAD
 40
0.0
  9
$AUNITS
 70
         0
  9
$AUPREC
 70
         0
  9
$MENU
  1
acad
  9
$ELEVATION
 40
0.0
  9
$PELEVATION
 40
0.0
  9
$THICKNESS
 40
0.0
  9
$LIMCHECK
 70
         0
  9
$BLIPMODE
 70
         1
  9
$CHAMFERA
 40
0.0
  9
$CHAMFERB
 40
0.0
  9
$CHAMFERC
 40
0.0
  9
$CHAMFERD
 40
0.0
  9
$SKPOLY
 70
         0
  9
$TDCREATE
 40
2456398.762569444
  9
$TDUPDATE
 40
0.000000000
  9
$TDINDWG
 40
0.0000000000
  9
$TDUSRTIMER
 40
0.0000000000
  9
$USRTIMER
 70
         1
  9
$ANGBASE
 50
0.0
  9
$ANGDIR
 70
         0
  9
$PDMODE
 70
         0
  9
$PDSIZE
 40
0.0
  9
$PLINEWID
 40
0.0
  9
$COORDS
 70
         0
  9
$SPLFRAME
 70
         0
  9
$SPLINETYPE
 70
         6
  9
$SPLINESEGS
 70
         8
  9
$ATTDIA
 70
         0
  9
$ATTREQ
 70
         1
  9
$HANDLING
 70
         1
  9
$HANDSEED
  5
24B
  9
$SURFTAB1
 70
         6
  9
$SURFTAB2
 70
         6
  9
$SURFTYPE
 70
         6
  9
$SURFU
 70
         6
  9
$SURFV
 70
         6
  9
$UCSNAME
  2

  9
$UCSORG
 10
0.0
 20
0.0
 30
0.0
  9
$UCSXDIR
 10
1.0
 20
0.0
 30
0.0
  9
$UCSYDIR
 10
0.0
 20
1.0
 30
0.0
  9
$PUCSNAME
  2

  9
$PUCSORG
 10
0.0
 20
0.0
 30
0.0
  9
$PUCSXDIR
 10
1.0
 20
0.0
 30
0.0
  9
$PUCSYDIR
 10
0.0
 20
1.0
 30
0.0
  9
$USERI1
 70
        -3
  9
$USERI2
 70
         0
  9
$USERI3
 70
         0
  9
$USERI4
 70
         0
  9
$USERI5
 70
         0
  9
$USERR1
 40
0.0
  9
$USERR2
 40
0.0
  9
$USERR3
 40
0.0
  9
$USERR4
 40
0.0
  9
$USERR5
 40
0.0
  9
$WORLDVIEW
 70
         1
  9
$SHADEDGE
 70
         3
  9
$SHADEDIF
 70
        70
  9
$TILEMODE
 70
         1
  9
$MAXACTVP
 70
        16
  9
$PINSBASE
 10
0.0
 20
0.0
 30
0.0
  9
$PLIMCHECK
 70
         0
  9
$PEXTMIN
 10
1.0000000000E+20
 20
1.0000000000E+20
 30
1.0000000000E+20
  9
$PEXTMAX
 10
-1.0000000000E+20
 20
-1.0000000000E+20
 30
-1.0000000000E+20
  9
$PLIMMIN
 10
0.0
 20
0.0
  9
$PLIMMAX
 10
12.0
 20
9.0
  9
$UNITMODE
 70
         0
  9
$VISRETAIN
 70
         0
  9
$PLINEGEN
 70
         1
  9
$PSLTSCALE
 70
         0
  9
$TREEDEPTH
 70
      3020
  9
$PICKSTYLE
 70
         1
  9
$CMLSTYLE
  2
STANDARD
  9
$CMLJUST
 70
         0
  9
$CMLSCALE
 40
1.0
  9
$PROXYGRAPHICS
 70
         0
  9
$MEASUREMENT
 70
         0
  0
ENDSEC
  0
SECTION
  2
CLASSES
  0
CLASS
  1
LWPOLYLINE
  2
AcDbPolyline
  3
"AutoCAD"
 90
        0
280
         0
281
         1
  0
CLASS
  1
IMAGE
  2
AcDbRasterImage
  3
ISM
 90
      127
280
         0
281
         1
  0
CLASS
  1
OLE2FRAME
  2
AcDbOle2Frame
  3
""
 90
        0
280
         0
281
         1
  0
CLASS
  1
HATCH
  2
AcDbHatch
  3
"ACAD_SEDONA"
 90
        0
280
         0
281
         1
  0
CLASS
  1
DICTIONARYVAR
  2
AcDbDictionaryVar
  3
"AutoCAD"
 90
        0
280
         0
281
         0
  0
CLASS
  1
RASTERVARIABLES
  2
AcDbRasterVariables
  3
ISM
 90
        0
280
         0
281
         0
  0
CLASS
  1
IMAGEDEF
  2
AcDbRasterImageDef
  3
ISM
 90
        0
280
         0
281
         0
  0
CLASS
  1
IMAGEDEF_REACTOR
  2
AcDbRasterImageDefReactor
  3
ISM
 90
        1
280
         0
281
         0
  0
CLASS
  1
IDBUFFER
  2
AcDbIdBuffer
  3
"Acad"
 90
        0
280
         0
281
         0
  0
CLASS
  1
SPATIAL_FILTER
  2
AcDbSpatialFilter
  3
"Acad"
 90
        0
280
         0
281
         0
  0
CLASS
  1
XRECORD
  2
AcDbXrecord
  3
"<Built In>"
 90
        0
280
         0
281
         0
  0
CLASS
  1
SORTENTSTABLE
  2
AcDbSortentsTable
  3
"AutoCAD"
 90
        0
280
         0
281
         0
  0
CLASS
  1
LAYER_INDEX
  2
AcDbLayerIndex
  3
"Acad"
 90
        0
280
         0
281
         0
  0
CLASS
  1
SPATIAL_INDEX
  2
AcDbSpatialIndex
  3
"Acad"
 90
        0
280
         0
281
         0
  0
CLASS
  1
OBJECT_PTR
  2
CAseDLPNTableRecord
  3
"ASE-LPNTableRecord"
 90
        1
280
         0
281
         0
  0
CLASS
  1
LAYOUT
  2
AcDbLayout
  3
"AutoCAD 2000"
 90
        0
280
         0
281
         0
  0
CLASS
  1
PLOTSETTINGS
  2
AcDbPlotSettings
  3
"AutoCAD 2000"
 90
        0
280
         0
281
         0
  0
CLASS
  1
ACDBDICTIONARYWDFLT
  2
AcDbDictionaryWithDefault
  3
"AutoCAD 2000"
 90
        0
280
         0
281
         0
  0
CLASS
  1
ACDBPLACEHOLDER
  2
AcDbPlaceHolder
  3
"AutoCAD 2000"
 90
        0
280
         0
281
         0
  0
CLASS
  1
VBA_PROJECT
  2
AcDbVbaProject
  3
"acadvba"
 90
        0
280
         0
281
         0
  0
CLASS
  1
WIPEOUT
  2
AcDbWipeout
  3
WipeOut|AutoCAD Express Tool|expresstools@autodesk.com
 90
      127
280
         0
281
         1
  0
CLASS
  1
WIPEOUTVARIABLES
  2
AcDbWipeoutVariables
  3
WipeOut|AutoCAD Express Tool|expresstools@autodesk.com
 90
        0
280
         0
281
         0
  0
CLASS
  1
RTEXT
  2
RText
  3
RText|AutoCAD Express Tool|expresstools@autodesk.com
 90
        0
280
         0
281
         1
  0
CLASS
  1
ARCALIGNEDTEXT
  2
AcDbArcAlignedText
  3
ATEXT|AutoCAD Express Tool|expresstools@autodesk.com
 90
        0
280
         0
281
         1
  0
ENDSEC
  0
SECTION
  2
TABLES
  0
TABLE
  2
VPORT
  5
7
100
AcDbSymbolTable
 70
         1
  0
VPORT
  5
15
100
AcDbSymbolTableRecord
100
AcDbViewportTableRecord
  2
*ACTIVE
 70
         0
 10
0.0
 20
0.0
 11
1.0
 21
1.0
 12
6.591288
 22
4.579184
 13
0.0
 23
0.0
 14
1.0
 24
1.0
 15
0.0
 25
0.0
 16
0.0
 26
0.0
 36
1.0
 17
0.0
 27
0.0
 37
0.0
 40
9.158369
 41
0.688564
 42
50.0
 43
0.0
 44
0.0
 50
0.0
 51
0.0
 71
         0
 72
       100
 73
         1
 74
         1
 75
         0
 76
         0
 77
         0
 78
         0
  0
ENDTAB
  0
TABLE
  2
LTYPE
  5
4
100
AcDbSymbolTable
 70
         3
  0
LTYPE
  5
11
100
AcDbSymbolTableRecord
100
AcDbLinetypeTableRecord
  2
BYBLOCK
 70
        64
  3

 72
        65
 73
         0
 40
0.0
  0
LTYPE
  5
12
100
AcDbSymbolTableRecord
100
AcDbLinetypeTableRecord
  2
BYLAYER
 70
        64
  3

 72
        65
 73
         0
 40
0.0
  0
LTYPE
  5
13
100
AcDbSymbolTableRecord
100
AcDbLinetypeTableRecord
  2
CONTINUOUS
 70
        64
  3
Solid line
 72
        65
 73
         0
 40
0.0
  0
ENDTAB
  0
TABLE
  2
LAYER
  5
2
100
AcDbSymbolTable
 70
         6
  0
LAYER
  5
14
100
AcDbSymbolTableRecord
100
AcDbLayerTableRecord
  2
0
 70
         0
 62
         7
  6
CONTINUOUS
  0
LAYER
  5
24
100
AcDbSymbolTableRecord
100
AcDbLayerTableRecord
  2
ASSEMBLY_OUTLINES_TOP
 70
         0
 62
       102
  6
CONTINUOUS
  0
LAYER
  5
25
100
AcDbSymbolTableRecord
100
AcDbLayerTableRecord
  2
ASSEMBLY_REF_DES_TOP
 70
         0
 62
       102
  6
CONTINUOUS
  0
LAYER
  5
26
100
AcDbSymbolTableRecord
100
AcDbLayerTableRecord
  2
BOARD_OUTLINE
 70
         0
 62
        10
  6
CONTINUOUS
  0
LAYER
  5
27
100
AcDbSymbolTableRecord
100
AcDbLayerTableRecord
  2
MOUNTING_HOLES_LAYER_TOP
 70
         0
 62
        42
  6
CONTINUOUS
  0
LAYER
  5
28
100
AcDbSymbolTableRecord
100
AcDbLayerTableRecord
  2
PART_HOLES_LAYER_TOP
 70
         0
 62
        30
  6
CONTINUOUS
  0
ENDTAB
  0
TABLE
  2
STYLE
  5
3
100
AcDbSymbolTable
 70
         4
  0
STYLE
  5
17
100
AcDbSymbolTableRecord
100
AcDbTextStyleTableRecord
  2
STANDARD
 70
         0
 40
0.0
 41
1.0
 50
0.0
 71
         0
 42
0.0
  3
txt
  4

  0
STYLE
  5
39
100
AcDbSymbolTableRecord
100
AcDbTextStyleTableRecord
  2
VERIBEST_GERBER_0
 70
         0
 40
0.0
 41
1.0
 50
0.0
 71
         0
 42
0.0
  3

  4

  0
STYLE
  5
130
100
AcDbSymbolTableRecord
100
AcDbTextStyleTableRecord
  2
GOST_TYPE_B
 70
         0
 40
0.0
 41
1.0
 50
0.0
 71
         0
 42
0.0
  3
gost_0.ttf
  4

  0
STYLE
  5
13E
100
AcDbSymbolTableRecord
100
AcDbTextStyleTableRecord
  2
GOST_D
 70
         0
 40
0.0
 41
1.0
 50
0.0
 71
         0
 42
0.0
  3
GOST.TTF
  4

  0
ENDTAB
  0
TABLE
  2
VIEW
  5
5
100
AcDbSymbolTable
 70
         0
  0
ENDTAB
  0
TABLE
  2
UCS
  5
6
100
AcDbSymbolTable
 70
         0
  0
ENDTAB
  0
TABLE
  2
APPID
  5
8
100
AcDbSymbolTable
 70
         1
  0
APPID
  5
16
100
AcDbSymbolTableRecord
100
AcDbRegAppTableRecord
  2
ACAD
 70
         0
  0
ENDTAB
  0
TABLE
  2
DIMSTYLE
  5
9
100
AcDbSymbolTable
 70
         1
  0
DIMSTYLE
105
18
100
AcDbSymbolTableRecord
100
AcDbDimStyleTableRecord
  2
STANDARD
 70
         0
  3

  4

  5

  6

  7

 40
1.0
 41
0.18
 42
0.0625
 43
0.38
 44
0.18
 45
0.0
 46
0.0
 47
0.0
 48
0.0
 71
         0
 72
         0
 73
         1
 74
         1
 75
         0
 76
         0
 77
         0
 78
         0
140
0.18
141
0.09
142
0.0
143
25.4
144
1.0
145
0.0
146
1.0
147
0.09
170
         0
171
         2
172
         0
173
         0
174
         0
175
         0
176
         0
177
         0
178
         0
270
         2
271
         4
272
         4
273
         2
274
         2
275
         0
280
         0
281
         0
282
         0
283
         1
284
         0
285
         0
286
         0
287
         3
288
         0
340
17
  0
ENDTAB
  0
TABLE
  2
BLOCK_RECORD
  5
1
100
AcDbSymbolTable
 70
         0
  0
BLOCK_RECORD
  5
A
100
AcDbSymbolTableRecord
100
AcDbBlockTableRecord
  2
*MODEL_SPACE
  0
BLOCK_RECORD
  5
B
100
AcDbSymbolTableRecord
100
AcDbBlockTableRecord
  2
*PAPER_SPACE
  0
ENDTAB
  0
ENDSEC
  0
SECTION
  2
BLOCKS
  0
BLOCK
  5
D
100
AcDbEntity
  8
0
100
AcDbBlockBegin
  2
*MODEL_SPACE
 70
         0
 10
0.0
 20
0.0
 30
0.0
  3
*MODEL_SPACE
  1

  0
ENDBLK
  5
E
100
AcDbEntity
  8
0
100
AcDbBlockEnd
  0
BLOCK
  5
F
100
AcDbEntity
 67
         1
  8
0
100
AcDbBlockBegin
  2
*PAPER_SPACE
 70
         0
 10
0.0
 20
0.0
 30
0.0
  3
*PAPER_SPACE
  1

  0
ENDBLK
  5
10
100
AcDbEntity
 67
         1
  8
0
100
AcDbBlockEnd
  0
ENDSEC
  0
SECTION
  2
ENTITIES
  0
LWPOLYLINE
  5
29
100
AcDbEntity
  8
ASSEMBLY_OUTLINES_TOP
100
AcDbPolyline
 90
        3
 70
         1
 10
137.3
 20
-6.111479
 10
136.16
 20
-6.681479
 10
136.16
 20
-5.541479
  0
HATCH
  5
2A
100
AcDbEntity
  8
ASSEMBLY_OUTLINES_TOP
100
AcDbHatch
 10
0.0
 20
0.0
 30
0.0
210
0.0
220
0.0
230
1.0
  2
SOLID
 70
         1
 71
         1
 91
        1
 92
        2
 72
         0
 73
         1
 93
        3
 10
137.30000000000001
 20
-6.1114790000000001
 10
136.16
 20
-6.6814790000000004
 10
136.16
 20
-5.5414789999999998
 97
        1
330
29
 75
         0
 76
         1
 98
        1
 10
0.0
 20
0.0
  0
LWPOLYLINE
  5
2B
100
AcDbEntity
  8
ASSEMBLY_OUTLINES_TOP
100
AcDbPolyline
 90
        3
 70
         1
 10
91.8
 20
-6.111479
 10
92.94
 20
-5.541479
 10
92.94
 20
-6.681479
  0
HATCH
  5
2C
100
AcDbEntity
  8
ASSEMBLY_OUTLINES_TOP
100
AcDbHatch
 10
0.0
 20
0.0
 30
0.0
210
0.0
220
0.0
230
1.0
  2
SOLID
 70
         1
 71
         1
 91
        1
 92
        2
 72
         0
 73
         1
 93
        3
 10
91.799999999999997
 20
-6.1114790000000001
 10
92.939999999999998
 20
-5.5414789999999998
 10
92.939999999999998
 20
-6.6814790000000004
 97
        1
330
2B
 75
         0
 76
         1
 98
        1
 10
0.0
 20
0.0
  0
LWPOLYLINE
  5
2D
100
AcDbEntity
  8
ASSEMBLY_OUTLINES_TOP
100
AcDbPolyline
 90
        2
 70
         0
 43
0.2
 10
118.441708
 20
-6.111479
 10
136.73
 20
-6.111479
  0
LWPOLYLINE
  5
2E
100
AcDbEntity
  8
ASSEMBLY_OUTLINES_TOP
100
AcDbPolyline
 90
        2
 70
         0
 43
0.2
 10
92.37
 20
-6.111479
 10
110.658293
 20
-6.111479
  0
LWPOLYLINE
  5
2F
100
AcDbEntity
  8
ASSEMBLY_OUTLINES_TOP
100
AcDbPolyline
 90
        2
 70
         0
 43
0.2
 10
137.3
 20
2.19
 10
137.3
 20
-6.621479
  0
LWPOLYLINE
  5
30
100
AcDbEntity
  8
ASSEMBLY_OUTLINES_TOP
100
AcDbPolyline
 90
        2
 70
         0
 43
0.2
 10
91.8
 20
2.19
 10
91.8
 20
-6.621479
  0
LWPOLYLINE
  5
31
100
AcDbEntity
  8
ASSEMBLY_OUTLINES_TOP
100
AcDbPolyline
 90
        3
 70
         1
 10
83.4
 20
2.7
 10
82.83
 20
3.84
 10
83.97
 20
3.84
  0
HATCH
  5
32
100
AcDbEntity
  8
ASSEMBLY_OUTLINES_TOP
100
AcDbHatch
 10
0.0
 20
0.0
 30
0.0
210
0.0
220
0.0
230
1.0
  2
SOLID
 70
         1
 71
         1
 91
        1
 92
        2
 72
         0
 73
         1
 93
        3
 10
83.400000000000006
 20
2.7000000000000002
 10
82.829999999999998
 20
3.8399999999999999
 10
83.969999999999999
 20
3.8399999999999999
 97
        1
330
31
 75
         0
 76
         1
 98
        1
 10
0.0
 20
0.0
  0
LWPOLYLINE
  5
33
100
AcDbEntity
  8
ASSEMBLY_OUTLINES_TOP
100
AcDbPolyline
 90
        3
 70
         1
 10
83.4
 20
100.2
 10
83.969999
 20
99.06
 10
82.83
 20
99.06
  0
HATCH
  5
34
100
AcDbEntity
  8
ASSEMBLY_OUTLINES_TOP
100
AcDbHatch
 10
0.0
 20
0.0
 30
0.0
210
0.0
220
0.0
230
1.0
  2
SOLID
 70
         1
 71
         1
 91
        1
 92
        2
 72
         0
 73
         1
 93
        3
 10
83.400000000000006
 20
100.2
 10
83.969999000000001
 20
99.060000000000002
 10
82.829999999999998
 20
99.060000000000002
 97
        1
330
33
 75
         0
 76
         1
 98
        1
 10
0.0
 20
0.0
  0
LWPOLYLINE
  5
35
100
AcDbEntity
  8
ASSEMBLY_OUTLINES_TOP
100
AcDbPolyline
 90
        2
 70
         0
 43
0.2
 10
83.4
 20
47.558293
 10
83.4
 20
3.27
  0
LWPOLYLINE
  5
36
100
AcDbEntity
  8
ASSEMBLY_OUTLINES_TOP
100
AcDbPolyline
 90
        2
 70
         0
 43
0.2
 10
83.4
 20
99.63
 10
83.4
 20
55.341707
  0
LWPOLYLINE
  5
37
100
AcDbEntity
  8
ASSEMBLY_OUTLINES_TOP
100
AcDbPolyline
 90
        2
 70
         0
 43
0.2
 10
91.29
 20
2.7
 10
82.89
 20
2.7
  0
LWPOLYLINE
  5
38
100
AcDbEntity
  8
ASSEMBLY_OUTLINES_TOP
100
AcDbPolyline
 90
        2
 70
         0
 43
0.2
 10
91.29
 20
100.2
 10
82.89
 20
100.2
  0
TEXT
  5
3A
100
AcDbEntity
  8
ASSEMBLY_OUTLINES_TOP
100
AcDbText
 10
111.06385
 20
-6.746478
 30
0.0
 40
1.27
  1
45.5mm
  7
VERIBEST_GERBER_0
 72
         1
 11
114.55
 21
-6.111478
 31
0.0
100
AcDbText
 73
         2
  0
TEXT
  5
3B
100
AcDbEntity
  8
ASSEMBLY_OUTLINES_TOP
100
AcDbText
 10
84.035
 20
47.96385
 30
0.0
 40
1.27
  1
97.5mm
 50
90.0
  7
VERIBEST_GERBER_0
 72
         1
 11
83.4
 21
51.45
 31
0.0
100
AcDbText
 73
         2
  0
LWPOLYLINE
  5
3C
100
AcDbEntity
  8
ASSEMBLY_OUTLINES_TOP
100
AcDbPolyline
 90
        4
 70
         1
 43
0.1
 10
104.5
 20
19.05
 10
104.5
 20
20.35
 10
107.3
 20
20.35
 10
107.3
 20
19.05
  0
LWPOLYLINE
  5
3D
100
AcDbEntity
  8
ASSEMBLY_OUTLINES_TOP
100
AcDbPolyline
 90
        4
 70
         1
 43
0.1
 10
103.35
 20
12.3
 10
103.35
 20
15.1
 10
104.65
 20
15.1
 10
104.65
 20
12.3
  0
LWPOLYLINE
  5
3E
100
AcDbEntity
  8
ASSEMBLY_OUTLINES_TOP
100
AcDbPolyline
 90
        4
 70
         1
 43
0.1
 10
104.5
 20
17.55
 10
104.5
 20
18.85
 10
107.3
 20
18.85
 10
107.3
 20
17.55
  0
LWPOLYLINE
  5
3F
100
AcDbEntity
  8
ASSEMBLY_OUTLINES_TOP
100
AcDbPolyline
 90
        4
 70
         1
 43
0.1
 10
107.55
 20
17.45
 10
107.55
 20
20.35
 10
108.85
 20
20.35
 10
108.85
 20
17.45
  0
LWPOLYLINE
  5
40
100
AcDbEntity
  8
ASSEMBLY_OUTLINES_TOP
100
AcDbPolyline
 90
        4
 70
         1
 43
0.1
 10
106.35
 20
12.05
 10
106.35
 20
14.95
 10
107.65
 20
14.95
 10
107.65
 20
12.05
  0
LWPOLYLINE
  5
41
100
AcDbEntity
  8
ASSEMBLY_OUTLINES_TOP
100
AcDbPolyline
 90
        4
 70
         1
 43
0.1
 10
107.85
 20
12.05
 10
107.85
 20
14.95
 10
109.15
 20
14.95
 10
109.15
 20
12.05
  0
LWPOLYLINE
  5
42
100
AcDbEntity
  8
ASSEMBLY_OUTLINES_TOP
100
AcDbPolyline
 90
        4
 70
         1
 43
0.1
 10
123.1
 20
74.8
 10
123.1
 20
75.6
 10
124.3
 20
75.6
 10
124.3
 20
74.8
  0
LWPOLYLINE
  5
43
100
AcDbEntity
  8
ASSEMBLY_OUTLINES_TOP
100
AcDbPolyline
 90
        2
 70
         0
 43
0.1
 10
124.3
 20
75.6
 10
124.3
 20
74.8
  0
LWPOLYLINE
  5
44
100
AcDbEntity
  8
ASSEMBLY_OUTLINES_TOP
100
AcDbPolyline
 90
        2
 70
         0
 43
0.1
 10
124.2
 20
75.6
 10
124.2
 20
74.8
  0
LWPOLYLINE
  5
45
100
AcDbEntity
  8
ASSEMBLY_OUTLINES_TOP
100
AcDbPolyline
 90
        2
 70
         0
 43
0.1
 10
124.1
 20
75.6
 10
124.1
 20
74.8
  0
LWPOLYLINE
  5
46
100
AcDbEntity
  8
ASSEMBLY_OUTLINES_TOP
100
AcDbPolyline
 90
        2
 70
         0
 43
0.1
 10
124.0
 20
75.6
 10
124.0
 20
74.8
  0
LWPOLYLINE
  5
47
100
AcDbEntity
  8
ASSEMBLY_OUTLINES_TOP
100
AcDbPolyline
 90
        2
 70
         0
 43
0.1
 10
123.9
 20
75.6
 10
123.9
 20
74.8
  0
LWPOLYLINE
  5
48
100
AcDbEntity
  8
ASSEMBLY_OUTLINES_TOP
100
AcDbPolyline
 90
        2
 70
         0
 43
0.1
 10
123.8
 20
75.6
 10
123.8
 20
74.8
  0
LWPOLYLINE
  5
49
100
AcDbEntity
  8
ASSEMBLY_OUTLINES_TOP
100
AcDbPolyline
 90
        4
 70
         1
 43
0.1
 10
104.85
 20
12.05
 10
104.85
 20
14.95
 10
106.15
 20
14.95
 10
106.15
 20
12.05
  0
LWPOLYLINE
  5
4A
100
AcDbEntity
  8
ASSEMBLY_OUTLINES_TOP
100
AcDbPolyline
 90
        4
 70
         1
 43
0.1
 10
104.75
 20
68.05
 10
104.75
 20
69.35
 10
107.65
 20
69.35
 10
107.65
 20
68.05
  0
LWPOLYLINE
  5
4B
100
AcDbEntity
  8
ASSEMBLY_OUTLINES_TOP
100
AcDbPolyline
 90
        4
 70
         1
 43
0.1
 10
96.0
 20
13.55
 10
96.0
 20
14.85
 10
98.8
 20
14.85
 10
98.8
 20
13.55
  0
LWPOLYLINE
  5
4C
100
AcDbEntity
  8
ASSEMBLY_OUTLINES_TOP
100
AcDbPolyline
 90
        4
 70
         1
 43
0.1
 10
116.65
 20
59.4
 10
116.65
 20
62.2
 10
117.95
 20
62.2
 10
117.95
 20
59.4
  0
LWPOLYLINE
  5
4D
100
AcDbEntity
  8
ASSEMBLY_OUTLINES_TOP
100
AcDbPolyline
 90
        4
 70
         1
 10
118.13
 20
73.53
 10
118.13
 20
78.61
 10
120.67
 20
78.61
 10
120.67
 20
73.53
  0
LWPOLYLINE
  5
4E
100
AcDbEntity
  8
ASSEMBLY_OUTLINES_TOP
100
AcDbPolyline
 90
        4
 70
         1
 10
121.0
 20
76.07
 10
121.0
 20
88.07
 10
136.95
 20
88.07
 10
136.95
 20
76.07
  0
LWPOLYLINE
  5
4F
100
AcDbEntity
  8
ASSEMBLY_OUTLINES_TOP
100
AcDbPolyline
 90
        8
 70
         1
 10
137.8
 20
78.25
 10
136.8
 20
78.25
 10
136.8
 20
76.65
 10
128.8
 20
76.65
 10
128.8
 20
87.55
 10
136.8
 20
87.55
 10
136.8
 20
86.0
 10
137.8
 20
86.0
  0
LWPOLYLINE
  5
50
100
AcDbEntity
  8
ASSEMBLY_OUTLINES_TOP
100
AcDbPolyline
 90
        4
 70
         1
 43
0.1
 10
116.6
 20
80.6
 10
116.6
 20
86.2
 10
120.4
 20
86.2
 10
120.4
 20
80.6
  0
LWPOLYLINE
  5
51
100
AcDbEntity
  8
ASSEMBLY_OUTLINES_TOP
100
AcDbPolyline
 90
        2
 70
         0
 43
0.1
 10
120.4
 20
80.7
 10
116.6
 20
80.7
  0
LWPOLYLINE
  5
52
100
AcDbEntity
  8
ASSEMBLY_OUTLINES_TOP
100
AcDbPolyline
 90
        2
 70
         0
 43
0.1
 10
120.4
 20
80.8
 10
116.6
 20
80.8
  0
LWPOLYLINE
  5
53
100
AcDbEntity
  8
ASSEMBLY_OUTLINES_TOP
100
AcDbPolyline
 90
        2
 70
         0
 43
0.1
 10
120.4
 20
80.9
 10
116.6
 20
80.9
  0
LWPOLYLINE
  5
54
100
AcDbEntity
  8
ASSEMBLY_OUTLINES_TOP
100
AcDbPolyline
 90
        2
 70
         0
 43
0.1
 10
120.4
 20
81.0
 10
116.6
 20
81.0
  0
LWPOLYLINE
  5
55
100
AcDbEntity
  8
ASSEMBLY_OUTLINES_TOP
100
AcDbPolyline
 90
        2
 70
         0
 43
0.1
 10
120.4
 20
81.1
 10
116.6
 20
81.1
  0
LWPOLYLINE
  5
56
100
AcDbEntity
  8
ASSEMBLY_OUTLINES_TOP
100
AcDbPolyline
 90
        2
 70
         0
 43
0.1
 10
120.4
 20
81.2
 10
116.6
 20
81.2
  0
LWPOLYLINE
  5
57
100
AcDbEntity
  8
ASSEMBLY_OUTLINES_TOP
100
AcDbPolyline
 90
        2
 70
         0
 43
0.1
 10
120.4
 20
81.3
 10
116.6
 20
81.3
  0
LWPOLYLINE
  5
58
100
AcDbEntity
  8
ASSEMBLY_OUTLINES_TOP
100
AcDbPolyline
 90
        2
 70
         0
 43
0.1
 10
120.4
 20
81.4
 10
116.6
 20
81.4
  0
LWPOLYLINE
  5
59
100
AcDbEntity
  8
ASSEMBLY_OUTLINES_TOP
100
AcDbPolyline
 90
        4
 70
         1
 43
0.1
 10
112.2
 20
80.6
 10
112.2
 20
86.2
 10
116.0
 20
86.2
 10
116.0
 20
80.6
  0
LWPOLYLINE
  5
5A
100
AcDbEntity
  8
ASSEMBLY_OUTLINES_TOP
100
AcDbPolyline
 90
        2
 70
         0
 43
0.1
 10
112.2
 20
86.1
 10
116.0
 20
86.1
  0
LWPOLYLINE
  5
5B
100
AcDbEntity
  8
ASSEMBLY_OUTLINES_TOP
100
AcDbPolyline
 90
        2
 70
         0
 43
0.1
 10
112.2
 20
86.0
 10
116.0
 20
86.0
  0
LWPOLYLINE
  5
5C
100
AcDbEntity
  8
ASSEMBLY_OUTLINES_TOP
100
AcDbPolyline
 90
        2
 70
         0
 43
0.1
 10
112.2
 20
85.9
 10
116.0
 20
85.9
  0
LWPOLYLINE
  5
5D
100
AcDbEntity
  8
ASSEMBLY_OUTLINES_TOP
100
AcDbPolyline
 90
        2
 70
         0
 43
0.1
 10
112.2
 20
85.8
 10
116.0
 20
85.8
  0
LWPOLYLINE
  5
5E
100
AcDbEntity
  8
ASSEMBLY_OUTLINES_TOP
100
AcDbPolyline
 90
        2
 70
         0
 43
0.1
 10
112.2
 20
85.7
 10
116.0
 20
85.7
  0
LWPOLYLINE
  5
5F
100
AcDbEntity
  8
ASSEMBLY_OUTLINES_TOP
100
AcDbPolyline
 90
        2
 70
         0
 43
0.1
 10
112.2
 20
85.6
 10
116.0
 20
85.6
  0
LWPOLYLINE
  5
60
100
AcDbEntity
  8
ASSEMBLY_OUTLINES_TOP
100
AcDbPolyline
 90
        2
 70
         0
 43
0.1
 10
112.2
 20
85.5
 10
116.0
 20
85.5
  0
LWPOLYLINE
  5
61
100
AcDbEntity
  8
ASSEMBLY_OUTLINES_TOP
100
AcDbPolyline
 90
        2
 70
         0
 43
0.1
 10
112.2
 20
85.4
 10
116.0
 20
85.4
  0
LWPOLYLINE
  5
62
100
AcDbEntity
  8
ASSEMBLY_OUTLINES_TOP
100
AcDbPolyline
 90
        4
 70
         1
 10
129.53
 20
72.03
 10
129.53
 20
74.57
 10
134.61
 20
74.57
 10
134.61
 20
72.03
  0
LWPOLYLINE
  5
63
100
AcDbEntity
  8
ASSEMBLY_OUTLINES_TOP
100
AcDbPolyline
 90
        4
 70
         1
 43
0.1
 10
126.45
 20
72.65
 10
126.45
 20
73.95
 10
129.35
 20
73.95
 10
129.35
 20
72.65
  0
LWPOLYLINE
  5
64
100
AcDbEntity
  8
ASSEMBLY_OUTLINES_TOP
100
AcDbPolyline
 90
        4
 70
         1
 43
0.1
 10
130.65
 20
52.95
 10
130.65
 20
55.85
 10
131.95
 20
55.85
 10
131.95
 20
52.95
  0
LWPOLYLINE
  5
65
100
AcDbEntity
  8
ASSEMBLY_OUTLINES_TOP
100
AcDbPolyline
 90
        4
 70
         1
 43
0.1
 10
132.15
 20
52.95
 10
132.15
 20
55.85
 10
133.45
 20
55.85
 10
133.45
 20
52.95
  0
LWPOLYLINE
  5
66
100
AcDbEntity
  8
ASSEMBLY_OUTLINES_TOP
100
AcDbPolyline
 90
        4
 70
         1
 43
0.1
 10
96.05
 20
9.35
 10
96.05
 20
12.25
 10
97.35
 20
12.25
 10
97.35
 20
9.35
  0
LWPOLYLINE
  5
67
100
AcDbEntity
  8
ASSEMBLY_OUTLINES_TOP
100
AcDbPolyline
 90
        4
 70
         1
 43
0.1
 10
93.85
 20
9.25
 10
93.85
 20
12.35
 10
95.55
 20
12.35
 10
95.55
 20
9.25
  0
LWPOLYLINE
  5
68
100
AcDbEntity
  8
ASSEMBLY_OUTLINES_TOP
100
AcDbPolyline
 90
        2
 70
         0
 43
0.1
 10
93.85
 20
12.25
 10
95.55
 20
12.25
  0
LWPOLYLINE
  5
69
100
AcDbEntity
  8
ASSEMBLY_OUTLINES_TOP
100
AcDbPolyline
 90
        2
 70
         0
 43
0.1
 10
93.85
 20
12.15
 10
95.55
 20
12.15
  0
LWPOLYLINE
  5
6A
100
AcDbEntity
  8
ASSEMBLY_OUTLINES_TOP
100
AcDbPolyline
 90
        2
 70
         0
 43
0.1
 10
93.85
 20
12.05
 10
95.55
 20
12.05
  0
LWPOLYLINE
  5
6B
100
AcDbEntity
  8
ASSEMBLY_OUTLINES_TOP
100
AcDbPolyline
 90
        2
 70
         0
 43
0.1
 10
93.85
 20
11.95
 10
95.55
 20
11.95
  0
LWPOLYLINE
  5
6C
100
AcDbEntity
  8
ASSEMBLY_OUTLINES_TOP
100
AcDbPolyline
 90
        2
 70
         0
 43
0.1
 10
93.85
 20
11.85
 10
95.55
 20
11.85
  0
LWPOLYLINE
  5
6D
100
AcDbEntity
  8
ASSEMBLY_OUTLINES_TOP
100
AcDbPolyline
 90
        2
 70
         0
 43
0.1
 10
93.85
 20
11.75
 10
95.55
 20
11.75
  0
LWPOLYLINE
  5
6E
100
AcDbEntity
  8
ASSEMBLY_OUTLINES_TOP
100
AcDbPolyline
 90
        4
 70
         1
 43
0.1
 10
109.0
 20
93.05
 10
109.0
 20
96.75
 10
112.0
 20
96.75
 10
112.0
 20
93.05
  0
LWPOLYLINE
  5
6F
100
AcDbEntity
  8
ASSEMBLY_OUTLINES_TOP
100
AcDbPolyline
 90
        2
 70
         0
 43
0.1
 10
109.0
 20
96.65
 10
112.0
 20
96.65
  0
LWPOLYLINE
  5
70
100
AcDbEntity
  8
ASSEMBLY_OUTLINES_TOP
100
AcDbPolyline
 90
        2
 70
         0
 43
0.1
 10
109.0
 20
96.55
 10
112.0
 20
96.55
  0
LWPOLYLINE
  5
71
100
AcDbEntity
  8
ASSEMBLY_OUTLINES_TOP
100
AcDbPolyline
 90
        2
 70
         0
 43
0.1
 10
109.0
 20
96.45
 10
112.0
 20
96.45
  0
LWPOLYLINE
  5
72
100
AcDbEntity
  8
ASSEMBLY_OUTLINES_TOP
100
AcDbPolyline
 90
        2
 70
         0
 43
0.1
 10
109.0
 20
96.35
 10
112.0
 20
96.35
  0
LWPOLYLINE
  5
73
100
AcDbEntity
  8
ASSEMBLY_OUTLINES_TOP
100
AcDbPolyline
 90
        2
 70
         0
 43
0.1
 10
109.0
 20
96.25
 10
112.0
 20
96.25
  0
LWPOLYLINE
  5
74
100
AcDbEntity
  8
ASSEMBLY_OUTLINES_TOP
100
AcDbPolyline
 90
        2
 70
         0
 43
0.1
 10
109.0
 20
96.15
 10
112.0
 20
96.15
  0
LWPOLYLINE
  5
75
100
AcDbEntity
  8
ASSEMBLY_OUTLINES_TOP
100
AcDbPolyline
 90
        2
 70
         0
 43
0.1
 10
109.0
 20
96.05
 10
112.0
 20
96.05
  0
LWPOLYLINE
  5
76
100
AcDbEntity
  8
ASSEMBLY_OUTLINES_TOP
100
AcDbPolyline
 90
        2
 70
         0
 43
0.1
 10
109.0
 20
95.95
 10
112.0
 20
95.95
  0
LWPOLYLINE
  5
77
100
AcDbEntity
  8
ASSEMBLY_OUTLINES_TOP
100
AcDbPolyline
 90
        4
 70
         1
 43
0.1
 10
112.335
 20
91.098
 10
112.335
 20
97.318
 10
119.065
 20
97.318
 10
119.065
 20
91.098
  0
LWPOLYLINE
  5
78
100
AcDbEntity
  8
ASSEMBLY_OUTLINES_TOP
100
AcDbPolyline
 90
        4
 70
         1
 43
0.1
 10
109.1
 20
86.15
 10
109.1
 20
89.85
 10
112.1
 20
89.85
 10
112.1
 20
86.15
  0
LWPOLYLINE
  5
79
100
AcDbEntity
  8
ASSEMBLY_OUTLINES_TOP
100
AcDbPolyline
 90
        2
 70
         0
 43
0.1
 10
112.1
 20
86.25
 10
109.1
 20
86.25
  0
LWPOLYLINE
  5
7A
100
AcDbEntity
  8
ASSEMBLY_OUTLINES_TOP
100
AcDbPolyline
 90
        2
 70
         0
 43
0.1
 10
112.1
 20
86.35
 10
109.1
 20
86.35
  0
LWPOLYLINE
  5
7B
100
AcDbEntity
  8
ASSEMBLY_OUTLINES_TOP
100
AcDbPolyline
 90
        2
 70
         0
 43
0.1
 10
112.1
 20
86.45
 10
109.1
 20
86.45
  0
LWPOLYLINE
  5
7C
100
AcDbEntity
  8
ASSEMBLY_OUTLINES_TOP
100
AcDbPolyline
 90
        2
 70
         0
 43
0.1
 10
112.1
 20
86.55
 10
109.1
 20
86.55
  0
LWPOLYLINE
  5
7D
100
AcDbEntity
  8
ASSEMBLY_OUTLINES_TOP
100
AcDbPolyline
 90
        2
 70
         0
 43
0.1
 10
112.1
 20
86.65
 10
109.1
 20
86.65
  0
LWPOLYLINE
  5
7E
100
AcDbEntity
  8
ASSEMBLY_OUTLINES_TOP
100
AcDbPolyline
 90
        2
 70
         0
 43
0.1
 10
112.1
 20
86.75
 10
109.1
 20
86.75
  0
LWPOLYLINE
  5
7F
100
AcDbEntity
  8
ASSEMBLY_OUTLINES_TOP
100
AcDbPolyline
 90
        2
 70
         0
 43
0.1
 10
112.1
 20
86.85
 10
109.1
 20
86.85
  0
LWPOLYLINE
  5
80
100
AcDbEntity
  8
ASSEMBLY_OUTLINES_TOP
100
AcDbPolyline
 90
        2
 70
         0
 43
0.1
 10
112.1
 20
86.95
 10
109.1
 20
86.95
  0
LWPOLYLINE
  5
81
100
AcDbEntity
  8
ASSEMBLY_OUTLINES_TOP
100
AcDbPolyline
 90
        8
 70
         0
 10
96.0
 20
83.1
 42
-2.549150321
 10
106.2
 20
83.1
 10
108.1
 20
83.1
 10
108.1
 20
81.1
 10
94.1
 20
81.1
 10
94.1
 20
83.1
 10
96.0
 20
83.1
 10
95.9
 20
83.1
  0
LWPOLYLINE
  5
82
100
AcDbEntity
  8
ASSEMBLY_OUTLINES_TOP
100
AcDbPolyline
 90
        4
 70
         1
 43
0.1
 10
106.0
 20
64.3
 10
106.0
 20
67.3
 10
107.4
 20
67.3
 10
107.4
 20
64.3
  0
LWPOLYLINE
  5
83
100
AcDbEntity
  8
ASSEMBLY_OUTLINES_TOP
100
AcDbPolyline
 90
        2
 70
         0
 43
0.1
 10
106.0
 20
67.2
 10
106.1
 20
67.3
  0
LWPOLYLINE
  5
84
100
AcDbEntity
  8
ASSEMBLY_OUTLINES_TOP
100
AcDbPolyline
 90
        2
 70
         0
 43
0.1
 10
106.0
 20
67.1
 10
106.2
 20
67.3
  0
LWPOLYLINE
  5
85
100
AcDbEntity
  8
ASSEMBLY_OUTLINES_TOP
100
AcDbPolyline
 90
        2
 70
         0
 43
0.1
 10
106.0
 20
67.0
 10
106.3
 20
67.3
  0
LWPOLYLINE
  5
86
100
AcDbEntity
  8
ASSEMBLY_OUTLINES_TOP
100
AcDbPolyline
 90
        2
 70
         0
 43
0.1
 10
106.0
 20
66.9
 10
106.4
 20
67.3
  0
LWPOLYLINE
  5
87
100
AcDbEntity
  8
ASSEMBLY_OUTLINES_TOP
100
AcDbPolyline
 90
        2
 70
         0
 43
0.1
 10
106.0
 20
66.8
 10
106.5
 20
67.3
  0
LWPOLYLINE
  5
88
100
AcDbEntity
  8
ASSEMBLY_OUTLINES_TOP
100
AcDbPolyline
 90
        2
 70
         0
 43
0.1
 10
106.0
 20
66.7
 10
106.6
 20
67.3
  0
LWPOLYLINE
  5
89
100
AcDbEntity
  8
ASSEMBLY_OUTLINES_TOP
100
AcDbPolyline
 90
        4
 70
         1
 43
0.1
 10
113.35
 20
67.15
 10
113.35
 20
70.05
 10
114.65
 20
70.05
 10
114.65
 20
67.15
  0
LWPOLYLINE
  5
8A
100
AcDbEntity
  8
ASSEMBLY_OUTLINES_TOP
100
AcDbPolyline
 90
        4
 70
         1
 43
0.1
 10
111.65
 20
67.15
 10
111.65
 20
70.05
 10
112.95
 20
70.05
 10
112.95
 20
67.15
  0
LWPOLYLINE
  5
8B
100
AcDbEntity
  8
ASSEMBLY_OUTLINES_TOP
100
AcDbPolyline
 90
        4
 70
         1
 43
0.1
 10
110.15
 20
67.15
 10
110.15
 20
70.05
 10
111.45
 20
70.05
 10
111.45
 20
67.15
  0
LWPOLYLINE
  5
8C
100
AcDbEntity
  8
ASSEMBLY_OUTLINES_TOP
100
AcDbPolyline
 90
        4
 70
         1
 43
0.1
 10
108.45
 20
67.15
 10
108.45
 20
70.05
 10
109.75
 20
70.05
 10
109.75
 20
67.15
  0
LWPOLYLINE
  5
8D
100
AcDbEntity
  8
ASSEMBLY_OUTLINES_TOP
100
AcDbPolyline
 90
        4
 70
         1
 43
0.1
 10
113.75
 20
74.5
 10
113.75
 20
77.3
 10
115.05
 20
77.3
 10
115.05
 20
74.5
  0
LWPOLYLINE
  5
8E
100
AcDbEntity
  8
ASSEMBLY_OUTLINES_TOP
100
AcDbPolyline
 90
        4
 70
         1
 43
0.1
 10
113.75
 20
71.0
 10
113.75
 20
73.8
 10
115.05
 20
73.8
 10
115.05
 20
71.0
  0
LWPOLYLINE
  5
8F
100
AcDbEntity
  8
ASSEMBLY_OUTLINES_TOP
100
AcDbPolyline
 90
        4
 70
         1
 43
0.1
 10
103.6
 20
77.95
 10
103.6
 20
79.25
 10
106.4
 20
79.25
 10
106.4
 20
77.95
  0
LWPOLYLINE
  5
90
100
AcDbEntity
  8
ASSEMBLY_OUTLINES_TOP
100
AcDbPolyline
 90
        4
 70
         1
 43
0.1
 10
103.2
 20
72.0
 10
103.2
 20
76.0
 10
113.2
 20
76.0
 10
113.2
 20
72.0
  0
LWPOLYLINE
  5
91
100
AcDbEntity
  8
ASSEMBLY_OUTLINES_TOP
100
AcDbPolyline
 90
        2
 70
         1
 43
0.1
 10
111.7
 20
75.0
 42
-1.0
 10
112.7
 20
75.0
 42
-1.0
  0
LWPOLYLINE
  5
92
100
AcDbEntity
  8
ASSEMBLY_OUTLINES_TOP
100
AcDbPolyline
 90
        4
 70
         1
 43
0.1
 10
106.8
 20
77.95
 10
106.8
 20
79.25
 10
109.6
 20
79.25
 10
109.6
 20
77.95
  0
LWPOLYLINE
  5
93
100
AcDbEntity
  8
ASSEMBLY_OUTLINES_TOP
100
AcDbPolyline
 90
        4
 70
         1
 43
0.1
 10
109.9
 20
77.95
 10
109.9
 20
79.25
 10
112.7
 20
79.25
 10
112.7
 20
77.95
  0
LWPOLYLINE
  5
94
100
AcDbEntity
  8
ASSEMBLY_OUTLINES_TOP
100
AcDbPolyline
 90
        4
 70
         1
 43
0.1
 10
114.25
 20
63.65
 10
114.25
 20
66.55
 10
115.55
 20
66.55
 10
115.55
 20
63.65
  0
LWPOLYLINE
  5
95
100
AcDbEntity
  8
ASSEMBLY_OUTLINES_TOP
100
AcDbPolyline
 90
        4
 70
         1
 43
0.1
 10
112.25
 20
63.65
 10
112.25
 20
66.55
 10
113.55
 20
66.55
 10
113.55
 20
63.65
  0
LWPOLYLINE
  5
96
100
AcDbEntity
  8
ASSEMBLY_OUTLINES_TOP
100
AcDbPolyline
 90
        4
 70
         1
 43
0.1
 10
112.25
 20
61.7
 10
112.25
 20
63.5
 10
115.55
 20
63.5
 10
115.55
 20
61.7
  0
LWPOLYLINE
  5
97
100
AcDbEntity
  8
ASSEMBLY_OUTLINES_TOP
100
AcDbPolyline
 90
        4
 70
         1
 10
124.34
 20
88.58
 10
124.34
 20
97.58
 10
138.84
 20
97.58
 10
138.84
 20
88.58
  0
LWPOLYLINE
  5
98
100
AcDbEntity
  8
ASSEMBLY_OUTLINES_TOP
100
AcDbPolyline
 90
        4
 70
         1
 43
0.1
 10
121.65
 20
88.55
 10
121.65
 20
91.45
 10
122.95
 20
91.45
 10
122.95
 20
88.55
  0
LWPOLYLINE
  5
99
100
AcDbEntity
  8
ASSEMBLY_OUTLINES_TOP
100
AcDbPolyline
 90
        4
 70
         1
 10
124.84
 20
57.33
 10
124.84
 20
70.53
 10
138.84
 20
70.53
 10
138.84
 20
57.33
  0
LWPOLYLINE
  5
9A
100
AcDbEntity
  8
ASSEMBLY_OUTLINES_TOP
100
AcDbPolyline
 90
        4
 70
         1
 43
0.1
 10
121.75
 20
64.05
 10
121.75
 20
65.35
 10
124.65
 20
65.35
 10
124.65
 20
64.05
  0
LWPOLYLINE
  5
9B
100
AcDbEntity
  8
ASSEMBLY_OUTLINES_TOP
100
AcDbPolyline
 90
        4
 70
         1
 43
0.1
 10
121.75
 20
62.55
 10
121.75
 20
63.85
 10
124.65
 20
63.85
 10
124.65
 20
62.55
  0
LWPOLYLINE
  5
9C
100
AcDbEntity
  8
ASSEMBLY_OUTLINES_TOP
100
AcDbPolyline
 90
        4
 70
         1
 43
0.1
 10
102.3
 20
19.95
 10
102.3
 20
23.25
 10
104.1
 20
23.25
 10
104.1
 20
19.95
  0
LWPOLYLINE
  5
9D
100
AcDbEntity
  8
ASSEMBLY_OUTLINES_TOP
100
AcDbPolyline
 90
        4
 70
         1
 43
0.1
 10
98.8
 20
15.3
 10
98.8
 20
19.3
 10
102.8
 20
19.3
 10
102.8
 20
15.3
  0
LWPOLYLINE
  5
9E
100
AcDbEntity
  8
ASSEMBLY_OUTLINES_TOP
100
AcDbPolyline
 90
        2
 70
         0
 43
0.1
 10
102.7
 20
15.3
 10
102.8
 20
15.4
  0
LWPOLYLINE
  5
9F
100
AcDbEntity
  8
ASSEMBLY_OUTLINES_TOP
100
AcDbPolyline
 90
        2
 70
         0
 43
0.1
 10
102.6
 20
15.3
 10
102.8
 20
15.5
  0
LWPOLYLINE
  5
A0
100
AcDbEntity
  8
ASSEMBLY_OUTLINES_TOP
100
AcDbPolyline
 90
        2
 70
         0
 43
0.1
 10
102.5
 20
15.3
 10
102.8
 20
15.6
  0
LWPOLYLINE
  5
A1
100
AcDbEntity
  8
ASSEMBLY_OUTLINES_TOP
100
AcDbPolyline
 90
        2
 70
         0
 43
0.1
 10
102.4
 20
15.3
 10
102.8
 20
15.7
  0
LWPOLYLINE
  5
A2
100
AcDbEntity
  8
ASSEMBLY_OUTLINES_TOP
100
AcDbPolyline
 90
        2
 70
         0
 43
0.1
 10
102.3
 20
15.3
 10
102.8
 20
15.8
  0
LWPOLYLINE
  5
A3
100
AcDbEntity
  8
ASSEMBLY_OUTLINES_TOP
100
AcDbPolyline
 90
        2
 70
         0
 43
0.1
 10
102.2
 20
15.3
 10
102.8
 20
15.9
  0
LWPOLYLINE
  5
A4
100
AcDbEntity
  8
ASSEMBLY_OUTLINES_TOP
100
AcDbPolyline
 90
        2
 70
         0
 43
0.1
 10
102.1
 20
15.3
 10
102.8
 20
16.0
  0
LWPOLYLINE
  5
A5
100
AcDbEntity
  8
ASSEMBLY_OUTLINES_TOP
100
AcDbPolyline
 90
        2
 70
         0
 43
0.1
 10
102.0
 20
15.3
 10
102.8
 20
16.1
  0
LWPOLYLINE
  5
A6
100
AcDbEntity
  8
ASSEMBLY_OUTLINES_TOP
100
AcDbPolyline
 90
        2
 70
         0
 43
0.1
 10
101.9
 20
15.3
 10
102.8
 20
16.2
  0
LWPOLYLINE
  5
A7
100
AcDbEntity
  8
ASSEMBLY_OUTLINES_TOP
100
AcDbPolyline
 90
        2
 70
         0
 43
0.1
 10
101.8
 20
15.3
 10
102.8
 20
16.3
  0
LWPOLYLINE
  5
A8
100
AcDbEntity
  8
ASSEMBLY_OUTLINES_TOP
100
AcDbPolyline
 90
        4
 70
         1
 43
0.1
 10
100.25
 20
20.95
 10
100.25
 20
23.85
 10
101.55
 20
23.85
 10
101.55
 20
20.95
  0
LWPOLYLINE
  5
A9
100
AcDbEntity
  8
ASSEMBLY_OUTLINES_TOP
100
AcDbPolyline
 90
        4
 70
         1
 43
0.1
 10
111.15
 20
12.85
 10
111.15
 20
15.75
 10
112.45
 20
15.75
 10
112.45
 20
12.85
  0
LWPOLYLINE
  5
AA
100
AcDbEntity
  8
ASSEMBLY_OUTLINES_TOP
100
AcDbPolyline
 90
        4
 70
         1
 43
0.1
 10
102.65
 20
61.75
 10
102.65
 20
64.65
 10
103.95
 20
64.65
 10
103.95
 20
61.75
  0
LWPOLYLINE
  5
AB
100
AcDbEntity
  8
ASSEMBLY_OUTLINES_TOP
100
AcDbPolyline
 90
        4
 70
         1
 43
0.1
 10
109.65
 20
12.05
 10
109.65
 20
14.95
 10
110.95
 20
14.95
 10
110.95
 20
12.05
  0
LWPOLYLINE
  5
AC
100
AcDbEntity
  8
ASSEMBLY_OUTLINES_TOP
100
AcDbPolyline
 90
        4
 70
         1
 10
109.05
 20
23.9
 10
109.05
 20
28.9
 10
115.35
 20
28.9
 10
115.35
 20
23.9
  0
LWPOLYLINE
  5
AD
100
AcDbEntity
  8
ASSEMBLY_OUTLINES_TOP
100
AcDbPolyline
 90
        4
 70
         1
 43
0.1
 10
111.15
 20
16.0
 10
111.15
 20
18.8
 10
112.45
 20
18.8
 10
112.45
 20
16.0
  0
LWPOLYLINE
  5
AE
100
AcDbEntity
  8
ASSEMBLY_OUTLINES_TOP
100
AcDbPolyline
 90
        4
 70
         1
 43
0.1
 10
104.05
 20
61.05
 10
104.05
 20
63.95
 10
105.35
 20
63.95
 10
105.35
 20
61.05
  0
LWPOLYLINE
  5
AF
100
AcDbEntity
  8
ASSEMBLY_OUTLINES_TOP
100
AcDbPolyline
 90
        4
 70
         1
 43
0.1
 10
107.25
 20
61.0
 10
107.25
 20
63.8
 10
108.55
 20
63.8
 10
108.55
 20
61.0
  0
LWPOLYLINE
  5
B0
100
AcDbEntity
  8
ASSEMBLY_OUTLINES_TOP
100
AcDbPolyline
 90
        4
 70
         1
 43
0.1
 10
109.65
 20
33.15
 10
109.65
 20
36.05
 10
110.95
 20
36.05
 10
110.95
 20
33.15
  0
LWPOLYLINE
  5
B1
100
AcDbEntity
  8
ASSEMBLY_OUTLINES_TOP
100
AcDbPolyline
 90
        4
 70
         1
 43
0.1
 10
108.75
 20
61.0
 10
108.75
 20
63.8
 10
110.05
 20
63.8
 10
110.05
 20
61.0
  0
LWPOLYLINE
  5
B2
100
AcDbEntity
  8
ASSEMBLY_OUTLINES_TOP
100
AcDbPolyline
 90
        4
 70
         1
 43
0.1
 10
105.75
 20
58.9
 10
105.75
 20
60.7
 10
109.05
 20
60.7
 10
109.05
 20
58.9
  0
LWPOLYLINE
  5
B3
100
AcDbEntity
  8
ASSEMBLY_OUTLINES_TOP
100
AcDbPolyline
 90
        4
 70
         1
 43
0.1
 10
102.65
 20
59.35
 10
102.65
 20
60.65
 10
105.55
 20
60.65
 10
105.55
 20
59.35
  0
LWPOLYLINE
  5
B4
100
AcDbEntity
  8
ASSEMBLY_OUTLINES_TOP
100
AcDbPolyline
 90
        4
 70
         1
 43
0.1
 10
102.7
 20
49.1
 10
102.7
 20
58.1
 10
111.7
 20
58.1
 10
111.7
 20
49.1
  0
LWPOLYLINE
  5
B5
100
AcDbEntity
  8
ASSEMBLY_OUTLINES_TOP
100
AcDbPolyline
 90
        2
 70
         0
 43
0.1
 10
111.7
 20
58.0
 10
111.6
 20
58.1
  0
LWPOLYLINE
  5
B6
100
AcDbEntity
  8
ASSEMBLY_OUTLINES_TOP
100
AcDbPolyline
 90
        2
 70
         0
 43
0.1
 10
111.7
 20
57.9
 10
111.5
 20
58.1
  0
LWPOLYLINE
  5
B7
100
AcDbEntity
  8
ASSEMBLY_OUTLINES_TOP
100
AcDbPolyline
 90
        2
 70
         0
 43
0.1
 10
111.7
 20
57.8
 10
111.4
 20
58.1
  0
LWPOLYLINE
  5
B8
100
AcDbEntity
  8
ASSEMBLY_OUTLINES_TOP
100
AcDbPolyline
 90
        2
 70
         0
 43
0.1
 10
111.7
 20
57.7
 10
111.3
 20
58.1
  0
LWPOLYLINE
  5
B9
100
AcDbEntity
  8
ASSEMBLY_OUTLINES_TOP
100
AcDbPolyline
 90
        2
 70
         0
 43
0.1
 10
111.7
 20
57.6
 10
111.2
 20
58.1
  0
LWPOLYLINE
  5
BA
100
AcDbEntity
  8
ASSEMBLY_OUTLINES_TOP
100
AcDbPolyline
 90
        2
 70
         0
 43
0.1
 10
111.7
 20
57.5
 10
111.1
 20
58.1
  0
LWPOLYLINE
  5
BB
100
AcDbEntity
  8
ASSEMBLY_OUTLINES_TOP
100
AcDbPolyline
 90
        2
 70
         0
 43
0.1
 10
111.7
 20
57.4
 10
111.0
 20
58.1
  0
LWPOLYLINE
  5
BC
100
AcDbEntity
  8
ASSEMBLY_OUTLINES_TOP
100
AcDbPolyline
 90
        2
 70
         0
 43
0.1
 10
111.7
 20
57.3
 10
110.9
 20
58.1
  0
LWPOLYLINE
  5
BD
100
AcDbEntity
  8
ASSEMBLY_OUTLINES_TOP
100
AcDbPolyline
 90
        2
 70
         0
 43
0.1
 10
111.7
 20
57.2
 10
110.8
 20
58.1
  0
LWPOLYLINE
  5
BE
100
AcDbEntity
  8
ASSEMBLY_OUTLINES_TOP
100
AcDbPolyline
 90
        2
 70
         0
 43
0.1
 10
111.7
 20
57.1
 10
110.7
 20
58.1
  0
LWPOLYLINE
  5
BF
100
AcDbEntity
  8
ASSEMBLY_OUTLINES_TOP
100
AcDbPolyline
 90
        4
 70
         1
 43
0.1
 10
112.15
 20
32.85
 10
112.15
 20
34.15
 10
115.05
 20
34.15
 10
115.05
 20
32.85
  0
LWPOLYLINE
  5
C0
100
AcDbEntity
  8
ASSEMBLY_OUTLINES_TOP
100
AcDbPolyline
 90
        4
 70
         1
 43
0.1
 10
113.85
 20
41.15
 10
113.85
 20
44.05
 10
115.15
 20
44.05
 10
115.15
 20
41.15
  0
LWPOLYLINE
  5
C1
100
AcDbEntity
  8
ASSEMBLY_OUTLINES_TOP
100
AcDbPolyline
 90
        4
 70
         1
 10
115.92
 20
26.17
 10
115.92
 20
59.17
 10
124.62
 20
59.17
 10
124.62
 20
26.17
  0
LWPOLYLINE
  5
C2
100
AcDbEntity
  8
ASSEMBLY_OUTLINES_TOP
100
AcDbPolyline
 90
        4
 70
         1
 10
115.92
 20
39.6
 10
115.92
 20
46.1
 10
116.5
 20
46.1
 10
116.5
 20
39.6
  0
LWPOLYLINE
  5
C3
100
AcDbEntity
  8
ASSEMBLY_OUTLINES_TOP
100
AcDbPolyline
 90
        4
 70
         1
 43
0.1
 10
127.35
 20
52.75
 10
127.35
 20
54.05
 10
130.25
 20
54.05
 10
130.25
 20
52.75
  0
LWPOLYLINE
  5
C4
100
AcDbEntity
  8
ASSEMBLY_OUTLINES_TOP
100
AcDbPolyline
 90
        4
 70
         1
 43
0.1
 10
125.25
 20
52.55
 10
125.25
 20
55.45
 10
126.55
 20
55.45
 10
126.55
 20
52.55
  0
LWPOLYLINE
  5
C5
100
AcDbEntity
  8
ASSEMBLY_OUTLINES_TOP
100
AcDbPolyline
 90
        4
 70
         1
 43
0.1
 10
104.4
 20
38.05
 10
104.4
 20
39.35
 10
107.2
 20
39.35
 10
107.2
 20
38.05
  0
LWPOLYLINE
  5
C6
100
AcDbEntity
  8
ASSEMBLY_OUTLINES_TOP
100
AcDbPolyline
 90
        4
 70
         1
 10
93.745
 20
27.2
 10
93.745
 20
78.0
 10
98.825
 20
78.0
 10
98.825
 20
27.2
  0
CIRCLE
  5
C7
100
AcDbEntity
  8
ASSEMBLY_OUTLINES_TOP
100
AcDbCircle
 10
97.56544
 20
28.468225
 30
0.0
 40
0.45
  0
HATCH
  5
C8
100
AcDbEntity
  8
ASSEMBLY_OUTLINES_TOP
100
AcDbHatch
 10
0.0
 20
0.0
 30
0.0
210
0.0
220
0.0
230
1.0
  2
SOLID
 70
         1
 71
         1
 91
        1
 92
        1
 93
        1
 72
         2
 10
97.565439999999995
 20
28.468225
 40
0.45
 50
0.0
 51
360.0
 73
         1
 97
        1
330
C7
 75
         0
 76
         1
 98
        1
 10
0.0
 20
0.0
  0
CIRCLE
  5
C9
100
AcDbEntity
  8
ASSEMBLY_OUTLINES_TOP
100
AcDbCircle
 10
97.56544
 20
31.008225
 30
0.0
 40
0.45
  0
HATCH
  5
CA
100
AcDbEntity
  8
ASSEMBLY_OUTLINES_TOP
100
AcDbHatch
 10
0.0
 20
0.0
 30
0.0
210
0.0
220
0.0
230
1.0
  2
SOLID
 70
         1
 71
         1
 91
        1
 92
        1
 93
        1
 72
         2
 10
97.565439999999995
 20
31.008224999999999
 40
0.45
 50
0.0
 51
360.0
 73
         1
 97
        1
330
C9
 75
         0
 76
         1
 98
        1
 10
0.0
 20
0.0
  0
CIRCLE
  5
CB
100
AcDbEntity
  8
ASSEMBLY_OUTLINES_TOP
100
AcDbCircle
 10
97.56544
 20
33.548225
 30
0.0
 40
0.45
  0
HATCH
  5
CC
100
AcDbEntity
  8
ASSEMBLY_OUTLINES_TOP
100
AcDbHatch
 10
0.0
 20
0.0
 30
0.0
210
0.0
220
0.0
230
1.0
  2
SOLID
 70
         1
 71
         1
 91
        1
 92
        1
 93
        1
 72
         2
 10
97.565439999999995
 20
33.548225000000002
 40
0.45
 50
0.0
 51
360.0
 73
         1
 97
        1
330
CB
 75
         0
 76
         1
 98
        1
 10
0.0
 20
0.0
  0
CIRCLE
  5
CD
100
AcDbEntity
  8
ASSEMBLY_OUTLINES_TOP
100
AcDbCircle
 10
97.56544
 20
36.088225
 30
0.0
 40
0.45
  0
HATCH
  5
CE
100
AcDbEntity
  8
ASSEMBLY_OUTLINES_TOP
100
AcDbHatch
 10
0.0
 20
0.0
 30
0.0
210
0.0
220
0.0
230
1.0
  2
SOLID
 70
         1
 71
         1
 91
        1
 92
        1
 93
        1
 72
         2
 10
97.565439999999995
 20
36.088225000000001
 40
0.45
 50
0.0
 51
360.0
 73
         1
 97
        1
330
CD
 75
         0
 76
         1
 98
        1
 10
0.0
 20
0.0
  0
CIRCLE
  5
CF
100
AcDbEntity
  8
ASSEMBLY_OUTLINES_TOP
100
AcDbCircle
 10
97.56544
 20
38.628225
 30
0.0
 40
0.45
  0
HATCH
  5
D0
100
AcDbEntity
  8
ASSEMBLY_OUTLINES_TOP
100
AcDbHatch
 10
0.0
 20
0.0
 30
0.0
210
0.0
220
0.0
230
1.0
  2
SOLID
 70
         1
 71
         1
 91
        1
 92
        1
 93
        1
 72
         2
 10
97.565439999999995
 20
38.628225
 40
0.45
 50
0.0
 51
360.0
 73
         1
 97
        1
330
CF
 75
         0
 76
         1
 98
        1
 10
0.0
 20
0.0
  0
CIRCLE
  5
D1
100
AcDbEntity
  8
ASSEMBLY_OUTLINES_TOP
100
AcDbCircle
 10
97.56544
 20
41.168225
 30
0.0
 40
0.45
  0
HATCH
  5
D2
100
AcDbEntity
  8
ASSEMBLY_OUTLINES_TOP
100
AcDbHatch
 10
0.0
 20
0.0
 30
0.0
210
0.0
220
0.0
230
1.0
  2
SOLID
 70
         1
 71
         1
 91
        1
 92
        1
 93
        1
 72
         2
 10
97.565439999999995
 20
41.168225
 40
0.45
 50
0.0
 51
360.0
 73
         1
 97
        1
330
D1
 75
         0
 76
         1
 98
        1
 10
0.0
 20
0.0
  0
CIRCLE
  5
D3
100
AcDbEntity
  8
ASSEMBLY_OUTLINES_TOP
100
AcDbCircle
 10
97.56544
 20
43.708225
 30
0.0
 40
0.45
  0
HATCH
  5
D4
100
AcDbEntity
  8
ASSEMBLY_OUTLINES_TOP
100
AcDbHatch
 10
0.0
 20
0.0
 30
0.0
210
0.0
220
0.0
230
1.0
  2
SOLID
 70
         1
 71
         1
 91
        1
 92
        1
 93
        1
 72
         2
 10
97.565439999999995
 20
43.708224999999999
 40
0.45
 50
0.0
 51
360.0
 73
         1
 97
        1
330
D3
 75
         0
 76
         1
 98
        1
 10
0.0
 20
0.0
  0
CIRCLE
  5
D5
100
AcDbEntity
  8
ASSEMBLY_OUTLINES_TOP
100
AcDbCircle
 10
97.56544
 20
46.248225
 30
0.0
 40
0.45
  0
HATCH
  5
D6
100
AcDbEntity
  8
ASSEMBLY_OUTLINES_TOP
100
AcDbHatch
 10
0.0
 20
0.0
 30
0.0
210
0.0
220
0.0
230
1.0
  2
SOLID
 70
         1
 71
         1
 91
        1
 92
        1
 93
        1
 72
         2
 10
97.565439999999995
 20
46.248224999999998
 40
0.45
 50
0.0
 51
360.0
 73
         1
 97
        1
330
D5
 75
         0
 76
         1
 98
        1
 10
0.0
 20
0.0
  0
CIRCLE
  5
D7
100
AcDbEntity
  8
ASSEMBLY_OUTLINES_TOP
100
AcDbCircle
 10
97.56544
 20
48.788225
 30
0.0
 40
0.45
  0
HATCH
  5
D8
100
AcDbEntity
  8
ASSEMBLY_OUTLINES_TOP
100
AcDbHatch
 10
0.0
 20
0.0
 30
0.0
210
0.0
220
0.0
230
1.0
  2
SOLID
 70
         1
 71
         1
 91
        1
 92
        1
 93
        1
 72
         2
 10
97.565439999999995
 20
48.788224999999997
 40
0.45
 50
0.0
 51
360.0
 73
         1
 97
        1
330
D7
 75
         0
 76
         1
 98
        1
 10
0.0
 20
0.0
  0
CIRCLE
  5
D9
100
AcDbEntity
  8
ASSEMBLY_OUTLINES_TOP
100
AcDbCircle
 10
97.56544
 20
51.328225
 30
0.0
 40
0.45
  0
HATCH
  5
DA
100
AcDbEntity
  8
ASSEMBLY_OUTLINES_TOP
100
AcDbHatch
 10
0.0
 20
0.0
 30
0.0
210
0.0
220
0.0
230
1.0
  2
SOLID
 70
         1
 71
         1
 91
        1
 92
        1
 93
        1
 72
         2
 10
97.565439999999995
 20
51.328225000000003
 40
0.45
 50
0.0
 51
360.0
 73
         1
 97
        1
330
D9
 75
         0
 76
         1
 98
        1
 10
0.0
 20
0.0
  0
CIRCLE
  5
DB
100
AcDbEntity
  8
ASSEMBLY_OUTLINES_TOP
100
AcDbCircle
 10
97.57456
 20
53.871774
 30
0.0
 40
0.45
  0
HATCH
  5
DC
100
AcDbEntity
  8
ASSEMBLY_OUTLINES_TOP
100
AcDbHatch
 10
0.0
 20
0.0
 30
0.0
210
0.0
220
0.0
230
1.0
  2
SOLID
 70
         1
 71
         1
 91
        1
 92
        1
 93
        1
 72
         2
 10
97.574560000000005
 20
53.871774000000002
 40
0.45
 50
0.0
 51
360.0
 73
         1
 97
        1
330
DB
 75
         0
 76
         1
 98
        1
 10
0.0
 20
0.0
  0
CIRCLE
  5
DD
100
AcDbEntity
  8
ASSEMBLY_OUTLINES_TOP
100
AcDbCircle
 10
97.57456
 20
56.411774
 30
0.0
 40
0.45
  0
HATCH
  5
DE
100
AcDbEntity
  8
ASSEMBLY_OUTLINES_TOP
100
AcDbHatch
 10
0.0
 20
0.0
 30
0.0
210
0.0
220
0.0
230
1.0
  2
SOLID
 70
         1
 71
         1
 91
        1
 92
        1
 93
        1
 72
         2
 10
97.574560000000005
 20
56.411774000000001
 40
0.45
 50
0.0
 51
360.0
 73
         1
 97
        1
330
DD
 75
         0
 76
         1
 98
        1
 10
0.0
 20
0.0
  0
CIRCLE
  5
DF
100
AcDbEntity
  8
ASSEMBLY_OUTLINES_TOP
100
AcDbCircle
 10
97.57456
 20
58.951774
 30
0.0
 40
0.45
  0
HATCH
  5
E0
100
AcDbEntity
  8
ASSEMBLY_OUTLINES_TOP
100
AcDbHatch
 10
0.0
 20
0.0
 30
0.0
210
0.0
220
0.0
230
1.0
  2
SOLID
 70
         1
 71
         1
 91
        1
 92
        1
 93
        1
 72
         2
 10
97.574560000000005
 20
58.951774
 40
0.45
 50
0.0
 51
360.0
 73
         1
 97
        1
330
DF
 75
         0
 76
         1
 98
        1
 10
0.0
 20
0.0
  0
CIRCLE
  5
E1
100
AcDbEntity
  8
ASSEMBLY_OUTLINES_TOP
100
AcDbCircle
 10
97.57456
 20
61.491774
 30
0.0
 40
0.45
  0
HATCH
  5
E2
100
AcDbEntity
  8
ASSEMBLY_OUTLINES_TOP
100
AcDbHatch
 10
0.0
 20
0.0
 30
0.0
210
0.0
220
0.0
230
1.0
  2
SOLID
 70
         1
 71
         1
 91
        1
 92
        1
 93
        1
 72
         2
 10
97.574560000000005
 20
61.491773999999999
 40
0.45
 50
0.0
 51
360.0
 73
         1
 97
        1
330
E1
 75
         0
 76
         1
 98
        1
 10
0.0
 20
0.0
  0
CIRCLE
  5
E3
100
AcDbEntity
  8
ASSEMBLY_OUTLINES_TOP
100
AcDbCircle
 10
97.57456
 20
64.031774
 30
0.0
 40
0.45
  0
HATCH
  5
E4
100
AcDbEntity
  8
ASSEMBLY_OUTLINES_TOP
100
AcDbHatch
 10
0.0
 20
0.0
 30
0.0
210
0.0
220
0.0
230
1.0
  2
SOLID
 70
         1
 71
         1
 91
        1
 92
        1
 93
        1
 72
         2
 10
97.574560000000005
 20
64.031773999999999
 40
0.45
 50
0.0
 51
360.0
 73
         1
 97
        1
330
E3
 75
         0
 76
         1
 98
        1
 10
0.0
 20
0.0
  0
CIRCLE
  5
E5
100
AcDbEntity
  8
ASSEMBLY_OUTLINES_TOP
100
AcDbCircle
 10
97.57456
 20
66.571774
 30
0.0
 40
0.45
  0
HATCH
  5
E6
100
AcDbEntity
  8
ASSEMBLY_OUTLINES_TOP
100
AcDbHatch
 10
0.0
 20
0.0
 30
0.0
210
0.0
220
0.0
230
1.0
  2
SOLID
 70
         1
 71
         1
 91
        1
 92
        1
 93
        1
 72
         2
 10
97.574560000000005
 20
66.571774000000005
 40
0.45
 50
0.0
 51
360.0
 73
         1
 97
        1
330
E5
 75
         0
 76
         1
 98
        1
 10
0.0
 20
0.0
  0
CIRCLE
  5
E7
100
AcDbEntity
  8
ASSEMBLY_OUTLINES_TOP
100
AcDbCircle
 10
97.57456
 20
69.111774
 30
0.0
 40
0.45
  0
HATCH
  5
E8
100
AcDbEntity
  8
ASSEMBLY_OUTLINES_TOP
100
AcDbHatch
 10
0.0
 20
0.0
 30
0.0
210
0.0
220
0.0
230
1.0
  2
SOLID
 70
         1
 71
         1
 91
        1
 92
        1
 93
        1
 72
         2
 10
97.574560000000005
 20
69.111773999999997
 40
0.45
 50
0.0
 51
360.0
 73
         1
 97
        1
330
E7
 75
         0
 76
         1
 98
        1
 10
0.0
 20
0.0
  0
CIRCLE
  5
E9
100
AcDbEntity
  8
ASSEMBLY_OUTLINES_TOP
100
AcDbCircle
 10
97.57456
 20
71.651774
 30
0.0
 40
0.45
  0
HATCH
  5
EA
100
AcDbEntity
  8
ASSEMBLY_OUTLINES_TOP
100
AcDbHatch
 10
0.0
 20
0.0
 30
0.0
210
0.0
220
0.0
230
1.0
  2
SOLID
 70
         1
 71
         1
 91
        1
 92
        1
 93
        1
 72
         2
 10
97.574560000000005
 20
71.651774000000003
 40
0.45
 50
0.0
 51
360.0
 73
         1
 97
        1
330
E9
 75
         0
 76
         1
 98
        1
 10
0.0
 20
0.0
  0
CIRCLE
  5
EB
100
AcDbEntity
  8
ASSEMBLY_OUTLINES_TOP
100
AcDbCircle
 10
97.57456
 20
74.191774
 30
0.0
 40
0.45
  0
HATCH
  5
EC
100
AcDbEntity
  8
ASSEMBLY_OUTLINES_TOP
100
AcDbHatch
 10
0.0
 20
0.0
 30
0.0
210
0.0
220
0.0
230
1.0
  2
SOLID
 70
         1
 71
         1
 91
        1
 92
        1
 93
        1
 72
         2
 10
97.574560000000005
 20
74.191773999999995
 40
0.45
 50
0.0
 51
360.0
 73
         1
 97
        1
330
EB
 75
         0
 76
         1
 98
        1
 10
0.0
 20
0.0
  0
CIRCLE
  5
ED
100
AcDbEntity
  8
ASSEMBLY_OUTLINES_TOP
100
AcDbCircle
 10
97.57456
 20
76.731774
 30
0.0
 40
0.45
  0
HATCH
  5
EE
100
AcDbEntity
  8
ASSEMBLY_OUTLINES_TOP
100
AcDbHatch
 10
0.0
 20
0.0
 30
0.0
210
0.0
220
0.0
230
1.0
  2
SOLID
 70
         1
 71
         1
 91
        1
 92
        1
 93
        1
 72
         2
 10
97.574560000000005
 20
76.731774000000001
 40
0.45
 50
0.0
 51
360.0
 73
         1
 97
        1
330
ED
 75
         0
 76
         1
 98
        1
 10
0.0
 20
0.0
  0
CIRCLE
  5
EF
100
AcDbEntity
  8
ASSEMBLY_OUTLINES_TOP
100
AcDbCircle
 10
95.03
 20
28.47
 30
0.0
 40
0.45
  0
HATCH
  5
F0
100
AcDbEntity
  8
ASSEMBLY_OUTLINES_TOP
100
AcDbHatch
 10
0.0
 20
0.0
 30
0.0
210
0.0
220
0.0
230
1.0
  2
SOLID
 70
         1
 71
         1
 91
        1
 92
        1
 93
        1
 72
         2
 10
95.030000000000001
 20
28.469999999999999
 40
0.45
 50
0.0
 51
360.0
 73
         1
 97
        1
330
EF
 75
         0
 76
         1
 98
        1
 10
0.0
 20
0.0
  0
CIRCLE
  5
F1
100
AcDbEntity
  8
ASSEMBLY_OUTLINES_TOP
100
AcDbCircle
 10
95.03
 20
31.01
 30
0.0
 40
0.45
  0
HATCH
  5
F2
100
AcDbEntity
  8
ASSEMBLY_OUTLINES_TOP
100
AcDbHatch
 10
0.0
 20
0.0
 30
0.0
210
0.0
220
0.0
230
1.0
  2
SOLID
 70
         1
 71
         1
 91
        1
 92
        1
 93
        1
 72
         2
 10
95.030000000000001
 20
31.010000000000002
 40
0.45
 50
0.0
 51
360.0
 73
         1
 97
        1
330
F1
 75
         0
 76
         1
 98
        1
 10
0.0
 20
0.0
  0
CIRCLE
  5
F3
100
AcDbEntity
  8
ASSEMBLY_OUTLINES_TOP
100
AcDbCircle
 10
95.03
 20
33.55
 30
0.0
 40
0.45
  0
HATCH
  5
F4
100
AcDbEntity
  8
ASSEMBLY_OUTLINES_TOP
100
AcDbHatch
 10
0.0
 20
0.0
 30
0.0
210
0.0
220
0.0
230
1.0
  2
SOLID
 70
         1
 71
         1
 91
        1
 92
        1
 93
        1
 72
         2
 10
95.030000000000001
 20
33.549999999999997
 40
0.45
 50
0.0
 51
360.0
 73
         1
 97
        1
330
F3
 75
         0
 76
         1
 98
        1
 10
0.0
 20
0.0
  0
CIRCLE
  5
F5
100
AcDbEntity
  8
ASSEMBLY_OUTLINES_TOP
100
AcDbCircle
 10
95.03
 20
36.09
 30
0.0
 40
0.45
  0
HATCH
  5
F6
100
AcDbEntity
  8
ASSEMBLY_OUTLINES_TOP
100
AcDbHatch
 10
0.0
 20
0.0
 30
0.0
210
0.0
220
0.0
230
1.0
  2
SOLID
 70
         1
 71
         1
 91
        1
 92
        1
 93
        1
 72
         2
 10
95.030000000000001
 20
36.090000000000003
 40
0.45
 50
0.0
 51
360.0
 73
         1
 97
        1
330
F5
 75
         0
 76
         1
 98
        1
 10
0.0
 20
0.0
  0
CIRCLE
  5
F7
100
AcDbEntity
  8
ASSEMBLY_OUTLINES_TOP
100
AcDbCircle
 10
95.03
 20
38.63
 30
0.0
 40
0.45
  0
HATCH
  5
F8
100
AcDbEntity
  8
ASSEMBLY_OUTLINES_TOP
100
AcDbHatch
 10
0.0
 20
0.0
 30
0.0
210
0.0
220
0.0
230
1.0
  2
SOLID
 70
         1
 71
         1
 91
        1
 92
        1
 93
        1
 72
         2
 10
95.030000000000001
 20
38.630000000000003
 40
0.45
 50
0.0
 51
360.0
 73
         1
 97
        1
330
F7
 75
         0
 76
         1
 98
        1
 10
0.0
 20
0.0
  0
CIRCLE
  5
F9
100
AcDbEntity
  8
ASSEMBLY_OUTLINES_TOP
100
AcDbCircle
 10
95.03
 20
41.17
 30
0.0
 40
0.45
  0
HATCH
  5
FA
100
AcDbEntity
  8
ASSEMBLY_OUTLINES_TOP
100
AcDbHatch
 10
0.0
 20
0.0
 30
0.0
210
0.0
220
0.0
230
1.0
  2
SOLID
 70
         1
 71
         1
 91
        1
 92
        1
 93
        1
 72
         2
 10
95.030000000000001
 20
41.170000000000002
 40
0.45
 50
0.0
 51
360.0
 73
         1
 97
        1
330
F9
 75
         0
 76
         1
 98
        1
 10
0.0
 20
0.0
  0
CIRCLE
  5
FB
100
AcDbEntity
  8
ASSEMBLY_OUTLINES_TOP
100
AcDbCircle
 10
95.03
 20
43.71
 30
0.0
 40
0.45
  0
HATCH
  5
FC
100
AcDbEntity
  8
ASSEMBLY_OUTLINES_TOP
100
AcDbHatch
 10
0.0
 20
0.0
 30
0.0
210
0.0
220
0.0
230
1.0
  2
SOLID
 70
         1
 71
         1
 91
        1
 92
        1
 93
        1
 72
         2
 10
95.030000000000001
 20
43.710000000000001
 40
0.45
 50
0.0
 51
360.0
 73
         1
 97
        1
330
FB
 75
         0
 76
         1
 98
        1
 10
0.0
 20
0.0
  0
CIRCLE
  5
FD
100
AcDbEntity
  8
ASSEMBLY_OUTLINES_TOP
100
AcDbCircle
 10
95.03
 20
46.25
 30
0.0
 40
0.45
  0
HATCH
  5
FE
100
AcDbEntity
  8
ASSEMBLY_OUTLINES_TOP
100
AcDbHatch
 10
0.0
 20
0.0
 30
0.0
210
0.0
220
0.0
230
1.0
  2
SOLID
 70
         1
 71
         1
 91
        1
 92
        1
 93
        1
 72
         2
 10
95.030000000000001
 20
46.25
 40
0.45
 50
0.0
 51
360.0
 73
         1
 97
        1
330
FD
 75
         0
 76
         1
 98
        1
 10
0.0
 20
0.0
  0
CIRCLE
  5
FF
100
AcDbEntity
  8
ASSEMBLY_OUTLINES_TOP
100
AcDbCircle
 10
95.03
 20
48.79
 30
0.0
 40
0.45
  0
HATCH
  5
100
100
AcDbEntity
  8
ASSEMBLY_OUTLINES_TOP
100
AcDbHatch
 10
0.0
 20
0.0
 30
0.0
210
0.0
220
0.0
230
1.0
  2
SOLID
 70
         1
 71
         1
 91
        1
 92
        1
 93
        1
 72
         2
 10
95.030000000000001
 20
48.789999999999999
 40
0.45
 50
0.0
 51
360.0
 73
         1
 97
        1
330
FF
 75
         0
 76
         1
 98
        1
 10
0.0
 20
0.0
  0
CIRCLE
  5
101
100
AcDbEntity
  8
ASSEMBLY_OUTLINES_TOP
100
AcDbCircle
 10
95.03
 20
51.33
 30
0.0
 40
0.45
  0
HATCH
  5
102
100
AcDbEntity
  8
ASSEMBLY_OUTLINES_TOP
100
AcDbHatch
 10
0.0
 20
0.0
 30
0.0
210
0.0
220
0.0
230
1.0
  2
SOLID
 70
         1
 71
         1
 91
        1
 92
        1
 93
        1
 72
         2
 10
95.030000000000001
 20
51.329999999999998
 40
0.45
 50
0.0
 51
360.0
 73
         1
 97
        1
330
101
 75
         0
 76
         1
 98
        1
 10
0.0
 20
0.0
  0
CIRCLE
  5
103
100
AcDbEntity
  8
ASSEMBLY_OUTLINES_TOP
100
AcDbCircle
 10
95.02912
 20
53.873549
 30
0.0
 40
0.45
  0
HATCH
  5
104
100
AcDbEntity
  8
ASSEMBLY_OUTLINES_TOP
100
AcDbHatch
 10
0.0
 20
0.0
 30
0.0
210
0.0
220
0.0
230
1.0
  2
SOLID
 70
         1
 71
         1
 91
        1
 92
        1
 93
        1
 72
         2
 10
95.029120000000006
 20
53.873548999999997
 40
0.45
 50
0.0
 51
360.0
 73
         1
 97
        1
330
103
 75
         0
 76
         1
 98
        1
 10
0.0
 20
0.0
  0
CIRCLE
  5
105
100
AcDbEntity
  8
ASSEMBLY_OUTLINES_TOP
100
AcDbCircle
 10
95.02912
 20
56.413549
 30
0.0
 40
0.45
  0
HATCH
  5
106
100
AcDbEntity
  8
ASSEMBLY_OUTLINES_TOP
100
AcDbHatch
 10
0.0
 20
0.0
 30
0.0
210
0.0
220
0.0
230
1.0
  2
SOLID
 70
         1
 71
         1
 91
        1
 92
        1
 93
        1
 72
         2
 10
95.029120000000006
 20
56.413549000000003
 40
0.45
 50
0.0
 51
360.0
 73
         1
 97
        1
330
105
 75
         0
 76
         1
 98
        1
 10
0.0
 20
0.0
  0
CIRCLE
  5
107
100
AcDbEntity
  8
ASSEMBLY_OUTLINES_TOP
100
AcDbCircle
 10
95.02912
 20
58.953549
 30
0.0
 40
0.45
  0
HATCH
  5
108
100
AcDbEntity
  8
ASSEMBLY_OUTLINES_TOP
100
AcDbHatch
 10
0.0
 20
0.0
 30
0.0
210
0.0
220
0.0
230
1.0
  2
SOLID
 70
         1
 71
         1
 91
        1
 92
        1
 93
        1
 72
         2
 10
95.029120000000006
 20
58.953549000000002
 40
0.45
 50
0.0
 51
360.0
 73
         1
 97
        1
330
107
 75
         0
 76
         1
 98
        1
 10
0.0
 20
0.0
  0
CIRCLE
  5
109
100
AcDbEntity
  8
ASSEMBLY_OUTLINES_TOP
100
AcDbCircle
 10
95.02912
 20
61.493549
 30
0.0
 40
0.45
  0
HATCH
  5
10A
100
AcDbEntity
  8
ASSEMBLY_OUTLINES_TOP
100
AcDbHatch
 10
0.0
 20
0.0
 30
0.0
210
0.0
220
0.0
230
1.0
  2
SOLID
 70
         1
 71
         1
 91
        1
 92
        1
 93
        1
 72
         2
 10
95.029120000000006
 20
61.493549000000002
 40
0.45
 50
0.0
 51
360.0
 73
         1
 97
        1
330
109
 75
         0
 76
         1
 98
        1
 10
0.0
 20
0.0
  0
CIRCLE
  5
10B
100
AcDbEntity
  8
ASSEMBLY_OUTLINES_TOP
100
AcDbCircle
 10
95.02912
 20
64.033549
 30
0.0
 40
0.45
  0
HATCH
  5
10C
100
AcDbEntity
  8
ASSEMBLY_OUTLINES_TOP
100
AcDbHatch
 10
0.0
 20
0.0
 30
0.0
210
0.0
220
0.0
230
1.0
  2
SOLID
 70
         1
 71
         1
 91
        1
 92
        1
 93
        1
 72
         2
 10
95.029120000000006
 20
64.033548999999994
 40
0.45
 50
0.0
 51
360.0
 73
         1
 97
        1
330
10B
 75
         0
 76
         1
 98
        1
 10
0.0
 20
0.0
  0
CIRCLE
  5
10D
100
AcDbEntity
  8
ASSEMBLY_OUTLINES_TOP
100
AcDbCircle
 10
95.02912
 20
66.573549
 30
0.0
 40
0.45
  0
HATCH
  5
10E
100
AcDbEntity
  8
ASSEMBLY_OUTLINES_TOP
100
AcDbHatch
 10
0.0
 20
0.0
 30
0.0
210
0.0
220
0.0
230
1.0
  2
SOLID
 70
         1
 71
         1
 91
        1
 92
        1
 93
        1
 72
         2
 10
95.029120000000006
 20
66.573549
 40
0.45
 50
0.0
 51
360.0
 73
         1
 97
        1
330
10D
 75
         0
 76
         1
 98
        1
 10
0.0
 20
0.0
  0
CIRCLE
  5
10F
100
AcDbEntity
  8
ASSEMBLY_OUTLINES_TOP
100
AcDbCircle
 10
95.02912
 20
69.113549
 30
0.0
 40
0.45
  0
HATCH
  5
110
100
AcDbEntity
  8
ASSEMBLY_OUTLINES_TOP
100
AcDbHatch
 10
0.0
 20
0.0
 30
0.0
210
0.0
220
0.0
230
1.0
  2
SOLID
 70
         1
 71
         1
 91
        1
 92
        1
 93
        1
 72
         2
 10
95.029120000000006
 20
69.113549000000006
 40
0.45
 50
0.0
 51
360.0
 73
         1
 97
        1
330
10F
 75
         0
 76
         1
 98
        1
 10
0.0
 20
0.0
  0
CIRCLE
  5
111
100
AcDbEntity
  8
ASSEMBLY_OUTLINES_TOP
100
AcDbCircle
 10
95.02912
 20
71.653549
 30
0.0
 40
0.45
  0
HATCH
  5
112
100
AcDbEntity
  8
ASSEMBLY_OUTLINES_TOP
100
AcDbHatch
 10
0.0
 20
0.0
 30
0.0
210
0.0
220
0.0
230
1.0
  2
SOLID
 70
         1
 71
         1
 91
        1
 92
        1
 93
        1
 72
         2
 10
95.029120000000006
 20
71.653548999999998
 40
0.45
 50
0.0
 51
360.0
 73
         1
 97
        1
330
111
 75
         0
 76
         1
 98
        1
 10
0.0
 20
0.0
  0
CIRCLE
  5
113
100
AcDbEntity
  8
ASSEMBLY_OUTLINES_TOP
100
AcDbCircle
 10
95.02912
 20
74.193549
 30
0.0
 40
0.45
  0
HATCH
  5
114
100
AcDbEntity
  8
ASSEMBLY_OUTLINES_TOP
100
AcDbHatch
 10
0.0
 20
0.0
 30
0.0
210
0.0
220
0.0
230
1.0
  2
SOLID
 70
         1
 71
         1
 91
        1
 92
        1
 93
        1
 72
         2
 10
95.029120000000006
 20
74.193549000000004
 40
0.45
 50
0.0
 51
360.0
 73
         1
 97
        1
330
113
 75
         0
 76
         1
 98
        1
 10
0.0
 20
0.0
  0
CIRCLE
  5
115
100
AcDbEntity
  8
ASSEMBLY_OUTLINES_TOP
100
AcDbCircle
 10
95.02912
 20
76.733549
 30
0.0
 40
0.45
  0
HATCH
  5
116
100
AcDbEntity
  8
ASSEMBLY_OUTLINES_TOP
100
AcDbHatch
 10
0.0
 20
0.0
 30
0.0
210
0.0
220
0.0
230
1.0
  2
SOLID
 70
         1
 71
         1
 91
        1
 92
        1
 93
        1
 72
         2
 10
95.029120000000006
 20
76.733548999999996
 40
0.45
 50
0.0
 51
360.0
 73
         1
 97
        1
330
115
 75
         0
 76
         1
 98
        1
 10
0.0
 20
0.0
  0
LWPOLYLINE
  5
117
100
AcDbEntity
  8
ASSEMBLY_OUTLINES_TOP
100
AcDbPolyline
 90
        4
 70
         1
 43
0.1
 10
120.85
 20
59.75
 10
120.85
 20
61.05
 10
123.75
 20
61.05
 10
123.75
 20
59.75
  0
LWPOLYLINE
  5
118
100
AcDbEntity
  8
ASSEMBLY_OUTLINES_TOP
100
AcDbPolyline
 90
        4
 70
         1
 10
113.45
 20
4.4
 10
113.45
 20
20.4
 10
138.85
 20
20.4
 10
138.85
 20
4.4
  0
LWPOLYLINE
  5
119
100
AcDbEntity
  8
ASSEMBLY_OUTLINES_TOP
100
AcDbPolyline
 90
        4
 70
         1
 43
0.1
 10
105.9
 20
44.95
 10
105.9
 20
48.25
 10
107.7
 20
48.25
 10
107.7
 20
44.95
  0
LWPOLYLINE
  5
11A
100
AcDbEntity
  8
ASSEMBLY_OUTLINES_TOP
100
AcDbPolyline
 90
        4
 70
         1
 10
137.35
 20
28.5
 10
137.35
 20
44.5
 10
143.25
 20
44.5
 10
143.25
 20
28.5
  0
LWPOLYLINE
  5
11B
100
AcDbEntity
  8
ASSEMBLY_OUTLINES_TOP
100
AcDbPolyline
 90
        4
 70
         1
 10
124.95
 20
21.1
 10
124.95
 20
51.9
 10
137.35
 20
51.9
 10
137.35
 20
21.1
  0
LWPOLYLINE
  5
11C
100
AcDbEntity
  8
ASSEMBLY_OUTLINES_TOP
100
AcDbPolyline
 90
        4
 70
         1
 10
113.33
 20
54.13
 10
113.33
 20
56.67
 10
115.87
 20
56.67
 10
115.87
 20
54.13
  0
LWPOLYLINE
  5
11D
100
AcDbEntity
  8
ASSEMBLY_OUTLINES_TOP
100
AcDbPolyline
 90
        4
 70
         1
 10
113.33
 20
56.63
 10
113.33
 20
59.17
 10
115.87
 20
59.17
 10
115.87
 20
56.63
  0
LWPOLYLINE
  5
11E
100
AcDbEntity
  8
ASSEMBLY_OUTLINES_TOP
100
AcDbPolyline
 90
        4
 70
         1
 43
0.1
 10
113.05
 20
50.4
 10
113.05
 20
53.2
 10
114.35
 20
53.2
 10
114.35
 20
50.4
  0
LWPOLYLINE
  5
11F
100
AcDbEntity
  8
ASSEMBLY_OUTLINES_TOP
100
AcDbPolyline
 90
        4
 70
         1
 43
0.1
 10
114.45
 20
50.4
 10
114.45
 20
53.2
 10
115.75
 20
53.2
 10
115.75
 20
50.4
  0
LWPOLYLINE
  5
120
100
AcDbEntity
  8
ASSEMBLY_OUTLINES_TOP
100
AcDbPolyline
 90
        4
 70
         1
 43
0.1
 10
103.85
 20
28.55
 10
103.85
 20
29.85
 10
106.75
 20
29.85
 10
106.75
 20
28.55
  0
LWPOLYLINE
  5
121
100
AcDbEntity
  8
ASSEMBLY_OUTLINES_TOP
100
AcDbPolyline
 90
        4
 70
         1
 10
103.39
 20
25.63
 10
103.39
 20
28.17
 10
108.47
 20
28.17
 10
108.47
 20
25.63
  0
LWPOLYLINE
  5
122
100
AcDbEntity
  8
ASSEMBLY_OUTLINES_TOP
100
AcDbPolyline
 90
        4
 70
         1
 43
0.1
 10
103.3
 20
32.3
 10
103.3
 20
36.3
 10
108.3
 20
36.3
 10
108.3
 20
32.3
  0
LWPOLYLINE
  5
123
100
AcDbEntity
  8
ASSEMBLY_OUTLINES_TOP
100
AcDbPolyline
 90
        2
 70
         1
 43
0.1
 10
106.8
 20
35.3
 42
-1.0
 10
107.8
 20
35.3
 42
-1.0
  0
LWPOLYLINE
  5
124
100
AcDbEntity
  8
ASSEMBLY_OUTLINES_TOP
100
AcDbPolyline
 90
        4
 70
         1
 43
0.1
 10
120.35
 20
70.05
 10
120.35
 20
72.95
 10
121.65
 20
72.95
 10
121.65
 20
70.05
  0
LWPOLYLINE
  5
125
100
AcDbEntity
  8
ASSEMBLY_OUTLINES_TOP
100
AcDbPolyline
 90
        4
 70
         1
 43
0.1
 10
111.75
 20
59.3
 10
111.75
 20
61.1
 10
115.05
 20
61.1
 10
115.05
 20
59.3
  0
LWPOLYLINE
  5
126
100
AcDbEntity
  8
ASSEMBLY_OUTLINES_TOP
100
AcDbPolyline
 90
        4
 70
         1
 43
0.1
 10
117.55
 20
22.35
 10
117.55
 20
25.25
 10
118.85
 20
25.25
 10
118.85
 20
22.35
  0
LWPOLYLINE
  5
127
100
AcDbEntity
  8
ASSEMBLY_OUTLINES_TOP
100
AcDbPolyline
 90
        4
 70
         1
 10
116.13
 20
62.39
 10
116.13
 20
69.89
 10
118.67
 20
69.89
 10
118.67
 20
62.39
  0
LWPOLYLINE
  5
128
100
AcDbEntity
  8
ASSEMBLY_OUTLINES_TOP
100
AcDbPolyline
 90
        4
 70
         1
 43
0.1
 10
115.65
 20
22.35
 10
115.65
 20
25.25
 10
116.95
 20
25.25
 10
116.95
 20
22.35
  0
LWPOLYLINE
  5
129
100
AcDbEntity
  8
ASSEMBLY_OUTLINES_TOP
100
AcDbPolyline
 90
        4
 70
         1
 43
0.1
 10
112.55
 20
35.85
 10
112.55
 20
37.15
 10
115.45
 20
37.15
 10
115.45
 20
35.85
  0
LWPOLYLINE
  5
12A
100
AcDbEntity
  8
ASSEMBLY_OUTLINES_TOP
100
AcDbPolyline
 90
        4
 70
         1
 10
91.77
 20
19.06
 10
91.77
 20
24.14
 10
97.77
 20
24.14
 10
97.77
 20
19.06
  0
LWPOLYLINE
  5
12B
100
AcDbEntity
  8
ASSEMBLY_OUTLINES_TOP
100
AcDbPolyline
 90
        4
 70
         1
 43
0.1
 10
110.25
 20
5.35
 10
110.25
 20
8.25
 10
111.55
 20
8.25
 10
111.55
 20
5.35
  0
LWPOLYLINE
  5
12C
100
AcDbEntity
  8
ASSEMBLY_OUTLINES_TOP
100
AcDbPolyline
 90
        4
 70
         1
 43
0.1
 10
108.75
 20
6.15
 10
108.75
 20
9.05
 10
110.05
 20
9.05
 10
110.05
 20
6.15
  0
LWPOLYLINE
  5
12D
100
AcDbEntity
  8
ASSEMBLY_OUTLINES_TOP
100
AcDbPolyline
 90
        4
 70
         1
 43
0.1
 10
105.7
 20
4.95
 10
105.7
 20
6.25
 10
108.5
 20
6.25
 10
108.5
 20
4.95
  0
LWPOLYLINE
  5
12E
100
AcDbEntity
  8
ASSEMBLY_OUTLINES_TOP
100
AcDbPolyline
 90
        4
 70
         1
 43
0.1
 10
109.75
 20
9.75
 10
109.75
 20
11.05
 10
112.65
 20
11.05
 10
112.65
 20
9.75
  0
LWPOLYLINE
  5
12F
100
AcDbEntity
  8
ASSEMBLY_OUTLINES_TOP
100
AcDbPolyline
 90
        4
 70
         1
 43
0.1
 10
98.55
 20
20.95
 10
98.55
 20
23.85
 10
99.85
 20
23.85
 10
99.85
 20
20.95
  0
TEXT
  5
131
100
AcDbEntity
  8
ASSEMBLY_REF_DES_TOP
100
AcDbText
 10
106.59582
 20
20.14138
 30
0.0
 40
0.8
  1
C19
 50
180.0
  7
GOST_TYPE_B
 72
         1
 11
105.85342
 21
19.74658
 31
0.0
100
AcDbText
 73
         2
  0
TEXT
  5
132
100
AcDbEntity
  8
ASSEMBLY_REF_DES_TOP
100
AcDbText
 10
104.3948
 20
12.8792
 30
0.0
 40
0.8
  1
C23
 50
90.0
  7
GOST_TYPE_B
 72
         1
 11
104.0
 21
13.7
 31
0.0
100
AcDbText
 73
         2
  0
TEXT
  5
133
100
AcDbEntity
  8
ASSEMBLY_REF_DES_TOP
100
AcDbText
 10
106.67422
 20
18.64138
 30
0.0
 40
0.8
  1
C20
 50
180.0
  7
GOST_TYPE_B
 72
         1
 11
105.85342
 21
18.24658
 31
0.0
100
AcDbText
 73
         2
  0
TEXT
  5
134
100
AcDbEntity
  8
ASSEMBLY_REF_DES_TOP
100
AcDbText
 10
108.5948
 20
18.04
 30
0.0
 40
0.8
  1
R29
 50
90.0
  7
GOST_TYPE_B
 72
         1
 11
108.2
 21
18.9
 31
0.0
100
AcDbText
 73
         2
  0
TEXT
  5
135
100
AcDbEntity
  8
ASSEMBLY_REF_DES_TOP
100
AcDbText
 10
107.3948
 20
12.7184
 30
0.0
 40
0.8
  1
R31
 50
90.0
  7
GOST_TYPE_B
 72
         1
 11
107.0
 21
13.5
 31
0.0
100
AcDbText
 73
         2
  0
TEXT
  5
136
100
AcDbEntity
  8
ASSEMBLY_REF_DES_TOP
100
AcDbText
 10
108.8448
 20
12.69
 30
0.0
 40
0.8
  1
R32
 50
90.0
  7
GOST_TYPE_B
 72
         1
 11
108.45
 21
13.55
 31
0.0
100
AcDbText
 73
         2
  0
TEXT
  5
137
100
AcDbEntity
  8
ASSEMBLY_REF_DES_TOP
100
AcDbText
 10
123.08975
 20
74.95325
 30
0.0
 40
0.5
  1
VD4
  7
GOST_TYPE_B
 72
         1
 11
123.7
 21
75.2
 31
0.0
100
AcDbText
 73
         2
  0
TEXT
  5
138
100
AcDbEntity
  8
ASSEMBLY_REF_DES_TOP
100
AcDbText
 10
105.8948
 20
12.64
 30
0.0
 40
0.8
  1
R30
 50
90.0
  7
GOST_TYPE_B
 72
         1
 11
105.5
 21
13.5
 31
0.0
100
AcDbText
 73
         2
  0
TEXT
  5
139
100
AcDbEntity
  8
ASSEMBLY_REF_DES_TOP
100
AcDbText
 10
105.39785
 20
68.30455
 30
0.0
 40
0.7
  1
R39
  7
GOST_TYPE_B
 72
         1
 11
106.15
 21
68.65
 31
0.0
100
AcDbText
 73
         2
  0
TEXT
  5
13A
100
AcDbEntity
  8
ASSEMBLY_REF_DES_TOP
100
AcDbText
 10
98.11907
 20
14.58623
 30
0.0
 40
0.8
  1
C22
 50
180.0
  7
GOST_TYPE_B
 72
         1
 11
97.29827
 21
14.19143
 31
0.0
100
AcDbText
 73
         2
  0
TEXT
  5
13B
100
AcDbEntity
  8
ASSEMBLY_REF_DES_TOP
100
AcDbText
 10
116.714
 20
60.4052
 30
0.0
 40
0.8
  1
C8
  7
GOST_TYPE_B
 72
         1
 11
117.3
 21
60.8
 31
0.0
100
AcDbText
 73
         2
  0
TEXT
  5
13C
100
AcDbEntity
  8
ASSEMBLY_REF_DES_TOP
100
AcDbText
 10
119.8
 20
76.3592
 30
0.0
 40
0.8
  1
J1
 50
270.0
  7
GOST_TYPE_B
 72
         2
 11
119.8
 21
75.5
 31
0.0
100
AcDbText
 73
         1
  0
TEXT
  5
13D
100
AcDbEntity
  8
ASSEMBLY_REF_DES_TOP
100
AcDbText
 10
130.1
 20
84.1704
 30
0.0
 40
0.8
  1
X2
 50
270.0
  7
GOST_TYPE_B
 72
         2
 11
130.1
 21
82.92
 31
0.0
100
AcDbText
 73
         1
  0
TEXT
  5
13F
100
AcDbEntity
  8
ASSEMBLY_REF_DES_TOP
100
AcDbText
 10
132.78215
 20
81.50805
 30
0.0
 40
0.7
  1
X10
  7
GOST_D
 72
         1
 11
133.5
 21
81.85
 31
0.0
100
AcDbText
 73
         2
  0
TEXT
  5
140
100
AcDbEntity
  8
ASSEMBLY_REF_DES_TOP
100
AcDbText
 10
118.1052
 20
84.338
 30
0.0
 40
0.8
  1
VD2
 50
270.0
  7
GOST_TYPE_B
 72
         1
 11
118.5
 21
83.4
 31
0.0
100
AcDbText
 73
         2
  0
TEXT
  5
141
100
AcDbEntity
  8
ASSEMBLY_REF_DES_TOP
100
AcDbText
 10
113.7052
 20
84.2596
 30
0.0
 40
0.8
  1
VD1
 50
270.0
  7
GOST_TYPE_B
 72
         1
 11
114.1
 21
83.4
 31
0.0
100
AcDbText
 73
         2
  0
TEXT
  5
142
100
AcDbEntity
  8
ASSEMBLY_REF_DES_TOP
100
AcDbText
 10
132.4848
 20
72.842
 30
0.0
 40
0.8
  1
J2
 50
90.0
  7
GOST_TYPE_B
 72
         1
 11
132.09
 21
73.35
 31
0.0
100
AcDbText
 73
         2
  0
TEXT
  5
143
100
AcDbEntity
  8
ASSEMBLY_REF_DES_TOP
100
AcDbText
 10
128.2948
 20
72.7136
 30
0.0
 40
0.8
  1
R2
 50
90.0
  7
GOST_TYPE_B
 72
         1
 11
127.9
 21
73.3
 31
0.0
100
AcDbText
 73
         2
  0
TEXT
  5
144
100
AcDbEntity
  8
ASSEMBLY_REF_DES_TOP
100
AcDbText
 10
131.53965
 20
53.73435
 30
0.0
 40
0.8
  1
R18
 50
90.0
  7
GOST_TYPE_B
 72
         1
 11
131.14485
 21
54.55515
 31
0.0
100
AcDbText
 73
         2
  0
TEXT
  5
145
100
AcDbEntity
  8
ASSEMBLY_REF_DES_TOP
100
AcDbText
 10
133.2448
 20
53.5684
 30
0.0
 40
0.8
  1
R19
 50
90.0
  7
GOST_TYPE_B
 72
         1
 11
132.85
 21
54.35
 31
0.0
100
AcDbText
 73
         2
  0
TEXT
  5
146
100
AcDbEntity
  8
ASSEMBLY_REF_DES_TOP
100
AcDbText
 10
97.0948
 20
9.94
 30
0.0
 40
0.8
  1
R35
 50
90.0
  7
GOST_TYPE_B
 72
         1
 11
96.7
 21
10.8
 31
0.0
100
AcDbText
 73
         2
  0
TEXT
  5
147
100
AcDbEntity
  8
ASSEMBLY_REF_DES_TOP
100
AcDbText
 10
93.182525
 20
10.040975
 30
0.0
 40
0.8
  1
HL1
 50
90.0
  7
GOST_TYPE_B
 72
         1
 11
92.787725
 21
10.822575
 31
0.0
100
AcDbText
 73
         2
  0
TEXT
  5
148
100
AcDbEntity
  8
ASSEMBLY_REF_DES_TOP
100
AcDbText
 10
110.8948
 20
94.4312
 30
0.0
 40
0.8
  1
C1
 50
90.0
  7
GOST_TYPE_B
 72
         1
 11
110.5
 21
94.9
 31
0.0
100
AcDbText
 73
         2
  0
TEXT
  5
149
100
AcDbEntity
  8
ASSEMBLY_REF_DES_TOP
100
AcDbText
 10
116.0948
 20
92.3404
 30
0.0
 40
0.8
  1
DA1
 50
90.0
  7
GOST_TYPE_B
 72
         1
 11
115.7
 21
93.2
 31
0.0
100
AcDbText
 73
         2
  0
TEXT
  5
14A
100
AcDbEntity
  8
ASSEMBLY_REF_DES_TOP
100
AcDbText
 10
110.9948
 20
87.4528
 30
0.0
 40
0.8
  1
C2
 50
90.0
  7
GOST_TYPE_B
 72
         1
 11
110.6
 21
88.0
 31
0.0
100
AcDbText
 73
         2
  0
TEXT
  5
14B
100
AcDbEntity
  8
ASSEMBLY_REF_DES_TOP
100
AcDbText
 10
101.4948
 20
87.584
 30
0.0
 40
0.8
  1
Bat1
 50
90.0
  7
GOST_TYPE_B
 72
         1
 11
101.1
 21
88.6
 31
0.0
100
AcDbText
 73
         2
  0
TEXT
  5
14C
100
AcDbEntity
  8
ASSEMBLY_REF_DES_TOP
100
AcDbText
 10
107.0948
 20
64.862
 30
0.0
 40
0.8
  1
VD3
 50
90.0
  7
GOST_TYPE_B
 72
         1
 11
106.7
 21
65.8
 31
0.0
100
AcDbText
 73
         2
  0
TEXT
  5
14D
100
AcDbEntity
  8
ASSEMBLY_REF_DES_TOP
100
AcDbText
 10
114.3948
 20
68.0136
 30
0.0
 40
0.8
  1
R7
 50
90.0
  7
GOST_TYPE_B
 72
         1
 11
114.0
 21
68.6
 31
0.0
100
AcDbText
 73
         2
  0
TEXT
  5
14E
100
AcDbEntity
  8
ASSEMBLY_REF_DES_TOP
100
AcDbText
 10
112.7448
 20
67.9636
 30
0.0
 40
0.8
  1
R6
 50
90.0
  7
GOST_TYPE_B
 72
         1
 11
112.35
 21
68.55
 31
0.0
100
AcDbText
 73
         2
  0
TEXT
  5
14F
100
AcDbEntity
  8
ASSEMBLY_REF_DES_TOP
100
AcDbText
 10
111.1948
 20
68.0136
 30
0.0
 40
0.8
  1
R5
 50
90.0
  7
GOST_TYPE_B
 72
         1
 11
110.8
 21
68.6
 31
0.0
100
AcDbText
 73
         2
  0
TEXT
  5
150
100
AcDbEntity
  8
ASSEMBLY_REF_DES_TOP
100
AcDbText
 10
109.5448
 20
67.9244
 30
0.0
 40
0.8
  1
R4
 50
90.0
  7
GOST_TYPE_B
 72
         1
 11
109.15
 21
68.55
 31
0.0
100
AcDbText
 73
         2
  0
TEXT
  5
151
100
AcDbEntity
  8
ASSEMBLY_REF_DES_TOP
100
AcDbText
 10
114.94995
 20
75.19765
 30
0.0
 40
0.8
  1
C6
 50
90.0
  7
GOST_TYPE_B
 72
         1
 11
114.55515
 21
75.74485
 31
0.0
100
AcDbText
 73
         2
  0
TEXT
  5
152
100
AcDbEntity
  8
ASSEMBLY_REF_DES_TOP
100
AcDbText
 10
114.7948
 20
71.8528
 30
0.0
 40
0.8
  1
C7
 50
90.0
  7
GOST_TYPE_B
 72
         1
 11
114.4
 21
72.4
 31
0.0
100
AcDbText
 73
         2
  0
TEXT
  5
153
100
AcDbEntity
  8
ASSEMBLY_REF_DES_TOP
100
AcDbText
 10
105.33965
 20
78.09765
 30
0.0
 40
0.8
  1
C3
 50
90.0
  7
GOST_TYPE_B
 72
         1
 11
104.94485
 21
78.64485
 31
0.0
100
AcDbText
 73
         2
  0
TEXT
  5
154
100
AcDbEntity
  8
ASSEMBLY_REF_DES_TOP
100
AcDbText
 10
108.5948
 20
73.062
 30
0.0
 40
0.8
  1
DA2
 50
90.0
  7
GOST_TYPE_B
 72
         1
 11
108.2
 21
74.0
 31
0.0
100
AcDbText
 73
         2
  0
TEXT
  5
155
100
AcDbEntity
  8
ASSEMBLY_REF_DES_TOP
100
AcDbText
 10
108.5948
 20
78.0136
 30
0.0
 40
0.8
  1
C4
 50
90.0
  7
GOST_TYPE_B
 72
         1
 11
108.2
 21
78.6
 31
0.0
100
AcDbText
 73
         2
  0
TEXT
  5
156
100
AcDbEntity
  8
ASSEMBLY_REF_DES_TOP
100
AcDbText
 10
111.63965
 20
78.09765
 30
0.0
 40
0.8
  1
C5
 50
90.0
  7
GOST_TYPE_B
 72
         1
 11
111.24485
 21
78.64485
 31
0.0
100
AcDbText
 73
         2
  0
TEXT
  5
157
100
AcDbEntity
  8
ASSEMBLY_REF_DES_TOP
100
AcDbText
 10
115.2448
 20
64.5636
 30
0.0
 40
0.8
  1
R9
 50
90.0
  7
GOST_TYPE_B
 72
         1
 11
114.85
 21
65.15
 31
0.0
100
AcDbText
 73
         2
  0
TEXT
  5
158
100
AcDbEntity
  8
ASSEMBLY_REF_DES_TOP
100
AcDbText
 10
113.2448
 20
64.4244
 30
0.0
 40
0.8
  1
R8
 50
90.0
  7
GOST_TYPE_B
 72
         1
 11
112.85
 21
65.05
 31
0.0
100
AcDbText
 73
         2
  0
TEXT
  5
159
100
AcDbEntity
  8
ASSEMBLY_REF_DES_TOP
100
AcDbText
 10
114.2948
 20
61.936
 30
0.0
 40
0.8
  1
C11
 50
90.0
  7
GOST_TYPE_B
 72
         1
 11
113.9
 21
62.6
 31
0.0
100
AcDbText
 73
         2
  0
TEXT
  5
15A
100
AcDbEntity
  8
ASSEMBLY_REF_DES_TOP
100
AcDbText
 10
131.54
 20
92.2364
 30
0.0
 40
0.8
  1
X1
 50
90.0
  7
GOST_TYPE_B
 72
         2
 11
131.54
 21
93.33
 31
0.0
100
AcDbText
 73
         1
  0
TEXT
  5
15B
100
AcDbEntity
  8
ASSEMBLY_REF_DES_TOP
100
AcDbText
 10
122.6948
 20
89.592
 30
0.0
 40
0.8
  1
R1
 50
90.0
  7
GOST_TYPE_B
 72
         1
 11
122.3
 21
90.1
 31
0.0
100
AcDbText
 73
         2
  0
TEXT
  5
15C
100
AcDbEntity
  8
ASSEMBLY_REF_DES_TOP
100
AcDbText
 10
132.04
 20
62.2296
 30
0.0
 40
0.8
  1
X3
 50
90.0
  7
GOST_TYPE_B
 72
         2
 11
132.04
 21
63.48
 31
0.0
100
AcDbText
 73
         1
  0
TEXT
  5
15D
100
AcDbEntity
  8
ASSEMBLY_REF_DES_TOP
100
AcDbText
 10
123.5448
 20
63.9468
 30
0.0
 40
0.8
  1
R11
 50
90.0
  7
GOST_TYPE_B
 72
         1
 11
123.15
 21
64.65
 31
0.0
100
AcDbText
 73
         2
  0
TEXT
  5
15E
100
AcDbEntity
  8
ASSEMBLY_REF_DES_TOP
100
AcDbText
 10
123.5448
 20
62.3684
 30
0.0
 40
0.8
  1
R12
 50
90.0
  7
GOST_TYPE_B
 72
         1
 11
123.15
 21
63.15
 31
0.0
100
AcDbText
 73
         2
  0
TEXT
  5
15F
100
AcDbEntity
  8
ASSEMBLY_REF_DES_TOP
100
AcDbText
 10
103.5948
 20
20.8184
 30
0.0
 40
0.8
  1
C18
 50
90.0
  7
GOST_TYPE_B
 72
         1
 11
103.2
 21
21.6
 31
0.0
100
AcDbText
 73
         2
  0
TEXT
  5
160
100
AcDbEntity
  8
ASSEMBLY_REF_DES_TOP
100
AcDbText
 10
101.1948
 20
16.4008
 30
0.0
 40
0.8
  1
DD2
 50
90.0
  7
GOST_TYPE_B
 72
         1
 11
100.8
 21
17.3
 31
0.0
100
AcDbText
 73
         2
  0
TEXT
  5
161
100
AcDbEntity
  8
ASSEMBLY_REF_DES_TOP
100
AcDbText
 10
101.2448
 20
21.5508
 30
0.0
 40
0.8
  1
R28
 50
90.0
  7
GOST_TYPE_B
 72
         1
 11
100.85
 21
22.45
 31
0.0
100
AcDbText
 73
         2
  0
TEXT
  5
162
100
AcDbEntity
  8
ASSEMBLY_REF_DES_TOP
100
AcDbText
 10
112.1948
 20
13.4008
 30
0.0
 40
0.8
  1
R34
 50
90.0
  7
GOST_TYPE_B
 72
         1
 11
111.8
 21
14.3
 31
0.0
100
AcDbText
 73
         2
  0
TEXT
  5
163
100
AcDbEntity
  8
ASSEMBLY_REF_DES_TOP
100
AcDbText
 10
103.7448
 20
62.3684
 30
0.0
 40
0.8
  1
R10
 50
90.0
  7
GOST_TYPE_B
 72
         1
 11
103.35
 21
63.15
 31
0.0
100
AcDbText
 73
         2
  0
TEXT
  5
164
100
AcDbEntity
  8
ASSEMBLY_REF_DES_TOP
100
AcDbText
 10
110.6948
 20
12.64
 30
0.0
 40
0.8
  1
R33
 50
90.0
  7
GOST_TYPE_B
 72
         1
 11
110.3
 21
13.5
 31
0.0
100
AcDbText
 73
         2
  0
TEXT
  5
165
100
AcDbEntity
  8
ASSEMBLY_REF_DES_TOP
100
AcDbText
 10
112.65
 20
25.824
 30
0.0
 40
0.8
  1
SW1
 50
90.0
  7
GOST_TYPE_B
 72
         2
 11
112.65
 21
27.7
 31
0.0
100
AcDbText
 73
         1
  0
TEXT
  5
166
100
AcDbEntity
  8
ASSEMBLY_REF_DES_TOP
100
AcDbText
 10
112.1948
 20
16.6576
 30
0.0
 40
0.8
  1
C21
 50
90.0
  7
GOST_TYPE_B
 72
         1
 11
111.8
 21
17.4
 31
0.0
100
AcDbText
 73
         2
  0
TEXT
  5
167
100
AcDbEntity
  8
ASSEMBLY_REF_DES_TOP
100
AcDbText
 10
105.0448
 20
61.7684
 30
0.0
 40
0.8
  1
R13
 50
90.0
  7
GOST_TYPE_B
 72
         1
 11
104.65
 21
62.55
 31
0.0
100
AcDbText
 73
         2
  0
TEXT
  5
168
100
AcDbEntity
  8
ASSEMBLY_REF_DES_TOP
100
AcDbText
 10
108.2948
 20
61.8528
 30
0.0
 40
0.8
  1
C9
 50
90.0
  7
GOST_TYPE_B
 72
         1
 11
107.9
 21
62.4
 31
0.0
100
AcDbText
 73
         2
  0
TEXT
  5
169
100
AcDbEntity
  8
ASSEMBLY_REF_DES_TOP
100
AcDbText
 10
110.6948
 20
33.74
 30
0.0
 40
0.8
  1
R22
 50
90.0
  7
GOST_TYPE_B
 72
         1
 11
110.3
 21
34.6
 31
0.0
100
AcDbText
 73
         2
  0
TEXT
  5
16A
100
AcDbEntity
  8
ASSEMBLY_REF_DES_TOP
100
AcDbText
 10
109.7948
 20
61.6576
 30
0.0
 40
0.8
  1
C10
 50
90.0
  7
GOST_TYPE_B
 72
         1
 11
109.4
 21
62.4
 31
0.0
100
AcDbText
 73
         2
  0
TEXT
  5
16B
100
AcDbEntity
  8
ASSEMBLY_REF_DES_TOP
100
AcDbText
 10
107.7948
 20
59.0576
 30
0.0
 40
0.8
  1
C12
 50
90.0
  7
GOST_TYPE_B
 72
         1
 11
107.4
 21
59.8
 31
0.0
100
AcDbText
 73
         2
  0
TEXT
  5
16C
100
AcDbEntity
  8
ASSEMBLY_REF_DES_TOP
100
AcDbText
 10
104.82342
 20
60.39138
 30
0.0
 40
0.8
  1
R14
 50
180.0
  7
GOST_TYPE_B
 72
         1
 11
104.00342
 21
59.99658
 31
0.0
100
AcDbText
 73
         2
  0
TEXT
  5
16D
100
AcDbEntity
  8
ASSEMBLY_REF_DES_TOP
100
AcDbText
 10
107.8448
 20
52.7792
 30
0.0
 40
0.8
  1
DD1
 50
90.0
  7
GOST_TYPE_B
 72
         1
 11
107.45
 21
53.6
 31
0.0
100
AcDbText
 73
         2
  0
TEXT
  5
16E
100
AcDbEntity
  8
ASSEMBLY_REF_DES_TOP
100
AcDbText
 10
114.41302
 20
33.94138
 30
0.0
 40
0.8
  1
R23
 50
180.0
  7
GOST_TYPE_B
 72
         1
 11
113.55342
 21
33.54658
 31
0.0
100
AcDbText
 73
         2
  0
TEXT
  5
16F
100
AcDbEntity
  8
ASSEMBLY_REF_DES_TOP
100
AcDbText
 10
114.8948
 20
41.74
 30
0.0
 40
0.8
  1
R20
 50
90.0
  7
GOST_TYPE_B
 72
         1
 11
114.5
 21
42.6
 31
0.0
100
AcDbText
 73
         2
  0
TEXT
  5
170
100
AcDbEntity
  8
ASSEMBLY_REF_DES_TOP
100
AcDbText
 10
121.1
 20
40.8996
 30
0.0
 40
0.8
  1
X7
 50
90.0
  7
GOST_TYPE_B
 72
         2
 11
121.1
 21
42.15
 31
0.0
100
AcDbText
 73
         1
  0
TEXT
  5
171
100
AcDbEntity
  8
ASSEMBLY_REF_DES_TOP
100
AcDbText
 10
129.1948
 20
52.6184
 30
0.0
 40
0.8
  1
R17
 50
90.0
  7
GOST_TYPE_B
 72
         1
 11
128.8
 21
53.4
 31
0.0
100
AcDbText
 73
         2
  0
TEXT
  5
172
100
AcDbEntity
  8
ASSEMBLY_REF_DES_TOP
100
AcDbText
 10
126.2948
 20
53.2184
 30
0.0
 40
0.8
  1
R16
 50
90.0
  7
GOST_TYPE_B
 72
         1
 11
125.9
 21
54.0
 31
0.0
100
AcDbText
 73
         2
  0
TEXT
  5
173
100
AcDbEntity
  8
ASSEMBLY_REF_DES_TOP
100
AcDbText
 10
106.1948
 20
37.9576
 30
0.0
 40
0.8
  1
C17
 50
90.0
  7
GOST_TYPE_B
 72
         1
 11
105.8
 21
38.7
 31
0.0
100
AcDbText
 73
         2
  0
TEXT
  5
174
100
AcDbEntity
  8
ASSEMBLY_REF_DES_TOP
100
AcDbText
 10
96.2698
 20
51.9448
 30
0.0
 40
0.8
  1
X6
 50
90.0
  7
GOST_TYPE_B
 72
         1
 11
95.875
 21
52.57
 31
0.0
100
AcDbText
 73
         2
  0
TEXT
  5
175
100
AcDbEntity
  8
ASSEMBLY_REF_DES_TOP
100
AcDbText
 10
122.6948
 20
59.6184
 30
0.0
 40
0.8
  1
R15
 50
90.0
  7
GOST_TYPE_B
 72
         1
 11
122.3
 21
60.4
 31
0.0
100
AcDbText
 73
         2
  0
TEXT
  5
176
100
AcDbEntity
  8
ASSEMBLY_REF_DES_TOP
100
AcDbText
 10
124.5948
 20
11.642
 30
0.0
 40
0.8
  1
T1
 50
90.0
  7
GOST_TYPE_B
 72
         1
 11
124.2
 21
12.15
 31
0.0
100
AcDbText
 73
         2
  0
TEXT
  5
177
100
AcDbEntity
  8
ASSEMBLY_REF_DES_TOP
100
AcDbText
 10
107.1948
 20
45.8576
 30
0.0
 40
0.8
  1
C16
 50
90.0
  7
GOST_TYPE_B
 72
         1
 11
106.8
 21
46.6
 31
0.0
100
AcDbText
 73
         2
  0
TEXT
  5
178
100
AcDbEntity
  8
ASSEMBLY_REF_DES_TOP
100
AcDbText
 10
131.9
 20
36.4612
 30
0.0
 40
0.8
  1
X8
 50
90.0
  7
GOST_TYPE_B
 72
         2
 11
131.9
 21
37.79
 31
0.0
100
AcDbText
 73
         1
  0
TEXT
  5
179
100
AcDbEntity
  8
ASSEMBLY_REF_DES_TOP
100
AcDbText
 10
115.1
 20
54.6496
 30
0.0
 40
0.8
  1
X5
 50
90.0
  7
GOST_TYPE_B
 72
         2
 11
115.1
 21
55.9
 31
0.0
100
AcDbText
 73
         1
  0
TEXT
  5
17A
100
AcDbEntity
  8
ASSEMBLY_REF_DES_TOP
100
AcDbText
 10
115.1
 20
57.1712
 30
0.0
 40
0.8
  1
X4
 50
90.0
  7
GOST_TYPE_B
 72
         2
 11
115.1
 21
58.5
 31
0.0
100
AcDbText
 73
         1
  0
TEXT
  5
17B
100
AcDbEntity
  8
ASSEMBLY_REF_DES_TOP
100
AcDbText
 10
114.0948
 20
51.0184
 30
0.0
 40
0.8
  1
C14
 50
90.0
  7
GOST_TYPE_B
 72
         1
 11
113.7
 21
51.8
 31
0.0
100
AcDbText
 73
         2
  0
TEXT
  5
17C
100
AcDbEntity
  8
ASSEMBLY_REF_DES_TOP
100
AcDbText
 10
115.4948
 20
51.0576
 30
0.0
 40
0.8
  1
C15
 50
90.0
  7
GOST_TYPE_B
 72
         1
 11
115.1
 21
51.8
 31
0.0
100
AcDbText
 73
         2
  0
TEXT
  5
17D
100
AcDbEntity
  8
ASSEMBLY_REF_DES_TOP
100
AcDbText
 10
106.15182
 20
29.64138
 30
0.0
 40
0.8
  1
R24
 50
180.0
  7
GOST_TYPE_B
 72
         1
 11
105.25342
 21
29.24658
 31
0.0
100
AcDbText
 73
         2
  0
TEXT
  5
17E
100
AcDbEntity
  8
ASSEMBLY_REF_DES_TOP
100
AcDbText
 10
106.46
 20
26.3056
 30
0.0
 40
0.8
  1
J4
 50
90.0
  7
GOST_TYPE_B
 72
         2
 11
106.46
 21
27.4
 31
0.0
100
AcDbText
 73
         1
  0
TEXT
  5
17F
100
AcDbEntity
  8
ASSEMBLY_REF_DES_TOP
100
AcDbText
 10
106.1948
 20
33.262
 30
0.0
 40
0.8
  1
DA3
 50
90.0
  7
GOST_TYPE_B
 72
         1
 11
105.8
 21
34.2
 31
0.0
100
AcDbText
 73
         2
  0
TEXT
  5
180
100
AcDbEntity
  8
ASSEMBLY_REF_DES_TOP
100
AcDbText
 10
121.3948
 20
70.9136
 30
0.0
 40
0.8
  1
R3
 50
90.0
  7
GOST_TYPE_B
 72
         1
 11
121.0
 21
71.5
 31
0.0
100
AcDbText
 73
         2
  0
TEXT
  5
181
100
AcDbEntity
  8
ASSEMBLY_REF_DES_TOP
100
AcDbText
 10
113.7948
 20
59.4576
 30
0.0
 40
0.8
  1
C13
 50
90.0
  7
GOST_TYPE_B
 72
         1
 11
113.4
 21
60.2
 31
0.0
100
AcDbText
 73
         2
  0
TEXT
  5
182
100
AcDbEntity
  8
ASSEMBLY_REF_DES_TOP
100
AcDbText
 10
118.5948
 20
22.94
 30
0.0
 40
0.8
  1
R26
 50
90.0
  7
GOST_TYPE_B
 72
         1
 11
118.2
 21
23.8
 31
0.0
100
AcDbText
 73
         2
  0
TEXT
  5
183
100
AcDbEntity
  8
ASSEMBLY_REF_DES_TOP
100
AcDbText
 10
117.9
 20
68.334
 30
0.0
 40
0.8
  1
J3
 50
90.0
  7
GOST_TYPE_B
 72
         2
 11
117.9
 21
69.35
 31
0.0
100
AcDbText
 73
         1
  0
TEXT
  5
184
100
AcDbEntity
  8
ASSEMBLY_REF_DES_TOP
100
AcDbText
 10
116.6948
 20
22.94
 30
0.0
 40
0.8
  1
R25
 50
90.0
  7
GOST_TYPE_B
 72
         1
 11
116.3
 21
23.8
 31
0.0
100
AcDbText
 73
         2
  0
TEXT
  5
185
100
AcDbEntity
  8
ASSEMBLY_REF_DES_TOP
100
AcDbText
 10
114.73462
 20
36.94138
 30
0.0
 40
0.8
  1
R21
 50
180.0
  7
GOST_TYPE_B
 72
         1
 11
113.95342
 21
36.54658
 31
0.0
100
AcDbText
 73
         2
  0
TEXT
  5
186
100
AcDbEntity
  8
ASSEMBLY_REF_DES_TOP
100
AcDbText
 10
95.2148
 20
20.9548
 30
0.0
 40
0.8
  1
X9
 50
90.0
  7
GOST_TYPE_B
 72
         1
 11
94.82
 21
21.58
 31
0.0
100
AcDbText
 73
         2
  0
TEXT
  5
187
100
AcDbEntity
  8
ASSEMBLY_REF_DES_TOP
100
AcDbText
 10
111.2948
 20
5.9008
 30
0.0
 40
0.8
  1
R38
 50
90.0
  7
GOST_TYPE_B
 72
         1
 11
110.9
 21
6.8
 31
0.0
100
AcDbText
 73
         2
  0
TEXT
  5
188
100
AcDbEntity
  8
ASSEMBLY_REF_DES_TOP
100
AcDbText
 10
109.7948
 20
6.74
 30
0.0
 40
0.8
  1
R37
 50
90.0
  7
GOST_TYPE_B
 72
         1
 11
109.4
 21
7.6
 31
0.0
100
AcDbText
 73
         2
  0
TEXT
  5
189
100
AcDbEntity
  8
ASSEMBLY_REF_DES_TOP
100
AcDbText
 10
107.91302
 20
6.04138
 30
0.0
 40
0.8
  1
C24
 50
180.0
  7
GOST_TYPE_B
 72
         1
 11
107.05342
 21
5.64658
 31
0.0
100
AcDbText
 73
         2
  0
TEXT
  5
18A
100
AcDbEntity
  8
ASSEMBLY_REF_DES_TOP
100
AcDbText
 10
112.01302
 20
10.84138
 30
0.0
 40
0.8
  1
R36
 50
180.0
  7
GOST_TYPE_B
 72
         1
 11
111.15342
 21
10.44658
 31
0.0
100
AcDbText
 73
         2
  0
TEXT
  5
18B
100
AcDbEntity
  8
ASSEMBLY_REF_DES_TOP
100
AcDbText
 10
99.5948
 20
21.54
 30
0.0
 40
0.8
  1
R27
 50
90.0
  7
GOST_TYPE_B
 72
         1
 11
99.2
 21
22.4
 31
0.0
100
AcDbText
 73
         2
  0
LWPOLYLINE
  5
18C
100
AcDbEntity
  8
BOARD_OUTLINE
100
AcDbPolyline
 90
        4
 70
         1
 43
0.25
 10
91.8
 20
2.7
 10
91.8
 20
100.2
 10
137.3
 20
100.2
 10
137.3
 20
2.7
  0
CIRCLE
  5
18D
100
AcDbEntity
  8
MOUNTING_HOLES_LAYER_TOP
100
AcDbCircle
 10
94.8
 20
97.2
 30
0.0
 40
2.4
  0
HATCH
  5
18E
100
AcDbEntity
  8
MOUNTING_HOLES_LAYER_TOP
100
AcDbHatch
 10
0.0
 20
0.0
 30
0.0
210
0.0
220
0.0
230
1.0
  2
SOLID
 70
         1
 71
         1
 91
        1
 92
        1
 93
        1
 72
         2
 10
94.799999999999997
 20
97.200000000000003
 40
2.3999999999999999
 50
0.0
 51
360.0
 73
         1
 97
        1
330
18D
 75
         0
 76
         1
 98
        1
 10
0.0
 20
0.0
  0
CIRCLE
  5
18F
100
AcDbEntity
  8
MOUNTING_HOLES_LAYER_TOP
100
AcDbCircle
 10
121.9
 20
97.2
 30
0.0
 40
2.4
  0
HATCH
  5
190
100
AcDbEntity
  8
MOUNTING_HOLES_LAYER_TOP
100
AcDbHatch
 10
0.0
 20
0.0
 30
0.0
210
0.0
220
0.0
230
1.0
  2
SOLID
 70
         1
 71
         1
 91
        1
 92
        1
 93
        1
 72
         2
 10
121.90000000000001
 20
97.200000000000003
 40
2.3999999999999999
 50
0.0
 51
360.0
 73
         1
 97
        1
330
18F
 75
         0
 76
         1
 98
        1
 10
0.0
 20
0.0
  0
CIRCLE
  5
191
100
AcDbEntity
  8
MOUNTING_HOLES_LAYER_TOP
100
AcDbCircle
 10
121.9
 20
23.3
 30
0.0
 40
2.4
  0
HATCH
  5
192
100
AcDbEntity
  8
MOUNTING_HOLES_LAYER_TOP
100
AcDbHatch
 10
0.0
 20
0.0
 30
0.0
210
0.0
220
0.0
230
1.0
  2
SOLID
 70
         1
 71
         1
 91
        1
 92
        1
 93
        1
 72
         2
 10
121.90000000000001
 20
23.300000000000001
 40
2.3999999999999999
 50
0.0
 51
360.0
 73
         1
 97
        1
330
191
 75
         0
 76
         1
 98
        1
 10
0.0
 20
0.0
  0
CIRCLE
  5
193
100
AcDbEntity
  8
MOUNTING_HOLES_LAYER_TOP
100
AcDbCircle
 10
94.8
 20
5.7
 30
0.0
 40
2.4
  0
HATCH
  5
194
100
AcDbEntity
  8
MOUNTING_HOLES_LAYER_TOP
100
AcDbHatch
 10
0.0
 20
0.0
 30
0.0
210
0.0
220
0.0
230
1.0
  2
SOLID
 70
         1
 71
         1
 91
        1
 92
        1
 93
        1
 72
         2
 10
94.799999999999997
 20
5.7000000000000002
 40
2.3999999999999999
 50
0.0
 51
360.0
 73
         1
 97
        1
330
193
 75
         0
 76
         1
 98
        1
 10
0.0
 20
0.0
  0
CIRCLE
  5
195
100
AcDbEntity
  8
MOUNTING_HOLES_LAYER_TOP
100
AcDbCircle
 10
101.1
 20
84.35
 30
0.0
 40
0.75
  0
HATCH
  5
196
100
AcDbEntity
  8
MOUNTING_HOLES_LAYER_TOP
100
AcDbHatch
 10
0.0
 20
0.0
 30
0.0
210
0.0
220
0.0
230
1.0
  2
SOLID
 70
         1
 71
         1
 91
        1
 92
        1
 93
        1
 72
         2
 10
101.09999999999999
 20
84.349999999999994
 40
0.75
 50
0.0
 51
360.0
 73
         1
 97
        1
330
195
 75
         0
 76
         1
 98
        1
 10
0.0
 20
0.0
  0
CIRCLE
  5
197
100
AcDbEntity
  8
MOUNTING_HOLES_LAYER_TOP
100
AcDbCircle
 10
101.1
 20
91.85
 30
0.0
 40
0.75
  0
HATCH
  5
198
100
AcDbEntity
  8
MOUNTING_HOLES_LAYER_TOP
100
AcDbHatch
 10
0.0
 20
0.0
 30
0.0
210
0.0
220
0.0
230
1.0
  2
SOLID
 70
         1
 71
         1
 91
        1
 92
        1
 93
        1
 72
         2
 10
101.09999999999999
 20
91.849999999999994
 40
0.75
 50
0.0
 51
360.0
 73
         1
 97
        1
330
197
 75
         0
 76
         1
 98
        1
 10
0.0
 20
0.0
  0
CIRCLE
  5
199
100
AcDbEntity
  8
MOUNTING_HOLES_LAYER_TOP
100
AcDbCircle
 10
96.3
 20
75.46
 30
0.0
 40
0.9
  0
HATCH
  5
19A
100
AcDbEntity
  8
MOUNTING_HOLES_LAYER_TOP
100
AcDbHatch
 10
0.0
 20
0.0
 30
0.0
210
0.0
220
0.0
230
1.0
  2
SOLID
 70
         1
 71
         1
 91
        1
 92
        1
 93
        1
 72
         2
 10
96.299999999999997
 20
75.459999999999994
 40
0.9
 50
0.0
 51
360.0
 73
         1
 97
        1
330
199
 75
         0
 76
         1
 98
        1
 10
0.0
 20
0.0
  0
CIRCLE
  5
19B
100
AcDbEntity
  8
MOUNTING_HOLES_LAYER_TOP
100
AcDbCircle
 10
96.3
 20
29.74
 30
0.0
 40
0.9
  0
HATCH
  5
19C
100
AcDbEntity
  8
MOUNTING_HOLES_LAYER_TOP
100
AcDbHatch
 10
0.0
 20
0.0
 30
0.0
210
0.0
220
0.0
230
1.0
  2
SOLID
 70
         1
 71
         1
 91
        1
 92
        1
 93
        1
 72
         2
 10
96.299999999999997
 20
29.739999999999998
 40
0.9
 50
0.0
 51
360.0
 73
         1
 97
        1
330
19B
 75
         0
 76
         1
 98
        1
 10
0.0
 20
0.0
  0
CIRCLE
  5
19D
100
AcDbEntity
  8
MOUNTING_HOLES_LAYER_TOP
100
AcDbCircle
 10
128.05
 20
6.69
 30
0.0
 40
1.625
  0
HATCH
  5
19E
100
AcDbEntity
  8
MOUNTING_HOLES_LAYER_TOP
100
AcDbHatch
 10
0.0
 20
0.0
 30
0.0
210
0.0
220
0.0
230
1.0
  2
SOLID
 70
         1
 71
         1
 91
        1
 92
        1
 93
        1
 72
         2
 10
128.05000000000001
 20
6.6900000000000004
 40
1.625
 50
0.0
 51
360.0
 73
         1
 97
        1
330
19D
 75
         0
 76
         1
 98
        1
 10
0.0
 20
0.0
  0
CIRCLE
  5
19F
100
AcDbEntity
  8
MOUNTING_HOLES_LAYER_TOP
100
AcDbCircle
 10
128.05
 20
18.11
 30
0.0
 40
1.625
  0
HATCH
  5
1A0
100
AcDbEntity
  8
MOUNTING_HOLES_LAYER_TOP
100
AcDbHatch
 10
0.0
 20
0.0
 30
0.0
210
0.0
220
0.0
230
1.0
  2
SOLID
 70
         1
 71
         1
 91
        1
 92
        1
 93
        1
 72
         2
 10
128.05000000000001
 20
18.109999999999999
 40
1.625
 50
0.0
 51
360.0
 73
         1
 97
        1
330
19F
 75
         0
 76
         1
 98
        1
 10
0.0
 20
0.0
  0
CIRCLE
  5
1A1
100
AcDbEntity
  8
PART_HOLES_LAYER_TOP
100
AcDbCircle
 10
119.4
 20
74.8
 30
0.0
 40
0.45
  0
HATCH
  5
1A2
100
AcDbEntity
  8
PART_HOLES_LAYER_TOP
100
AcDbHatch
 10
0.0
 20
0.0
 30
0.0
210
0.0
220
0.0
230
1.0
  2
SOLID
 70
         1
 71
         1
 91
        1
 92
        1
 93
        1
 72
         2
 10
119.40000000000001
 20
74.799999999999997
 40
0.45
 50
0.0
 51
360.0
 73
         1
 97
        1
330
1A1
 75
         0
 76
         1
 98
        1
 10
0.0
 20
0.0
  0
CIRCLE
  5
1A3
100
AcDbEntity
  8
PART_HOLES_LAYER_TOP
100
AcDbCircle
 10
119.4
 20
77.34
 30
0.0
 40
0.45
  0
HATCH
  5
1A4
100
AcDbEntity
  8
PART_HOLES_LAYER_TOP
100
AcDbHatch
 10
0.0
 20
0.0
 30
0.0
210
0.0
220
0.0
230
1.0
  2
SOLID
 70
         1
 71
         1
 91
        1
 92
        1
 93
        1
 72
         2
 10
119.40000000000001
 20
77.340000000000003
 40
0.45
 50
0.0
 51
360.0
 73
         1
 97
        1
330
1A3
 75
         0
 76
         1
 98
        1
 10
0.0
 20
0.0
  0
CIRCLE
  5
1A5
100
AcDbEntity
  8
PART_HOLES_LAYER_TOP
100
AcDbCircle
 10
122.2
 20
83.27
 30
0.0
 40
0.45
  0
HATCH
  5
1A6
100
AcDbEntity
  8
PART_HOLES_LAYER_TOP
100
AcDbHatch
 10
0.0
 20
0.0
 30
0.0
210
0.0
220
0.0
230
1.0
  2
SOLID
 70
         1
 71
         1
 91
        1
 92
        1
 93
        1
 72
         2
 10
122.2
 20
83.269999999999996
 40
0.45
 50
0.0
 51
360.0
 73
         1
 97
        1
330
1A5
 75
         0
 76
         1
 98
        1
 10
0.0
 20
0.0
  0
CIRCLE
  5
1A7
100
AcDbEntity
  8
PART_HOLES_LAYER_TOP
100
AcDbCircle
 10
124.74
 20
83.27
 30
0.0
 40
0.45
  0
HATCH
  5
1A8
100
AcDbEntity
  8
PART_HOLES_LAYER_TOP
100
AcDbHatch
 10
0.0
 20
0.0
 30
0.0
210
0.0
220
0.0
230
1.0
  2
SOLID
 70
         1
 71
         1
 91
        1
 92
        1
 93
        1
 72
         2
 10
124.73999999999999
 20
83.269999999999996
 40
0.45
 50
0.0
 51
360.0
 73
         1
 97
        1
330
1A7
 75
         0
 76
         1
 98
        1
 10
0.0
 20
0.0
  0
CIRCLE
  5
1A9
100
AcDbEntity
  8
PART_HOLES_LAYER_TOP
100
AcDbCircle
 10
122.2
 20
80.73
 30
0.0
 40
0.45
  0
HATCH
  5
1AA
100
AcDbEntity
  8
PART_HOLES_LAYER_TOP
100
AcDbHatch
 10
0.0
 20
0.0
 30
0.0
210
0.0
220
0.0
230
1.0
  2
SOLID
 70
         1
 71
         1
 91
        1
 92
        1
 93
        1
 72
         2
 10
122.2
 20
80.730000000000004
 40
0.45
 50
0.0
 51
360.0
 73
         1
 97
        1
330
1A9
 75
         0
 76
         1
 98
        1
 10
0.0
 20
0.0
  0
CIRCLE
  5
1AB
100
AcDbEntity
  8
PART_HOLES_LAYER_TOP
100
AcDbCircle
 10
124.74
 20
80.73
 30
0.0
 40
0.45
  0
HATCH
  5
1AC
100
AcDbEntity
  8
PART_HOLES_LAYER_TOP
100
AcDbHatch
 10
0.0
 20
0.0
 30
0.0
210
0.0
220
0.0
230
1.0
  2
SOLID
 70
         1
 71
         1
 91
        1
 92
        1
 93
        1
 72
         2
 10
124.73999999999999
 20
80.730000000000004
 40
0.45
 50
0.0
 51
360.0
 73
         1
 97
        1
330
1AB
 75
         0
 76
         1
 98
        1
 10
0.0
 20
0.0
  0
CIRCLE
  5
1AD
100
AcDbEntity
  8
PART_HOLES_LAYER_TOP
100
AcDbCircle
 10
127.0
 20
76.07
 30
0.0
 40
1.25
  0
HATCH
  5
1AE
100
AcDbEntity
  8
PART_HOLES_LAYER_TOP
100
AcDbHatch
 10
0.0
 20
0.0
 30
0.0
210
0.0
220
0.0
230
1.0
  2
SOLID
 70
         1
 71
         1
 91
        1
 92
        1
 93
        1
 72
         2
 10
127.0
 20
76.069999999999993
 40
1.25
 50
0.0
 51
360.0
 73
         1
 97
        1
330
1AD
 75
         0
 76
         1
 98
        1
 10
0.0
 20
0.0
  0
CIRCLE
  5
1AF
100
AcDbEntity
  8
PART_HOLES_LAYER_TOP
100
AcDbCircle
 10
127.0
 20
88.07
 30
0.0
 40
1.25
  0
HATCH
  5
1B0
100
AcDbEntity
  8
PART_HOLES_LAYER_TOP
100
AcDbHatch
 10
0.0
 20
0.0
 30
0.0
210
0.0
220
0.0
230
1.0
  2
SOLID
 70
         1
 71
         1
 91
        1
 92
        1
 93
        1
 72
         2
 10
127.0
 20
88.069999999999993
 40
1.25
 50
0.0
 51
360.0
 73
         1
 97
        1
330
1AF
 75
         0
 76
         1
 98
        1
 10
0.0
 20
0.0
  0
CIRCLE
  5
1B1
100
AcDbEntity
  8
PART_HOLES_LAYER_TOP
100
AcDbCircle
 10
132.55
 20
84.3
 30
0.0
 40
0.45
  0
HATCH
  5
1B2
100
AcDbEntity
  8
PART_HOLES_LAYER_TOP
100
AcDbHatch
 10
0.0
 20
0.0
 30
0.0
210
0.0
220
0.0
230
1.0
  2
SOLID
 70
         1
 71
         1
 91
        1
 92
        1
 93
        1
 72
         2
 10
132.55000000000001
 20
84.299999999999997
 40
0.45
 50
0.0
 51
360.0
 73
         1
 97
        1
330
1B1
 75
         0
 76
         1
 98
        1
 10
0.0
 20
0.0
  0
CIRCLE
  5
1B3
100
AcDbEntity
  8
PART_HOLES_LAYER_TOP
100
AcDbCircle
 10
132.55
 20
79.9
 30
0.0
 40
0.45
  0
HATCH
  5
1B4
100
AcDbEntity
  8
PART_HOLES_LAYER_TOP
100
AcDbHatch
 10
0.0
 20
0.0
 30
0.0
210
0.0
220
0.0
230
1.0
  2
SOLID
 70
         1
 71
         1
 91
        1
 92
        1
 93
        1
 72
         2
 10
132.55000000000001
 20
79.900000000000006
 40
0.45
 50
0.0
 51
360.0
 73
         1
 97
        1
330
1B3
 75
         0
 76
         1
 98
        1
 10
0.0
 20
0.0
  0
CIRCLE
  5
1B5
100
AcDbEntity
  8
PART_HOLES_LAYER_TOP
100
AcDbCircle
 10
133.34
 20
73.3
 30
0.0
 40
0.45
  0
HATCH
  5
1B6
100
AcDbEntity
  8
PART_HOLES_LAYER_TOP
100
AcDbHatch
 10
0.0
 20
0.0
 30
0.0
210
0.0
220
0.0
230
1.0
  2
SOLID
 70
         1
 71
         1
 91
        1
 92
        1
 93
        1
 72
         2
 10
133.34
 20
73.299999999999997
 40
0.45
 50
0.0
 51
360.0
 73
         1
 97
        1
330
1B5
 75
         0
 76
         1
 98
        1
 10
0.0
 20
0.0
  0
CIRCLE
  5
1B7
100
AcDbEntity
  8
PART_HOLES_LAYER_TOP
100
AcDbCircle
 10
130.8
 20
73.3
 30
0.0
 40
0.45
  0
HATCH
  5
1B8
100
AcDbEntity
  8
PART_HOLES_LAYER_TOP
100
AcDbHatch
 10
0.0
 20
0.0
 30
0.0
210
0.0
220
0.0
230
1.0
  2
SOLID
 70
         1
 71
         1
 91
        1
 92
        1
 93
        1
 72
         2
 10
130.80000000000001
 20
73.299999999999997
 40
0.45
 50
0.0
 51
360.0
 73
         1
 97
        1
330
1B7
 75
         0
 76
         1
 98
        1
 10
0.0
 20
0.0
  0
CIRCLE
  5
1B9
100
AcDbEntity
  8
PART_HOLES_LAYER_TOP
100
AcDbCircle
 10
131.139998
 20
92.88
 30
0.0
 40
1.4
  0
HATCH
  5
1BA
100
AcDbEntity
  8
PART_HOLES_LAYER_TOP
100
AcDbHatch
 10
0.0
 20
0.0
 30
0.0
210
0.0
220
0.0
230
1.0
  2
SOLID
 70
         1
 71
         1
 91
        1
 92
        1
 93
        1
 72
         2
 10
131.13999799999999
 20
92.879999999999995
 40
1.3999999999999999
 50
0.0
 51
360.0
 73
         1
 97
        1
330
1B9
 75
         0
 76
         1
 98
        1
 10
0.0
 20
0.0
  0
CIRCLE
  5
1BB
100
AcDbEntity
  8
PART_HOLES_LAYER_TOP
100
AcDbCircle
 10
128.14
 20
97.58
 30
0.0
 40
1.4
  0
HATCH
  5
1BC
100
AcDbEntity
  8
PART_HOLES_LAYER_TOP
100
AcDbHatch
 10
0.0
 20
0.0
 30
0.0
210
0.0
220
0.0
230
1.0
  2
SOLID
 70
         1
 71
         1
 91
        1
 92
        1
 93
        1
 72
         2
 10
128.13999999999999
 20
97.579999999999998
 40
1.3999999999999999
 50
0.0
 51
360.0
 73
         1
 97
        1
330
1BB
 75
         0
 76
         1
 98
        1
 10
0.0
 20
0.0
  0
CIRCLE
  5
1BD
100
AcDbEntity
  8
PART_HOLES_LAYER_TOP
100
AcDbCircle
 10
124.939998
 20
92.88
 30
0.0
 40
1.4
  0
HATCH
  5
1BE
100
AcDbEntity
  8
PART_HOLES_LAYER_TOP
100
AcDbHatch
 10
0.0
 20
0.0
 30
0.0
210
0.0
220
0.0
230
1.0
  2
SOLID
 70
         1
 71
         1
 91
        1
 92
        1
 93
        1
 72
         2
 10
124.939998
 20
92.879999999999995
 40
1.3999999999999999
 50
0.0
 51
360.0
 73
         1
 97
        1
330
1BD
 75
         0
 76
         1
 98
        1
 10
0.0
 20
0.0
  0
CIRCLE
  5
1BF
100
AcDbEntity
  8
PART_HOLES_LAYER_TOP
100
AcDbCircle
 10
125.84
 20
67.43
 30
0.0
 40
0.45
  0
HATCH
  5
1C0
100
AcDbEntity
  8
PART_HOLES_LAYER_TOP
100
AcDbHatch
 10
0.0
 20
0.0
 30
0.0
210
0.0
220
0.0
230
1.0
  2
SOLID
 70
         1
 71
         1
 91
        1
 92
        1
 93
        1
 72
         2
 10
125.84
 20
67.430000000000007
 40
0.45
 50
0.0
 51
360.0
 73
         1
 97
        1
330
1BF
 75
         0
 76
         1
 98
        1
 10
0.0
 20
0.0
  0
CIRCLE
  5
1C1
100
AcDbEntity
  8
PART_HOLES_LAYER_TOP
100
AcDbCircle
 10
125.84
 20
60.43
 30
0.0
 40
0.45
  0
HATCH
  5
1C2
100
AcDbEntity
  8
PART_HOLES_LAYER_TOP
100
AcDbHatch
 10
0.0
 20
0.0
 30
0.0
210
0.0
220
0.0
230
1.0
  2
SOLID
 70
         1
 71
         1
 91
        1
 92
        1
 93
        1
 72
         2
 10
125.84
 20
60.43
 40
0.45
 50
0.0
 51
360.0
 73
         1
 97
        1
330
1C1
 75
         0
 76
         1
 98
        1
 10
0.0
 20
0.0
  0
CIRCLE
  5
1C3
100
AcDbEntity
  8
PART_HOLES_LAYER_TOP
100
AcDbCircle
 10
128.56
 20
57.33
 30
0.0
 40
1.25
  0
HATCH
  5
1C4
100
AcDbEntity
  8
PART_HOLES_LAYER_TOP
100
AcDbHatch
 10
0.0
 20
0.0
 30
0.0
210
0.0
220
0.0
230
1.0
  2
SOLID
 70
         1
 71
         1
 91
        1
 92
        1
 93
        1
 72
         2
 10
128.56
 20
57.329999999999998
 40
1.25
 50
0.0
 51
360.0
 73
         1
 97
        1
330
1C3
 75
         0
 76
         1
 98
        1
 10
0.0
 20
0.0
  0
CIRCLE
  5
1C5
100
AcDbEntity
  8
PART_HOLES_LAYER_TOP
100
AcDbCircle
 10
128.56
 20
70.53
 30
0.0
 40
1.25
  0
HATCH
  5
1C6
100
AcDbEntity
  8
PART_HOLES_LAYER_TOP
100
AcDbHatch
 10
0.0
 20
0.0
 30
0.0
210
0.0
220
0.0
230
1.0
  2
SOLID
 70
         1
 71
         1
 91
        1
 92
        1
 93
        1
 72
         2
 10
128.56
 20
70.530000000000001
 40
1.25
 50
0.0
 51
360.0
 73
         1
 97
        1
330
1C5
 75
         0
 76
         1
 98
        1
 10
0.0
 20
0.0
  0
CIRCLE
  5
1C7
100
AcDbEntity
  8
PART_HOLES_LAYER_TOP
100
AcDbCircle
 10
125.84
 20
62.93
 30
0.0
 40
0.45
  0
HATCH
  5
1C8
100
AcDbEntity
  8
PART_HOLES_LAYER_TOP
100
AcDbHatch
 10
0.0
 20
0.0
 30
0.0
210
0.0
220
0.0
230
1.0
  2
SOLID
 70
         1
 71
         1
 91
        1
 92
        1
 93
        1
 72
         2
 10
125.84
 20
62.93
 40
0.45
 50
0.0
 51
360.0
 73
         1
 97
        1
330
1C7
 75
         0
 76
         1
 98
        1
 10
0.0
 20
0.0
  0
CIRCLE
  5
1C9
100
AcDbEntity
  8
PART_HOLES_LAYER_TOP
100
AcDbCircle
 10
125.84
 20
64.93
 30
0.0
 40
0.45
  0
HATCH
  5
1CA
100
AcDbEntity
  8
PART_HOLES_LAYER_TOP
100
AcDbHatch
 10
0.0
 20
0.0
 30
0.0
210
0.0
220
0.0
230
1.0
  2
SOLID
 70
         1
 71
         1
 91
        1
 92
        1
 93
        1
 72
         2
 10
125.84
 20
64.930000000000007
 40
0.45
 50
0.0
 51
360.0
 73
         1
 97
        1
330
1C9
 75
         0
 76
         1
 98
        1
 10
0.0
 20
0.0
  0
CIRCLE
  5
1CB
100
AcDbEntity
  8
PART_HOLES_LAYER_TOP
100
AcDbCircle
 10
111.04
 20
62.5
 30
0.0
 40
0.45
  0
HATCH
  5
1CC
100
AcDbEntity
  8
PART_HOLES_LAYER_TOP
100
AcDbHatch
 10
0.0
 20
0.0
 30
0.0
210
0.0
220
0.0
230
1.0
  2
SOLID
 70
         1
 71
         1
 91
        1
 92
        1
 93
        1
 72
         2
 10
111.04000000000001
 20
62.5
 40
0.45
 50
0.0
 51
360.0
 73
         1
 97
        1
330
1CB
 75
         0
 76
         1
 98
        1
 10
0.0
 20
0.0
  0
CIRCLE
  5
1CD
100
AcDbEntity
  8
PART_HOLES_LAYER_TOP
100
AcDbCircle
 10
106.16
 20
62.5
 30
0.0
 40
0.45
  0
HATCH
  5
1CE
100
AcDbEntity
  8
PART_HOLES_LAYER_TOP
100
AcDbHatch
 10
0.0
 20
0.0
 30
0.0
210
0.0
220
0.0
230
1.0
  2
SOLID
 70
         1
 71
         1
 91
        1
 92
        1
 93
        1
 72
         2
 10
106.16
 20
62.5
 40
0.45
 50
0.0
 51
360.0
 73
         1
 97
        1
330
1CD
 75
         0
 76
         1
 98
        1
 10
0.0
 20
0.0
  0
CIRCLE
  5
1CF
100
AcDbEntity
  8
PART_HOLES_LAYER_TOP
100
AcDbCircle
 10
119.0
 20
54.1
 30
0.0
 40
0.45
  0
HATCH
  5
1D0
100
AcDbEntity
  8
PART_HOLES_LAYER_TOP
100
AcDbHatch
 10
0.0
 20
0.0
 30
0.0
210
0.0
220
0.0
230
1.0
  2
SOLID
 70
         1
 71
         1
 91
        1
 92
        1
 93
        1
 72
         2
 10
119.0
 20
54.100000000000001
 40
0.45
 50
0.0
 51
360.0
 73
         1
 97
        1
330
1CF
 75
         0
 76
         1
 98
        1
 10
0.0
 20
0.0
  0
CIRCLE
  5
1D1
100
AcDbEntity
  8
PART_HOLES_LAYER_TOP
100
AcDbCircle
 10
121.54
 20
31.24
 30
0.0
 40
0.45
  0
HATCH
  5
1D2
100
AcDbEntity
  8
PART_HOLES_LAYER_TOP
100
AcDbHatch
 10
0.0
 20
0.0
 30
0.0
210
0.0
220
0.0
230
1.0
  2
SOLID
 70
         1
 71
         1
 91
        1
 92
        1
 93
        1
 72
         2
 10
121.54000000000001
 20
31.239999999999998
 40
0.45
 50
0.0
 51
360.0
 73
         1
 97
        1
330
1D1
 75
         0
 76
         1
 98
        1
 10
0.0
 20
0.0
  0
CIRCLE
  5
1D3
100
AcDbEntity
  8
PART_HOLES_LAYER_TOP
100
AcDbCircle
 10
121.54
 20
33.78
 30
0.0
 40
0.45
  0
HATCH
  5
1D4
100
AcDbEntity
  8
PART_HOLES_LAYER_TOP
100
AcDbHatch
 10
0.0
 20
0.0
 30
0.0
210
0.0
220
0.0
230
1.0
  2
SOLID
 70
         1
 71
         1
 91
        1
 92
        1
 93
        1
 72
         2
 10
121.54000000000001
 20
33.780000000000001
 40
0.45
 50
0.0
 51
360.0
 73
         1
 97
        1
330
1D3
 75
         0
 76
         1
 98
        1
 10
0.0
 20
0.0
  0
CIRCLE
  5
1D5
100
AcDbEntity
  8
PART_HOLES_LAYER_TOP
100
AcDbCircle
 10
121.54
 20
36.32
 30
0.0
 40
0.45
  0
HATCH
  5
1D6
100
AcDbEntity
  8
PART_HOLES_LAYER_TOP
100
AcDbHatch
 10
0.0
 20
0.0
 30
0.0
210
0.0
220
0.0
230
1.0
  2
SOLID
 70
         1
 71
         1
 91
        1
 92
        1
 93
        1
 72
         2
 10
121.54000000000001
 20
36.32
 40
0.45
 50
0.0
 51
360.0
 73
         1
 97
        1
330
1D5
 75
         0
 76
         1
 98
        1
 10
0.0
 20
0.0
  0
CIRCLE
  5
1D7
100
AcDbEntity
  8
PART_HOLES_LAYER_TOP
100
AcDbCircle
 10
121.54
 20
51.56
 30
0.0
 40
0.45
  0
HATCH
  5
1D8
100
AcDbEntity
  8
PART_HOLES_LAYER_TOP
100
AcDbHatch
 10
0.0
 20
0.0
 30
0.0
210
0.0
220
0.0
230
1.0
  2
SOLID
 70
         1
 71
         1
 91
        1
 92
        1
 93
        1
 72
         2
 10
121.54000000000001
 20
51.560000000000002
 40
0.45
 50
0.0
 51
360.0
 73
         1
 97
        1
330
1D7
 75
         0
 76
         1
 98
        1
 10
0.0
 20
0.0
  0
CIRCLE
  5
1D9
100
AcDbEntity
  8
PART_HOLES_LAYER_TOP
100
AcDbCircle
 10
121.54
 20
49.02
 30
0.0
 40
0.45
  0
HATCH
  5
1DA
100
AcDbEntity
  8
PART_HOLES_LAYER_TOP
100
AcDbHatch
 10
0.0
 20
0.0
 30
0.0
210
0.0
220
0.0
230
1.0
  2
SOLID
 70
         1
 71
         1
 91
        1
 92
        1
 93
        1
 72
         2
 10
121.54000000000001
 20
49.020000000000003
 40
0.45
 50
0.0
 51
360.0
 73
         1
 97
        1
330
1D9
 75
         0
 76
         1
 98
        1
 10
0.0
 20
0.0
  0
CIRCLE
  5
1DB
100
AcDbEntity
  8
PART_HOLES_LAYER_TOP
100
AcDbCircle
 10
121.54
 20
46.48
 30
0.0
 40
0.45
  0
HATCH
  5
1DC
100
AcDbEntity
  8
PART_HOLES_LAYER_TOP
100
AcDbHatch
 10
0.0
 20
0.0
 30
0.0
210
0.0
220
0.0
230
1.0
  2
SOLID
 70
         1
 71
         1
 91
        1
 92
        1
 93
        1
 72
         2
 10
121.54000000000001
 20
46.479999999999997
 40
0.45
 50
0.0
 51
360.0
 73
         1
 97
        1
330
1DB
 75
         0
 76
         1
 98
        1
 10
0.0
 20
0.0
  0
CIRCLE
  5
1DD
100
AcDbEntity
  8
PART_HOLES_LAYER_TOP
100
AcDbCircle
 10
121.54
 20
43.94
 30
0.0
 40
0.45
  0
HATCH
  5
1DE
100
AcDbEntity
  8
PART_HOLES_LAYER_TOP
100
AcDbHatch
 10
0.0
 20
0.0
 30
0.0
210
0.0
220
0.0
230
1.0
  2
SOLID
 70
         1
 71
         1
 91
        1
 92
        1
 93
        1
 72
         2
 10
121.54000000000001
 20
43.939999999999998
 40
0.45
 50
0.0
 51
360.0
 73
         1
 97
        1
330
1DD
 75
         0
 76
         1
 98
        1
 10
0.0
 20
0.0
  0
CIRCLE
  5
1DF
100
AcDbEntity
  8
PART_HOLES_LAYER_TOP
100
AcDbCircle
 10
121.54
 20
41.4
 30
0.0
 40
0.45
  0
HATCH
  5
1E0
100
AcDbEntity
  8
PART_HOLES_LAYER_TOP
100
AcDbHatch
 10
0.0
 20
0.0
 30
0.0
210
0.0
220
0.0
230
1.0
  2
SOLID
 70
         1
 71
         1
 91
        1
 92
        1
 93
        1
 72
         2
 10
121.54000000000001
 20
41.399999999999999
 40
0.45
 50
0.0
 51
360.0
 73
         1
 97
        1
330
1DF
 75
         0
 76
         1
 98
        1
 10
0.0
 20
0.0
  0
CIRCLE
  5
1E1
100
AcDbEntity
  8
PART_HOLES_LAYER_TOP
100
AcDbCircle
 10
119.0
 20
41.4
 30
0.0
 40
0.45
  0
HATCH
  5
1E2
100
AcDbEntity
  8
PART_HOLES_LAYER_TOP
100
AcDbHatch
 10
0.0
 20
0.0
 30
0.0
210
0.0
220
0.0
230
1.0
  2
SOLID
 70
         1
 71
         1
 91
        1
 92
        1
 93
        1
 72
         2
 10
119.0
 20
41.399999999999999
 40
0.45
 50
0.0
 51
360.0
 73
         1
 97
        1
330
1E1
 75
         0
 76
         1
 98
        1
 10
0.0
 20
0.0
  0
CIRCLE
  5
1E3
100
AcDbEntity
  8
PART_HOLES_LAYER_TOP
100
AcDbCircle
 10
121.54
 20
38.86
 30
0.0
 40
0.45
  0
HATCH
  5
1E4
100
AcDbEntity
  8
PART_HOLES_LAYER_TOP
100
AcDbHatch
 10
0.0
 20
0.0
 30
0.0
210
0.0
220
0.0
230
1.0
  2
SOLID
 70
         1
 71
         1
 91
        1
 92
        1
 93
        1
 72
         2
 10
121.54000000000001
 20
38.859999999999999
 40
0.45
 50
0.0
 51
360.0
 73
         1
 97
        1
330
1E3
 75
         0
 76
         1
 98
        1
 10
0.0
 20
0.0
  0
CIRCLE
  5
1E5
100
AcDbEntity
  8
PART_HOLES_LAYER_TOP
100
AcDbCircle
 10
119.0
 20
43.94
 30
0.0
 40
0.45
  0
HATCH
  5
1E6
100
AcDbEntity
  8
PART_HOLES_LAYER_TOP
100
AcDbHatch
 10
0.0
 20
0.0
 30
0.0
210
0.0
220
0.0
230
1.0
  2
SOLID
 70
         1
 71
         1
 91
        1
 92
        1
 93
        1
 72
         2
 10
119.0
 20
43.939999999999998
 40
0.45
 50
0.0
 51
360.0
 73
         1
 97
        1
330
1E5
 75
         0
 76
         1
 98
        1
 10
0.0
 20
0.0
  0
CIRCLE
  5
1E7
100
AcDbEntity
  8
PART_HOLES_LAYER_TOP
100
AcDbCircle
 10
119.0
 20
49.02
 30
0.0
 40
0.45
  0
HATCH
  5
1E8
100
AcDbEntity
  8
PART_HOLES_LAYER_TOP
100
AcDbHatch
 10
0.0
 20
0.0
 30
0.0
210
0.0
220
0.0
230
1.0
  2
SOLID
 70
         1
 71
         1
 91
        1
 92
        1
 93
        1
 72
         2
 10
119.0
 20
49.020000000000003
 40
0.45
 50
0.0
 51
360.0
 73
         1
 97
        1
330
1E7
 75
         0
 76
         1
 98
        1
 10
0.0
 20
0.0
  0
CIRCLE
  5
1E9
100
AcDbEntity
  8
PART_HOLES_LAYER_TOP
100
AcDbCircle
 10
119.0
 20
38.86
 30
0.0
 40
0.45
  0
HATCH
  5
1EA
100
AcDbEntity
  8
PART_HOLES_LAYER_TOP
100
AcDbHatch
 10
0.0
 20
0.0
 30
0.0
210
0.0
220
0.0
230
1.0
  2
SOLID
 70
         1
 71
         1
 91
        1
 92
        1
 93
        1
 72
         2
 10
119.0
 20
38.859999999999999
 40
0.45
 50
0.0
 51
360.0
 73
         1
 97
        1
330
1E9
 75
         0
 76
         1
 98
        1
 10
0.0
 20
0.0
  0
CIRCLE
  5
1EB
100
AcDbEntity
  8
PART_HOLES_LAYER_TOP
100
AcDbCircle
 10
119.0
 20
46.48
 30
0.0
 40
0.45
  0
HATCH
  5
1EC
100
AcDbEntity
  8
PART_HOLES_LAYER_TOP
100
AcDbHatch
 10
0.0
 20
0.0
 30
0.0
210
0.0
220
0.0
230
1.0
  2
SOLID
 70
         1
 71
         1
 91
        1
 92
        1
 93
        1
 72
         2
 10
119.0
 20
46.479999999999997
 40
0.45
 50
0.0
 51
360.0
 73
         1
 97
        1
330
1EB
 75
         0
 76
         1
 98
        1
 10
0.0
 20
0.0
  0
CIRCLE
  5
1ED
100
AcDbEntity
  8
PART_HOLES_LAYER_TOP
100
AcDbCircle
 10
119.0
 20
51.56
 30
0.0
 40
0.45
  0
HATCH
  5
1EE
100
AcDbEntity
  8
PART_HOLES_LAYER_TOP
100
AcDbHatch
 10
0.0
 20
0.0
 30
0.0
210
0.0
220
0.0
230
1.0
  2
SOLID
 70
         1
 71
         1
 91
        1
 92
        1
 93
        1
 72
         2
 10
119.0
 20
51.560000000000002
 40
0.45
 50
0.0
 51
360.0
 73
         1
 97
        1
330
1ED
 75
         0
 76
         1
 98
        1
 10
0.0
 20
0.0
  0
CIRCLE
  5
1EF
100
AcDbEntity
  8
PART_HOLES_LAYER_TOP
100
AcDbCircle
 10
119.0
 20
36.32
 30
0.0
 40
0.45
  0
HATCH
  5
1F0
100
AcDbEntity
  8
PART_HOLES_LAYER_TOP
100
AcDbHatch
 10
0.0
 20
0.0
 30
0.0
210
0.0
220
0.0
230
1.0
  2
SOLID
 70
         1
 71
         1
 91
        1
 92
        1
 93
        1
 72
         2
 10
119.0
 20
36.32
 40
0.45
 50
0.0
 51
360.0
 73
         1
 97
        1
330
1EF
 75
         0
 76
         1
 98
        1
 10
0.0
 20
0.0
  0
CIRCLE
  5
1F1
100
AcDbEntity
  8
PART_HOLES_LAYER_TOP
100
AcDbCircle
 10
121.54
 20
54.1
 30
0.0
 40
0.45
  0
HATCH
  5
1F2
100
AcDbEntity
  8
PART_HOLES_LAYER_TOP
100
AcDbHatch
 10
0.0
 20
0.0
 30
0.0
210
0.0
220
0.0
230
1.0
  2
SOLID
 70
         1
 71
         1
 91
        1
 92
        1
 93
        1
 72
         2
 10
121.54000000000001
 20
54.100000000000001
 40
0.45
 50
0.0
 51
360.0
 73
         1
 97
        1
330
1F1
 75
         0
 76
         1
 98
        1
 10
0.0
 20
0.0
  0
CIRCLE
  5
1F3
100
AcDbEntity
  8
PART_HOLES_LAYER_TOP
100
AcDbCircle
 10
119.0
 20
33.78
 30
0.0
 40
0.45
  0
HATCH
  5
1F4
100
AcDbEntity
  8
PART_HOLES_LAYER_TOP
100
AcDbHatch
 10
0.0
 20
0.0
 30
0.0
210
0.0
220
0.0
230
1.0
  2
SOLID
 70
         1
 71
         1
 91
        1
 92
        1
 93
        1
 72
         2
 10
119.0
 20
33.780000000000001
 40
0.45
 50
0.0
 51
360.0
 73
         1
 97
        1
330
1F3
 75
         0
 76
         1
 98
        1
 10
0.0
 20
0.0
  0
CIRCLE
  5
1F5
100
AcDbEntity
  8
PART_HOLES_LAYER_TOP
100
AcDbCircle
 10
119.0
 20
31.24
 30
0.0
 40
0.45
  0
HATCH
  5
1F6
100
AcDbEntity
  8
PART_HOLES_LAYER_TOP
100
AcDbHatch
 10
0.0
 20
0.0
 30
0.0
210
0.0
220
0.0
230
1.0
  2
SOLID
 70
         1
 71
         1
 91
        1
 92
        1
 93
        1
 72
         2
 10
119.0
 20
31.239999999999998
 40
0.45
 50
0.0
 51
360.0
 73
         1
 97
        1
330
1F5
 75
         0
 76
         1
 98
        1
 10
0.0
 20
0.0
  0
CIRCLE
  5
1F7
100
AcDbEntity
  8
PART_HOLES_LAYER_TOP
100
AcDbCircle
 10
121.7
 20
7.955
 30
0.0
 40
0.45
  0
HATCH
  5
1F8
100
AcDbEntity
  8
PART_HOLES_LAYER_TOP
100
AcDbHatch
 10
0.0
 20
0.0
 30
0.0
210
0.0
220
0.0
230
1.0
  2
SOLID
 70
         1
 71
         1
 91
        1
 92
        1
 93
        1
 72
         2
 10
121.7
 20
7.9550000000000001
 40
0.45
 50
0.0
 51
360.0
 73
         1
 97
        1
330
1F7
 75
         0
 76
         1
 98
        1
 10
0.0
 20
0.0
  0
CIRCLE
  5
1F9
100
AcDbEntity
  8
PART_HOLES_LAYER_TOP
100
AcDbCircle
 10
121.7
 20
10.495
 30
0.0
 40
0.45
  0
HATCH
  5
1FA
100
AcDbEntity
  8
PART_HOLES_LAYER_TOP
100
AcDbHatch
 10
0.0
 20
0.0
 30
0.0
210
0.0
220
0.0
230
1.0
  2
SOLID
 70
         1
 71
         1
 91
        1
 92
        1
 93
        1
 72
         2
 10
121.7
 20
10.494999999999999
 40
0.45
 50
0.0
 51
360.0
 73
         1
 97
        1
330
1F9
 75
         0
 76
         1
 98
        1
 10
0.0
 20
0.0
  0
CIRCLE
  5
1FB
100
AcDbEntity
  8
PART_HOLES_LAYER_TOP
100
AcDbCircle
 10
121.7
 20
13.035
 30
0.0
 40
0.45
  0
HATCH
  5
1FC
100
AcDbEntity
  8
PART_HOLES_LAYER_TOP
100
AcDbHatch
 10
0.0
 20
0.0
 30
0.0
210
0.0
220
0.0
230
1.0
  2
SOLID
 70
         1
 71
         1
 91
        1
 92
        1
 93
        1
 72
         2
 10
121.7
 20
13.035
 40
0.45
 50
0.0
 51
360.0
 73
         1
 97
        1
330
1FB
 75
         0
 76
         1
 98
        1
 10
0.0
 20
0.0
  0
CIRCLE
  5
1FD
100
AcDbEntity
  8
PART_HOLES_LAYER_TOP
100
AcDbCircle
 10
119.16
 20
11.765
 30
0.0
 40
0.45
  0
HATCH
  5
1FE
100
AcDbEntity
  8
PART_HOLES_LAYER_TOP
100
AcDbHatch
 10
0.0
 20
0.0
 30
0.0
210
0.0
220
0.0
230
1.0
  2
SOLID
 70
         1
 71
         1
 91
        1
 92
        1
 93
        1
 72
         2
 10
119.16
 20
11.765000000000001
 40
0.45
 50
0.0
 51
360.0
 73
         1
 97
        1
330
1FD
 75
         0
 76
         1
 98
        1
 10
0.0
 20
0.0
  0
CIRCLE
  5
1FF
100
AcDbEntity
  8
PART_HOLES_LAYER_TOP
100
AcDbCircle
 10
125.0
 20
20.27
 30
0.0
 40
0.95
  0
HATCH
  5
200
100
AcDbEntity
  8
PART_HOLES_LAYER_TOP
100
AcDbHatch
 10
0.0
 20
0.0
 30
0.0
210
0.0
220
0.0
230
1.0
  2
SOLID
 70
         1
 71
         1
 91
        1
 92
        1
 93
        1
 72
         2
 10
125.0
 20
20.27
 40
0.95
 50
0.0
 51
360.0
 73
         1
 97
        1
330
1FF
 75
         0
 76
         1
 98
        1
 10
0.0
 20
0.0
  0
CIRCLE
  5
201
100
AcDbEntity
  8
PART_HOLES_LAYER_TOP
100
AcDbCircle
 10
119.16
 20
14.305
 30
0.0
 40
0.45
  0
HATCH
  5
202
100
AcDbEntity
  8
PART_HOLES_LAYER_TOP
100
AcDbHatch
 10
0.0
 20
0.0
 30
0.0
210
0.0
220
0.0
230
1.0
  2
SOLID
 70
         1
 71
         1
 91
        1
 92
        1
 93
        1
 72
         2
 10
119.16
 20
14.305
 40
0.45
 50
0.0
 51
360.0
 73
         1
 97
        1
330
201
 75
         0
 76
         1
 98
        1
 10
0.0
 20
0.0
  0
CIRCLE
  5
203
100
AcDbEntity
  8
PART_HOLES_LAYER_TOP
100
AcDbCircle
 10
125.0
 20
4.53
 30
0.0
 40
0.95
  0
HATCH
  5
204
100
AcDbEntity
  8
PART_HOLES_LAYER_TOP
100
AcDbHatch
 10
0.0
 20
0.0
 30
0.0
210
0.0
220
0.0
230
1.0
  2
SOLID
 70
         1
 71
         1
 91
        1
 92
        1
 93
        1
 72
         2
 10
125.0
 20
4.5300000000000002
 40
0.95
 50
0.0
 51
360.0
 73
         1
 97
        1
330
203
 75
         0
 76
         1
 98
        1
 10
0.0
 20
0.0
  0
CIRCLE
  5
205
100
AcDbEntity
  8
PART_HOLES_LAYER_TOP
100
AcDbCircle
 10
114.33
 20
6.94
 30
0.0
 40
0.75
  0
HATCH
  5
206
100
AcDbEntity
  8
PART_HOLES_LAYER_TOP
100
AcDbHatch
 10
0.0
 20
0.0
 30
0.0
210
0.0
220
0.0
230
1.0
  2
SOLID
 70
         1
 71
         1
 91
        1
 92
        1
 93
        1
 72
         2
 10
114.33
 20
6.9400000000000004
 40
0.75
 50
0.0
 51
360.0
 73
         1
 97
        1
330
205
 75
         0
 76
         1
 98
        1
 10
0.0
 20
0.0
  0
CIRCLE
  5
207
100
AcDbEntity
  8
PART_HOLES_LAYER_TOP
100
AcDbCircle
 10
133.13
 20
6.07
 30
0.0
 40
0.6
  0
HATCH
  5
208
100
AcDbEntity
  8
PART_HOLES_LAYER_TOP
100
AcDbHatch
 10
0.0
 20
0.0
 30
0.0
210
0.0
220
0.0
230
1.0
  2
SOLID
 70
         1
 71
         1
 91
        1
 92
        1
 93
        1
 72
         2
 10
133.13
 20
6.0700000000000003
 40
0.6
 50
0.0
 51
360.0
 73
         1
 97
        1
330
207
 75
         0
 76
         1
 98
        1
 10
0.0
 20
0.0
  0
CIRCLE
  5
209
100
AcDbEntity
  8
PART_HOLES_LAYER_TOP
100
AcDbCircle
 10
131.43
 20
8.61
 30
0.0
 40
0.6
  0
HATCH
  5
20A
100
AcDbEntity
  8
PART_HOLES_LAYER_TOP
100
AcDbHatch
 10
0.0
 20
0.0
 30
0.0
210
0.0
220
0.0
230
1.0
  2
SOLID
 70
         1
 71
         1
 91
        1
 92
        1
 93
        1
 72
         2
 10
131.43000000000001
 20
8.6099999999999994
 40
0.6
 50
0.0
 51
360.0
 73
         1
 97
        1
330
209
 75
         0
 76
         1
 98
        1
 10
0.0
 20
0.0
  0
CIRCLE
  5
20B
100
AcDbEntity
  8
PART_HOLES_LAYER_TOP
100
AcDbCircle
 10
114.33
 20
9.48
 30
0.0
 40
0.75
  0
HATCH
  5
20C
100
AcDbEntity
  8
PART_HOLES_LAYER_TOP
100
AcDbHatch
 10
0.0
 20
0.0
 30
0.0
210
0.0
220
0.0
230
1.0
  2
SOLID
 70
         1
 71
         1
 91
        1
 92
        1
 93
        1
 72
         2
 10
114.33
 20
9.4800000000000004
 40
0.75
 50
0.0
 51
360.0
 73
         1
 97
        1
330
20B
 75
         0
 76
         1
 98
        1
 10
0.0
 20
0.0
  0
CIRCLE
  5
20D
100
AcDbEntity
  8
PART_HOLES_LAYER_TOP
100
AcDbCircle
 10
114.33
 20
15.32
 30
0.0
 40
0.75
  0
HATCH
  5
20E
100
AcDbEntity
  8
PART_HOLES_LAYER_TOP
100
AcDbHatch
 10
0.0
 20
0.0
 30
0.0
210
0.0
220
0.0
230
1.0
  2
SOLID
 70
         1
 71
         1
 91
        1
 92
        1
 93
        1
 72
         2
 10
114.33
 20
15.32
 40
0.75
 50
0.0
 51
360.0
 73
         1
 97
        1
330
20D
 75
         0
 76
         1
 98
        1
 10
0.0
 20
0.0
  0
CIRCLE
  5
20F
100
AcDbEntity
  8
PART_HOLES_LAYER_TOP
100
AcDbCircle
 10
133.13
 20
16.19
 30
0.0
 40
0.6
  0
HATCH
  5
210
100
AcDbEntity
  8
PART_HOLES_LAYER_TOP
100
AcDbHatch
 10
0.0
 20
0.0
 30
0.0
210
0.0
220
0.0
230
1.0
  2
SOLID
 70
         1
 71
         1
 91
        1
 92
        1
 93
        1
 72
         2
 10
133.13
 20
16.190000000000001
 40
0.6
 50
0.0
 51
360.0
 73
         1
 97
        1
330
20F
 75
         0
 76
         1
 98
        1
 10
0.0
 20
0.0
  0
CIRCLE
  5
211
100
AcDbEntity
  8
PART_HOLES_LAYER_TOP
100
AcDbCircle
 10
114.33
 20
17.86
 30
0.0
 40
0.75
  0
HATCH
  5
212
100
AcDbEntity
  8
PART_HOLES_LAYER_TOP
100
AcDbHatch
 10
0.0
 20
0.0
 30
0.0
210
0.0
220
0.0
230
1.0
  2
SOLID
 70
         1
 71
         1
 91
        1
 92
        1
 93
        1
 72
         2
 10
114.33
 20
17.859999999999999
 40
0.75
 50
0.0
 51
360.0
 73
         1
 97
        1
330
211
 75
         0
 76
         1
 98
        1
 10
0.0
 20
0.0
  0
CIRCLE
  5
213
100
AcDbEntity
  8
PART_HOLES_LAYER_TOP
100
AcDbCircle
 10
131.43
 20
18.73
 30
0.0
 40
0.6
  0
HATCH
  5
214
100
AcDbEntity
  8
PART_HOLES_LAYER_TOP
100
AcDbHatch
 10
0.0
 20
0.0
 30
0.0
210
0.0
220
0.0
230
1.0
  2
SOLID
 70
         1
 71
         1
 91
        1
 92
        1
 93
        1
 72
         2
 10
131.43000000000001
 20
18.73
 40
0.6
 50
0.0
 51
360.0
 73
         1
 97
        1
330
213
 75
         0
 76
         1
 98
        1
 10
0.0
 20
0.0
  0
CIRCLE
  5
215
100
AcDbEntity
  8
PART_HOLES_LAYER_TOP
100
AcDbCircle
 10
121.7
 20
15.575
 30
0.0
 40
0.45
  0
HATCH
  5
216
100
AcDbEntity
  8
PART_HOLES_LAYER_TOP
100
AcDbHatch
 10
0.0
 20
0.0
 30
0.0
210
0.0
220
0.0
230
1.0
  2
SOLID
 70
         1
 71
         1
 91
        1
 92
        1
 93
        1
 72
         2
 10
121.7
 20
15.574999999999999
 40
0.45
 50
0.0
 51
360.0
 73
         1
 97
        1
330
215
 75
         0
 76
         1
 98
        1
 10
0.0
 20
0.0
  0
CIRCLE
  5
217
100
AcDbEntity
  8
PART_HOLES_LAYER_TOP
100
AcDbCircle
 10
119.16
 20
16.845
 30
0.0
 40
0.45
  0
HATCH
  5
218
100
AcDbEntity
  8
PART_HOLES_LAYER_TOP
100
AcDbHatch
 10
0.0
 20
0.0
 30
0.0
210
0.0
220
0.0
230
1.0
  2
SOLID
 70
         1
 71
         1
 91
        1
 92
        1
 93
        1
 72
         2
 10
119.16
 20
16.844999999999999
 40
0.45
 50
0.0
 51
360.0
 73
         1
 97
        1
330
217
 75
         0
 76
         1
 98
        1
 10
0.0
 20
0.0
  0
CIRCLE
  5
219
100
AcDbEntity
  8
PART_HOLES_LAYER_TOP
100
AcDbCircle
 10
119.16
 20
9.225
 30
0.0
 40
0.45
  0
HATCH
  5
21A
100
AcDbEntity
  8
PART_HOLES_LAYER_TOP
100
AcDbHatch
 10
0.0
 20
0.0
 30
0.0
210
0.0
220
0.0
230
1.0
  2
SOLID
 70
         1
 71
         1
 91
        1
 92
        1
 93
        1
 72
         2
 10
119.16
 20
9.2249999999999996
 40
0.45
 50
0.0
 51
360.0
 73
         1
 97
        1
330
219
 75
         0
 76
         1
 98
        1
 10
0.0
 20
0.0
  0
CIRCLE
  5
21B
100
AcDbEntity
  8
PART_HOLES_LAYER_TOP
100
AcDbCircle
 10
129.24
 20
40.605
 30
0.0
 40
0.6
  0
HATCH
  5
21C
100
AcDbEntity
  8
PART_HOLES_LAYER_TOP
100
AcDbHatch
 10
0.0
 20
0.0
 30
0.0
210
0.0
220
0.0
230
1.0
  2
SOLID
 70
         1
 71
         1
 91
        1
 92
        1
 93
        1
 72
         2
 10
129.24000000000001
 20
40.604999999999997
 40
0.6
 50
0.0
 51
360.0
 73
         1
 97
        1
330
21B
 75
         0
 76
         1
 98
        1
 10
0.0
 20
0.0
  0
CIRCLE
  5
21D
100
AcDbEntity
  8
PART_HOLES_LAYER_TOP
100
AcDbCircle
 10
127.82
 20
48.95
 30
0.0
 40
1.5
  0
HATCH
  5
21E
100
AcDbEntity
  8
PART_HOLES_LAYER_TOP
100
AcDbHatch
 10
0.0
 20
0.0
 30
0.0
210
0.0
220
0.0
230
1.0
  2
SOLID
 70
         1
 71
         1
 91
        1
 92
        1
 93
        1
 72
         2
 10
127.81999999999999
 20
48.950000000000003
 40
1.5
 50
0.0
 51
360.0
 73
         1
 97
        1
330
21D
 75
         0
 76
         1
 98
        1
 10
0.0
 20
0.0
  0
CIRCLE
  5
21F
100
AcDbEntity
  8
PART_HOLES_LAYER_TOP
100
AcDbCircle
 10
127.82
 20
23.95
 30
0.0
 40
1.5
  0
HATCH
  5
220
100
AcDbEntity
  8
PART_HOLES_LAYER_TOP
100
AcDbHatch
 10
0.0
 20
0.0
 30
0.0
210
0.0
220
0.0
230
1.0
  2
SOLID
 70
         1
 71
         1
 91
        1
 92
        1
 93
        1
 72
         2
 10
127.81999999999999
 20
23.949999999999999
 40
1.5
 50
0.0
 51
360.0
 73
         1
 97
        1
330
21F
 75
         0
 76
         1
 98
        1
 10
0.0
 20
0.0
  0
CIRCLE
  5
221
100
AcDbEntity
  8
PART_HOLES_LAYER_TOP
100
AcDbCircle
 10
129.24
 20
32.295
 30
0.0
 40
0.6
  0
HATCH
  5
222
100
AcDbEntity
  8
PART_HOLES_LAYER_TOP
100
AcDbHatch
 10
0.0
 20
0.0
 30
0.0
210
0.0
220
0.0
230
1.0
  2
SOLID
 70
         1
 71
         1
 91
        1
 92
        1
 93
        1
 72
         2
 10
129.24000000000001
 20
32.295000000000002
 40
0.6
 50
0.0
 51
360.0
 73
         1
 97
        1
330
221
 75
         0
 76
         1
 98
        1
 10
0.0
 20
0.0
  0
CIRCLE
  5
223
100
AcDbEntity
  8
PART_HOLES_LAYER_TOP
100
AcDbCircle
 10
129.24
 20
37.835
 30
0.0
 40
0.6
  0
HATCH
  5
224
100
AcDbEntity
  8
PART_HOLES_LAYER_TOP
100
AcDbHatch
 10
0.0
 20
0.0
 30
0.0
210
0.0
220
0.0
230
1.0
  2
SOLID
 70
         1
 71
         1
 91
        1
 92
        1
 93
        1
 72
         2
 10
129.24000000000001
 20
37.835000000000001
 40
0.6
 50
0.0
 51
360.0
 73
         1
 97
        1
330
223
 75
         0
 76
         1
 98
        1
 10
0.0
 20
0.0
  0
CIRCLE
  5
225
100
AcDbEntity
  8
PART_HOLES_LAYER_TOP
100
AcDbCircle
 10
129.24
 20
35.065
 30
0.0
 40
0.6
  0
HATCH
  5
226
100
AcDbEntity
  8
PART_HOLES_LAYER_TOP
100
AcDbHatch
 10
0.0
 20
0.0
 30
0.0
210
0.0
220
0.0
230
1.0
  2
SOLID
 70
         1
 71
         1
 91
        1
 92
        1
 93
        1
 72
         2
 10
129.24000000000001
 20
35.064999999999998
 40
0.6
 50
0.0
 51
360.0
 73
         1
 97
        1
330
225
 75
         0
 76
         1
 98
        1
 10
0.0
 20
0.0
  0
CIRCLE
  5
227
100
AcDbEntity
  8
PART_HOLES_LAYER_TOP
100
AcDbCircle
 10
126.4
 20
33.68
 30
0.0
 40
0.6
  0
HATCH
  5
228
100
AcDbEntity
  8
PART_HOLES_LAYER_TOP
100
AcDbHatch
 10
0.0
 20
0.0
 30
0.0
210
0.0
220
0.0
230
1.0
  2
SOLID
 70
         1
 71
         1
 91
        1
 92
        1
 93
        1
 72
         2
 10
126.40000000000001
 20
33.68
 40
0.6
 50
0.0
 51
360.0
 73
         1
 97
        1
330
227
 75
         0
 76
         1
 98
        1
 10
0.0
 20
0.0
  0
CIRCLE
  5
229
100
AcDbEntity
  8
PART_HOLES_LAYER_TOP
100
AcDbCircle
 10
126.4
 20
41.99
 30
0.0
 40
0.6
  0
HATCH
  5
22A
100
AcDbEntity
  8
PART_HOLES_LAYER_TOP
100
AcDbHatch
 10
0.0
 20
0.0
 30
0.0
210
0.0
220
0.0
230
1.0
  2
SOLID
 70
         1
 71
         1
 91
        1
 92
        1
 93
        1
 72
         2
 10
126.40000000000001
 20
41.990000000000002
 40
0.6
 50
0.0
 51
360.0
 73
         1
 97
        1
330
229
 75
         0
 76
         1
 98
        1
 10
0.0
 20
0.0
  0
CIRCLE
  5
22B
100
AcDbEntity
  8
PART_HOLES_LAYER_TOP
100
AcDbCircle
 10
126.4
 20
30.91
 30
0.0
 40
0.6
  0
HATCH
  5
22C
100
AcDbEntity
  8
PART_HOLES_LAYER_TOP
100
AcDbHatch
 10
0.0
 20
0.0
 30
0.0
210
0.0
220
0.0
230
1.0
  2
SOLID
 70
         1
 71
         1
 91
        1
 92
        1
 93
        1
 72
         2
 10
126.40000000000001
 20
30.91
 40
0.6
 50
0.0
 51
360.0
 73
         1
 97
        1
330
22B
 75
         0
 76
         1
 98
        1
 10
0.0
 20
0.0
  0
CIRCLE
  5
22D
100
AcDbEntity
  8
PART_HOLES_LAYER_TOP
100
AcDbCircle
 10
126.4
 20
39.22
 30
0.0
 40
0.6
  0
HATCH
  5
22E
100
AcDbEntity
  8
PART_HOLES_LAYER_TOP
100
AcDbHatch
 10
0.0
 20
0.0
 30
0.0
210
0.0
220
0.0
230
1.0
  2
SOLID
 70
         1
 71
         1
 91
        1
 92
        1
 93
        1
 72
         2
 10
126.40000000000001
 20
39.219999999999999
 40
0.6
 50
0.0
 51
360.0
 73
         1
 97
        1
330
22D
 75
         0
 76
         1
 98
        1
 10
0.0
 20
0.0
  0
CIRCLE
  5
22F
100
AcDbEntity
  8
PART_HOLES_LAYER_TOP
100
AcDbCircle
 10
126.4
 20
36.45
 30
0.0
 40
0.6
  0
HATCH
  5
230
100
AcDbEntity
  8
PART_HOLES_LAYER_TOP
100
AcDbHatch
 10
0.0
 20
0.0
 30
0.0
210
0.0
220
0.0
230
1.0
  2
SOLID
 70
         1
 71
         1
 91
        1
 92
        1
 93
        1
 72
         2
 10
126.40000000000001
 20
36.450000000000003
 40
0.6
 50
0.0
 51
360.0
 73
         1
 97
        1
330
22F
 75
         0
 76
         1
 98
        1
 10
0.0
 20
0.0
  0
CIRCLE
  5
231
100
AcDbEntity
  8
PART_HOLES_LAYER_TOP
100
AcDbCircle
 10
114.6
 20
55.4
 30
0.0
 40
0.45
  0
HATCH
  5
232
100
AcDbEntity
  8
PART_HOLES_LAYER_TOP
100
AcDbHatch
 10
0.0
 20
0.0
 30
0.0
210
0.0
220
0.0
230
1.0
  2
SOLID
 70
         1
 71
         1
 91
        1
 92
        1
 93
        1
 72
         2
 10
114.59999999999999
 20
55.399999999999999
 40
0.45
 50
0.0
 51
360.0
 73
         1
 97
        1
330
231
 75
         0
 76
         1
 98
        1
 10
0.0
 20
0.0
  0
CIRCLE
  5
233
100
AcDbEntity
  8
PART_HOLES_LAYER_TOP
100
AcDbCircle
 10
114.6
 20
57.9
 30
0.0
 40
0.45
  0
HATCH
  5
234
100
AcDbEntity
  8
PART_HOLES_LAYER_TOP
100
AcDbHatch
 10
0.0
 20
0.0
 30
0.0
210
0.0
220
0.0
230
1.0
  2
SOLID
 70
         1
 71
         1
 91
        1
 92
        1
 93
        1
 72
         2
 10
114.59999999999999
 20
57.899999999999999
 40
0.45
 50
0.0
 51
360.0
 73
         1
 97
        1
330
233
 75
         0
 76
         1
 98
        1
 10
0.0
 20
0.0
  0
CIRCLE
  5
235
100
AcDbEntity
  8
PART_HOLES_LAYER_TOP
100
AcDbCircle
 10
115.170002
 20
49.2
 30
0.0
 40
0.45
  0
HATCH
  5
236
100
AcDbEntity
  8
PART_HOLES_LAYER_TOP
100
AcDbHatch
 10
0.0
 20
0.0
 30
0.0
210
0.0
220
0.0
230
1.0
  2
SOLID
 70
         1
 71
         1
 91
        1
 92
        1
 93
        1
 72
         2
 10
115.170002
 20
49.200000000000003
 40
0.45
 50
0.0
 51
360.0
 73
         1
 97
        1
330
235
 75
         0
 76
         1
 98
        1
 10
0.0
 20
0.0
  0
CIRCLE
  5
237
100
AcDbEntity
  8
PART_HOLES_LAYER_TOP
100
AcDbCircle
 10
112.63
 20
49.2
 30
0.0
 40
0.45
  0
HATCH
  5
238
100
AcDbEntity
  8
PART_HOLES_LAYER_TOP
100
AcDbHatch
 10
0.0
 20
0.0
 30
0.0
210
0.0
220
0.0
230
1.0
  2
SOLID
 70
         1
 71
         1
 91
        1
 92
        1
 93
        1
 72
         2
 10
112.63
 20
49.200000000000003
 40
0.45
 50
0.0
 51
360.0
 73
         1
 97
        1
330
237
 75
         0
 76
         1
 98
        1
 10
0.0
 20
0.0
  0
CIRCLE
  5
239
100
AcDbEntity
  8
PART_HOLES_LAYER_TOP
100
AcDbCircle
 10
104.66
 20
26.9
 30
0.0
 40
0.45
  0
HATCH
  5
23A
100
AcDbEntity
  8
PART_HOLES_LAYER_TOP
100
AcDbHatch
 10
0.0
 20
0.0
 30
0.0
210
0.0
220
0.0
230
1.0
  2
SOLID
 70
         1
 71
         1
 91
        1
 92
        1
 93
        1
 72
         2
 10
104.66
 20
26.899999999999999
 40
0.45
 50
0.0
 51
360.0
 73
         1
 97
        1
330
239
 75
         0
 76
         1
 98
        1
 10
0.0
 20
0.0
  0
CIRCLE
  5
23B
100
AcDbEntity
  8
PART_HOLES_LAYER_TOP
100
AcDbCircle
 10
107.2
 20
26.9
 30
0.0
 40
0.45
  0
HATCH
  5
23C
100
AcDbEntity
  8
PART_HOLES_LAYER_TOP
100
AcDbHatch
 10
0.0
 20
0.0
 30
0.0
210
0.0
220
0.0
230
1.0
  2
SOLID
 70
         1
 71
         1
 91
        1
 92
        1
 93
        1
 72
         2
 10
107.2
 20
26.899999999999999
 40
0.45
 50
0.0
 51
360.0
 73
         1
 97
        1
330
23B
 75
         0
 76
         1
 98
        1
 10
0.0
 20
0.0
  0
CIRCLE
  5
23D
100
AcDbEntity
  8
PART_HOLES_LAYER_TOP
100
AcDbCircle
 10
117.4
 20
63.6
 30
0.0
 40
0.45
  0
HATCH
  5
23E
100
AcDbEntity
  8
PART_HOLES_LAYER_TOP
100
AcDbHatch
 10
0.0
 20
0.0
 30
0.0
210
0.0
220
0.0
230
1.0
  2
SOLID
 70
         1
 71
         1
 91
        1
 92
        1
 93
        1
 72
         2
 10
117.40000000000001
 20
63.600000000000001
 40
0.45
 50
0.0
 51
360.0
 73
         1
 97
        1
330
23D
 75
         0
 76
         1
 98
        1
 10
0.0
 20
0.0
  0
CIRCLE
  5
23F
100
AcDbEntity
  8
PART_HOLES_LAYER_TOP
100
AcDbCircle
 10
117.4
 20
66.14
 30
0.0
 40
0.45
  0
HATCH
  5
240
100
AcDbEntity
  8
PART_HOLES_LAYER_TOP
100
AcDbHatch
 10
0.0
 20
0.0
 30
0.0
210
0.0
220
0.0
230
1.0
  2
SOLID
 70
         1
 71
         1
 91
        1
 92
        1
 93
        1
 72
         2
 10
117.40000000000001
 20
66.140000000000001
 40
0.45
 50
0.0
 51
360.0
 73
         1
 97
        1
330
23F
 75
         0
 76
         1
 98
        1
 10
0.0
 20
0.0
  0
CIRCLE
  5
241
100
AcDbEntity
  8
PART_HOLES_LAYER_TOP
100
AcDbCircle
 10
117.4
 20
68.68
 30
0.0
 40
0.45
  0
HATCH
  5
242
100
AcDbEntity
  8
PART_HOLES_LAYER_TOP
100
AcDbHatch
 10
0.0
 20
0.0
 30
0.0
210
0.0
220
0.0
230
1.0
  2
SOLID
 70
         1
 71
         1
 91
        1
 92
        1
 93
        1
 72
         2
 10
117.40000000000001
 20
68.680000000000007
 40
0.45
 50
0.0
 51
360.0
 73
         1
 97
        1
330
241
 75
         0
 76
         1
 98
        1
 10
0.0
 20
0.0
  0
CIRCLE
  5
243
100
AcDbEntity
  8
PART_HOLES_LAYER_TOP
100
AcDbCircle
 10
94.77
 20
20.33
 30
0.0
 40
0.45
  0
HATCH
  5
244
100
AcDbEntity
  8
PART_HOLES_LAYER_TOP
100
AcDbHatch
 10
0.0
 20
0.0
 30
0.0
210
0.0
220
0.0
230
1.0
  2
SOLID
 70
         1
 71
         1
 91
        1
 92
        1
 93
        1
 72
         2
 10
94.769999999999996
 20
20.329999999999998
 40
0.45
 50
0.0
 51
360.0
 73
         1
 97
        1
330
243
 75
         0
 76
         1
 98
        1
 10
0.0
 20
0.0
  0
CIRCLE
  5
245
100
AcDbEntity
  8
PART_HOLES_LAYER_TOP
100
AcDbCircle
 10
94.77
 20
22.87
 30
0.0
 40
0.45
  0
HATCH
  5
246
100
AcDbEntity
  8
PART_HOLES_LAYER_TOP
100
AcDbHatch
 10
0.0
 20
0.0
 30
0.0
210
0.0
220
0.0
230
1.0
  2
SOLID
 70
         1
 71
         1
 91
        1
 92
        1
 93
        1
 72
         2
 10
94.769999999999996
 20
22.870000000000001
 40
0.45
 50
0.0
 51
360.0
 73
         1
 97
        1
330
245
 75
         0
 76
         1
 98
        1
 10
0.0
 20
0.0
  0
CIRCLE
  5
247
100
AcDbEntity
  8
PART_HOLES_LAYER_TOP
100
AcDbCircle
 10
105.4
 20
21.34
 30
0.0
 40
0.45
  0
HATCH
  5
248
100
AcDbEntity
  8
PART_HOLES_LAYER_TOP
100
AcDbHatch
 10
0.0
 20
0.0
 30
0.0
210
0.0
220
0.0
230
1.0
  2
SOLID
 70
         1
 71
         1
 91
        1
 92
        1
 93
        1
 72
         2
 10
105.40000000000001
 20
21.34
 40
0.45
 50
0.0
 51
360.0
 73
         1
 97
        1
330
247
 75
         0
 76
         1
 98
        1
 10
0.0
 20
0.0
  0
CIRCLE
  5
249
100
AcDbEntity
  8
PART_HOLES_LAYER_TOP
100
AcDbCircle
 10
105.4
 20
16.46
 30
0.0
 40
0.45
  0
HATCH
  5
24A
100
AcDbEntity
  8
PART_HOLES_LAYER_TOP
100
AcDbHatch
 10
0.0
 20
0.0
 30
0.0
210
0.0
220
0.0
230
1.0
  2
SOLID
 70
         1
 71
         1
 91
        1
 92
        1
 93
        1
 72
         2
 10
105.40000000000001
 20
16.460000000000001
 40
0.45
 50
0.0
 51
360.0
 73
         1
 97
        1
330
249
 75
         0
 76
         1
 98
        1
 10
0.0
 20
0.0
  0
ENDSEC
  0
SECTION
  2
OBJECTS
  0
DICTIONARY
  5
19
100
AcDbDictionary
  3
ACAD_GROUP
350
1A
  3
ACAD_MLINESTYLE
350
1B
  0
DICTIONARY
  5
1A
102
{ACAD_REACTORS
330
19
102
}
100
AcDbDictionary
  0
DICTIONARY
  5
1B
102
{ACAD_REACTORS
330
19
102
}
100
AcDbDictionary
  3
STANDARD
350
1C
  0
MLINESTYLE
  5
1C
102
{ACAD_REACTORS
330
1B
102
}
100
AcDbMlineStyle
  2
STANDARD
 70
         0
  3

 62
         0
 51
90.0
 52
90.0
 71
         2
 49
0.5
 62
       256
  6
BYLAYER
 49
-0.5
 62
       256
  6
BYLAYER
  0
DICTIONARY
  5
22
102
{ACAD_REACTORS
330
19
102
}
100
AcDbDictionary
  0
ENDSEC
  0
EOF
