  0
SECTION
  2
HEADER
  9
$ACADVER
  1
AC1014
  9
$ACADMAINTVER
 70
         0
  9
$DWGCODEPAGE
  3
ANSI_1252
  9
$INSBASE
 10
0.0
 20
0.0
 30
0.0
  9
$EXTMIN
 10
0.0
 20
-6.721479
 30
0.0
  9
$EXTMAX
 10
144.248995
 20
122.435483
 30
0.0
  9
$LIMMIN
 10
0.0
 20
0.0
  9
$LIMMAX
 10
0.0
 20
0.0
  9
$ORTHOMODE
 70
         0
  9
$REGENMODE
 70
         1
  9
$FILLMODE
 70
         1
  9
$QTEXTMODE
 70
         0
  9
$MIRRTEXT
 70
         1
  9
$DRAGMODE
 70
         2
  9
$LTSCALE
 40
1.0
  9
$OSMODE
 70
         0
  9
$ATTMODE
 70
         1
  9
$TEXTSIZE
 40
0.2
  9
$TRACEWID
 40
0.05
  9
$TEXTSTYLE
  7
STANDARD
  9
$CLAYER
  8
0
  9
$CELTYPE
  6
CONTINUOUS
  9
$CECOLOR
 62
       256
  9
$CELTSCALE
 40
1.0
  9
$DELOBJ
 70
         1
  9
$DISPSILH
 70
         0
  9
$DIMSCALE
 40
1.0
  9
$DIMASZ
 40
0.18
  9
$DIMEXO
 40
0.0625
  9
$DIMDLI
 40
0.38
  9
$DIMRND
 40
0.0
  9
$DIMDLE
 40
0.0
  9
$DIMEXE
 40
0.18
  9
$DIMTP
 40
0.0
  9
$DIMTM
 40
0.0
  9
$DIMTXT
 40
0.18
  9
$DIMCEN
 40
0.09
  9
$DIMTSZ
 40
0.0
  9
$DIMTOL
 70
         0
  9
$DIMLIM
 70
         0
  9
$DIMTIH
 70
         1
  9
$DIMTOH
 70
         1
  9
$DIMSE1
 70
         0
  9
$DIMSE2
 70
         0
  9
$DIMTAD
 70
         0
  9
$DIMZIN
 70
         0
  9
$DIMBLK
  1

  9
$DIMASO
 70
         1
  9
$DIMSHO
 70
         1
  9
$DIMPOST
  1

  9
$DIMAPOST
  1

  9
$DIMALT
 70
         0
  9
$DIMALTD
 70
         2
  9
$DIMALTF
 40
25.4
  9
$DIMLFAC
 40
1.0
  9
$DIMTOFL
 70
         0
  9
$DIMTVP
 40
0.0
  9
$DIMTIX
 70
         0
  9
$DIMSOXD
 70
         0
  9
$DIMSAH
 70
         0
  9
$DIMBLK1
  1

  9
$DIMBLK2
  1

  9
$DIMSTYLE
  2
STANDARD
  9
$DIMCLRD
 70
         0
  9
$DIMCLRE
 70
         0
  9
$DIMCLRT
 70
         0
  9
$DIMTFAC
 40
1.0
  9
$DIMGAP
 40
0.09
  9
$DIMJUST
 70
         0
  9
$DIMSD1
 70
         0
  9
$DIMSD2
 70
         0
  9
$DIMTOLJ
 70
         1
  9
$DIMTZIN
 70
         0
  9
$DIMALTZ
 70
         0
  9
$DIMALTTZ
 70
         0
  9
$DIMFIT
 70
         3
  9
$DIMUPT
 70
         0
  9
$DIMUNIT
 70
         2
  9
$DIMDEC
 70
         4
  9
$DIMTDEC
 70
         4
  9
$DIMALTU
 70
         2
  9
$DIMALTTD
 70
         2
  9
$DIMTXSTY
  7
STANDARD
  9
$DIMAUNIT
 70
         0
  9
$LUNITS
 70
         2
  9
$LUPREC
 70
         4
  9
$SKETCHINC
 40
0.1
  9
$FILLETRAD
 40
0.0
  9
$AUNITS
 70
         0
  9
$AUPREC
 70
         0
  9
$MENU
  1
acad
  9
$ELEVATION
 40
0.0
  9
$PELEVATION
 40
0.0
  9
$THICKNESS
 40
0.0
  9
$LIMCHECK
 70
         0
  9
$BLIPMODE
 70
         1
  9
$CHAMFERA
 40
0.0
  9
$CHAMFERB
 40
0.0
  9
$CHAMFERC
 40
0.0
  9
$CHAMFERD
 40
0.0
  9
$SKPOLY
 70
         0
  9
$TDCREATE
 40
2456215.543460648
  9
$TDUPDATE
 40
0.000000000
  9
$TDINDWG
 40
0.0000000000
  9
$TDUSRTIMER
 40
0.0000000000
  9
$USRTIMER
 70
         1
  9
$ANGBASE
 50
0.0
  9
$ANGDIR
 70
         0
  9
$PDMODE
 70
         0
  9
$PDSIZE
 40
0.0
  9
$PLINEWID
 40
0.0
  9
$COORDS
 70
         0
  9
$SPLFRAME
 70
         0
  9
$SPLINETYPE
 70
         6
  9
$SPLINESEGS
 70
         8
  9
$ATTDIA
 70
         0
  9
$ATTREQ
 70
         1
  9
$HANDLING
 70
         1
  9
$HANDSEED
  5
397
  9
$SURFTAB1
 70
         6
  9
$SURFTAB2
 70
         6
  9
$SURFTYPE
 70
         6
  9
$SURFU
 70
         6
  9
$SURFV
 70
         6
  9
$UCSNAME
  2

  9
$UCSORG
 10
0.0
 20
0.0
 30
0.0
  9
$UCSXDIR
 10
1.0
 20
0.0
 30
0.0
  9
$UCSYDIR
 10
0.0
 20
1.0
 30
0.0
  9
$PUCSNAME
  2

  9
$PUCSORG
 10
0.0
 20
0.0
 30
0.0
  9
$PUCSXDIR
 10
1.0
 20
0.0
 30
0.0
  9
$PUCSYDIR
 10
0.0
 20
1.0
 30
0.0
  9
$USERI1
 70
        -3
  9
$USERI2
 70
         0
  9
$USERI3
 70
         0
  9
$USERI4
 70
         0
  9
$USERI5
 70
         0
  9
$USERR1
 40
0.0
  9
$USERR2
 40
0.0
  9
$USERR3
 40
0.0
  9
$USERR4
 40
0.0
  9
$USERR5
 40
0.0
  9
$WORLDVIEW
 70
         1
  9
$SHADEDGE
 70
         3
  9
$SHADEDIF
 70
        70
  9
$TILEMODE
 70
         1
  9
$MAXACTVP
 70
        16
  9
$PINSBASE
 10
0.0
 20
0.0
 30
0.0
  9
$PLIMCHECK
 70
         0
  9
$PEXTMIN
 10
1.0000000000E+20
 20
1.0000000000E+20
 30
1.0000000000E+20
  9
$PEXTMAX
 10
-1.0000000000E+20
 20
-1.0000000000E+20
 30
-1.0000000000E+20
  9
$PLIMMIN
 10
0.0
 20
0.0
  9
$PLIMMAX
 10
12.0
 20
9.0
  9
$UNITMODE
 70
         0
  9
$VISRETAIN
 70
         0
  9
$PLINEGEN
 70
         1
  9
$PSLTSCALE
 70
         0
  9
$TREEDEPTH
 70
      3020
  9
$PICKSTYLE
 70
         1
  9
$CMLSTYLE
  2
STANDARD
  9
$CMLJUST
 70
         0
  9
$CMLSCALE
 40
1.0
  9
$PROXYGRAPHICS
 70
         0
  9
$MEASUREMENT
 70
         0
  0
ENDSEC
  0
SECTION
  2
CLASSES
  0
CLASS
  1
LWPOLYLINE
  2
AcDbPolyline
  3
"AutoCAD"
 90
        0
280
         0
281
         1
  0
CLASS
  1
IMAGE
  2
AcDbRasterImage
  3
ISM
 90
      127
280
         0
281
         1
  0
CLASS
  1
OLE2FRAME
  2
AcDbOle2Frame
  3
""
 90
        0
280
         0
281
         1
  0
CLASS
  1
HATCH
  2
AcDbHatch
  3
"ACAD_SEDONA"
 90
        0
280
         0
281
         1
  0
CLASS
  1
DICTIONARYVAR
  2
AcDbDictionaryVar
  3
"AutoCAD"
 90
        0
280
         0
281
         0
  0
CLASS
  1
RASTERVARIABLES
  2
AcDbRasterVariables
  3
ISM
 90
        0
280
         0
281
         0
  0
CLASS
  1
IMAGEDEF
  2
AcDbRasterImageDef
  3
ISM
 90
        0
280
         0
281
         0
  0
CLASS
  1
IMAGEDEF_REACTOR
  2
AcDbRasterImageDefReactor
  3
ISM
 90
        1
280
         0
281
         0
  0
CLASS
  1
IDBUFFER
  2
AcDbIdBuffer
  3
"Acad"
 90
        0
280
         0
281
         0
  0
CLASS
  1
SPATIAL_FILTER
  2
AcDbSpatialFilter
  3
"Acad"
 90
        0
280
         0
281
         0
  0
CLASS
  1
XRECORD
  2
AcDbXrecord
  3
"<Built In>"
 90
        0
280
         0
281
         0
  0
CLASS
  1
SORTENTSTABLE
  2
AcDbSortentsTable
  3
"AutoCAD"
 90
        0
280
         0
281
         0
  0
CLASS
  1
LAYER_INDEX
  2
AcDbLayerIndex
  3
"Acad"
 90
        0
280
         0
281
         0
  0
CLASS
  1
SPATIAL_INDEX
  2
AcDbSpatialIndex
  3
"Acad"
 90
        0
280
         0
281
         0
  0
CLASS
  1
OBJECT_PTR
  2
CAseDLPNTableRecord
  3
"ASE-LPNTableRecord"
 90
        1
280
         0
281
         0
  0
CLASS
  1
LAYOUT
  2
AcDbLayout
  3
"AutoCAD 2000"
 90
        0
280
         0
281
         0
  0
CLASS
  1
PLOTSETTINGS
  2
AcDbPlotSettings
  3
"AutoCAD 2000"
 90
        0
280
         0
281
         0
  0
CLASS
  1
ACDBDICTIONARYWDFLT
  2
AcDbDictionaryWithDefault
  3
"AutoCAD 2000"
 90
        0
280
         0
281
         0
  0
CLASS
  1
ACDBPLACEHOLDER
  2
AcDbPlaceHolder
  3
"AutoCAD 2000"
 90
        0
280
         0
281
         0
  0
CLASS
  1
VBA_PROJECT
  2
AcDbVbaProject
  3
"acadvba"
 90
        0
280
         0
281
         0
  0
CLASS
  1
WIPEOUT
  2
AcDbWipeout
  3
WipeOut|AutoCAD Express Tool|expresstools@autodesk.com
 90
      127
280
         0
281
         1
  0
CLASS
  1
WIPEOUTVARIABLES
  2
AcDbWipeoutVariables
  3
WipeOut|AutoCAD Express Tool|expresstools@autodesk.com
 90
        0
280
         0
281
         0
  0
CLASS
  1
RTEXT
  2
RText
  3
RText|AutoCAD Express Tool|expresstools@autodesk.com
 90
        0
280
         0
281
         1
  0
CLASS
  1
ARCALIGNEDTEXT
  2
AcDbArcAlignedText
  3
ATEXT|AutoCAD Express Tool|expresstools@autodesk.com
 90
        0
280
         0
281
         1
  0
ENDSEC
  0
SECTION
  2
TABLES
  0
TABLE
  2
VPORT
  5
7
100
AcDbSymbolTable
 70
         1
  0
VPORT
  5
15
100
AcDbSymbolTableRecord
100
AcDbViewportTableRecord
  2
*ACTIVE
 70
         0
 10
0.0
 20
0.0
 11
1.0
 21
1.0
 12
6.591288
 22
4.579184
 13
0.0
 23
0.0
 14
1.0
 24
1.0
 15
0.0
 25
0.0
 16
0.0
 26
0.0
 36
1.0
 17
0.0
 27
0.0
 37
0.0
 40
9.158369
 41
0.688564
 42
50.0
 43
0.0
 44
0.0
 50
0.0
 51
0.0
 71
         0
 72
       100
 73
         1
 74
         1
 75
         0
 76
         0
 77
         0
 78
         0
  0
ENDTAB
  0
TABLE
  2
LTYPE
  5
4
100
AcDbSymbolTable
 70
         3
  0
LTYPE
  5
11
100
AcDbSymbolTableRecord
100
AcDbLinetypeTableRecord
  2
BYBLOCK
 70
        64
  3

 72
        65
 73
         0
 40
0.0
  0
LTYPE
  5
12
100
AcDbSymbolTableRecord
100
AcDbLinetypeTableRecord
  2
BYLAYER
 70
        64
  3

 72
        65
 73
         0
 40
0.0
  0
LTYPE
  5
13
100
AcDbSymbolTableRecord
100
AcDbLinetypeTableRecord
  2
CONTINUOUS
 70
        64
  3
Solid line
 72
        65
 73
         0
 40
0.0
  0
ENDTAB
  0
TABLE
  2
LAYER
  5
2
100
AcDbSymbolTable
 70
         6
  0
LAYER
  5
14
100
AcDbSymbolTableRecord
100
AcDbLayerTableRecord
  2
0
 70
         0
 62
         7
  6
CONTINUOUS
  0
LAYER
  5
24
100
AcDbSymbolTableRecord
100
AcDbLayerTableRecord
  2
ASSEMBLY_OUTLINES_TOP
 70
         0
 62
       102
  6
CONTINUOUS
  0
LAYER
  5
25
100
AcDbSymbolTableRecord
100
AcDbLayerTableRecord
  2
ASSEMBLY_REF_DES_TOP
 70
         0
 62
       102
  6
CONTINUOUS
  0
LAYER
  5
26
100
AcDbSymbolTableRecord
100
AcDbLayerTableRecord
  2
BOARD_OUTLINE
 70
         0
 62
        10
  6
CONTINUOUS
  0
LAYER
  5
27
100
AcDbSymbolTableRecord
100
AcDbLayerTableRecord
  2
MOUNTING_HOLES_LAYER_TOP
 70
         0
 62
        42
  6
CONTINUOUS
  0
LAYER
  5
28
100
AcDbSymbolTableRecord
100
AcDbLayerTableRecord
  2
PART_HOLES_LAYER_TOP
 70
         0
 62
        30
  6
CONTINUOUS
  0
ENDTAB
  0
TABLE
  2
STYLE
  5
3
100
AcDbSymbolTable
 70
         3
  0
STYLE
  5
17
100
AcDbSymbolTableRecord
100
AcDbTextStyleTableRecord
  2
STANDARD
 70
         0
 40
0.0
 41
1.0
 50
0.0
 71
         0
 42
0.0
  3
txt
  4

  0
STYLE
  5
79
100
AcDbSymbolTableRecord
100
AcDbTextStyleTableRecord
  2
VERIBEST_GERBER_0
 70
         0
 40
0.0
 41
1.0
 50
0.0
 71
         0
 42
0.0
  3

  4

  0
STYLE
  5
257
100
AcDbSymbolTableRecord
100
AcDbTextStyleTableRecord
  2
GOST_TYPE_B
 70
         0
 40
0.0
 41
1.0
 50
0.0
 71
         0
 42
0.0
  3
gost_0.ttf
  4

  0
ENDTAB
  0
TABLE
  2
VIEW
  5
5
100
AcDbSymbolTable
 70
         0
  0
ENDTAB
  0
TABLE
  2
UCS
  5
6
100
AcDbSymbolTable
 70
         0
  0
ENDTAB
  0
TABLE
  2
APPID
  5
8
100
AcDbSymbolTable
 70
         1
  0
APPID
  5
16
100
AcDbSymbolTableRecord
100
AcDbRegAppTableRecord
  2
ACAD
 70
         0
  0
ENDTAB
  0
TABLE
  2
DIMSTYLE
  5
9
100
AcDbSymbolTable
 70
         1
  0
DIMSTYLE
105
18
100
AcDbSymbolTableRecord
100
AcDbDimStyleTableRecord
  2
STANDARD
 70
         0
  3

  4

  5

  6

  7

 40
1.0
 41
0.18
 42
0.0625
 43
0.38
 44
0.18
 45
0.0
 46
0.0
 47
0.0
 48
0.0
 71
         0
 72
         0
 73
         1
 74
         1
 75
         0
 76
         0
 77
         0
 78
         0
140
0.18
141
0.09
142
0.0
143
25.4
144
1.0
145
0.0
146
1.0
147
0.09
170
         0
171
         2
172
         0
173
         0
174
         0
175
         0
176
         0
177
         0
178
         0
270
         2
271
         4
272
         4
273
         2
274
         2
275
         0
280
         0
281
         0
282
         0
283
         1
284
         0
285
         0
286
         0
287
         3
288
         0
340
17
  0
ENDTAB
  0
TABLE
  2
BLOCK_RECORD
  5
1
100
AcDbSymbolTable
 70
         0
  0
BLOCK_RECORD
  5
A
100
AcDbSymbolTableRecord
100
AcDbBlockTableRecord
  2
*MODEL_SPACE
  0
BLOCK_RECORD
  5
B
100
AcDbSymbolTableRecord
100
AcDbBlockTableRecord
  2
*PAPER_SPACE
  0
ENDTAB
  0
ENDSEC
  0
SECTION
  2
BLOCKS
  0
BLOCK
  5
D
100
AcDbEntity
  8
0
100
AcDbBlockBegin
  2
*MODEL_SPACE
 70
         0
 10
0.0
 20
0.0
 30
0.0
  3
*MODEL_SPACE
  1

  0
ENDBLK
  5
E
100
AcDbEntity
  8
0
100
AcDbBlockEnd
  0
BLOCK
  5
F
100
AcDbEntity
 67
         1
  8
0
100
AcDbBlockBegin
  2
*PAPER_SPACE
 70
         0
 10
0.0
 20
0.0
 30
0.0
  3
*PAPER_SPACE
  1

  0
ENDBLK
  5
10
100
AcDbEntity
 67
         1
  8
0
100
AcDbBlockEnd
  0
ENDSEC
  0
SECTION
  2
ENTITIES
  0
LWPOLYLINE
  5
29
100
AcDbEntity
  8
ASSEMBLY_OUTLINES_TOP
100
AcDbPolyline
 90
        3
 70
         1
 10
47.112533
 20
2.7
 10
47.682532
 20
1.56
 10
46.542533
 20
1.56
  0
HATCH
  5
2A
100
AcDbEntity
  8
ASSEMBLY_OUTLINES_TOP
100
AcDbHatch
 10
0.0
 20
0.0
 30
0.0
210
0.0
220
0.0
230
1.0
  2
SOLID
 70
         1
 71
         1
 91
        1
 92
        2
 72
         0
 73
         1
 93
        3
 10
47.112532999999999
 20
2.7000000000000002
 10
47.682532000000002
 20
1.5600000000000001
 10
46.542532999999999
 20
1.5600000000000001
 97
        1
330
29
 75
         0
 76
         1
 98
        1
 10
0.0
 20
0.0
  0
LWPOLYLINE
  5
2B
100
AcDbEntity
  8
ASSEMBLY_OUTLINES_TOP
100
AcDbPolyline
 90
        3
 70
         1
 10
47.112533
 20
7.2
 10
46.542533
 20
8.34
 10
47.682533
 20
8.34
  0
HATCH
  5
2C
100
AcDbEntity
  8
ASSEMBLY_OUTLINES_TOP
100
AcDbHatch
 10
0.0
 20
0.0
 30
0.0
210
0.0
220
0.0
230
1.0
  2
SOLID
 70
         1
 71
         1
 91
        1
 92
        2
 72
         0
 73
         1
 93
        3
 10
47.112532999999999
 20
7.2000000000000002
 10
46.542532999999999
 20
8.3399999999999999
 10
47.682532999999999
 20
8.3399999999999999
 97
        1
330
2B
 75
         0
 76
         1
 98
        1
 10
0.0
 20
0.0
  0
LWPOLYLINE
  5
2D
100
AcDbEntity
  8
ASSEMBLY_OUTLINES_TOP
100
AcDbPolyline
 90
        2
 70
         0
 43
0.2
 10
47.112533
 20
2.13
 10
47.112533
 20
-0.15
  0
LWPOLYLINE
  5
2E
100
AcDbEntity
  8
ASSEMBLY_OUTLINES_TOP
100
AcDbPolyline
 90
        2
 70
         0
 43
0.2
 10
47.112533
 20
7.77
 10
47.112533
 20
10.05
  0
LWPOLYLINE
  5
2F
100
AcDbEntity
  8
ASSEMBLY_OUTLINES_TOP
100
AcDbPolyline
 90
        2
 70
         0
 43
0.2
 10
49.79
 20
2.7
 10
46.602533
 20
2.7
  0
LWPOLYLINE
  5
30
100
AcDbEntity
  8
ASSEMBLY_OUTLINES_TOP
100
AcDbPolyline
 90
        2
 70
         0
 43
0.2
 10
62.29
 20
7.2
 10
46.602533
 20
7.2
  0
LWPOLYLINE
  5
31
100
AcDbEntity
  8
ASSEMBLY_OUTLINES_TOP
100
AcDbPolyline
 90
        3
 70
         1
 10
62.8
 20
-1.81854
 10
61.66
 20
-2.38854
 10
61.66
 20
-1.24854
  0
HATCH
  5
32
100
AcDbEntity
  8
ASSEMBLY_OUTLINES_TOP
100
AcDbHatch
 10
0.0
 20
0.0
 30
0.0
210
0.0
220
0.0
230
1.0
  2
SOLID
 70
         1
 71
         1
 91
        1
 92
        2
 72
         0
 73
         1
 93
        3
 10
62.799999999999997
 20
-1.81854
 10
61.659999999999997
 20
-2.3885399999999999
 10
61.659999999999997
 20
-1.24854
 97
        1
330
31
 75
         0
 76
         1
 98
        1
 10
0.0
 20
0.0
  0
LWPOLYLINE
  5
33
100
AcDbEntity
  8
ASSEMBLY_OUTLINES_TOP
100
AcDbPolyline
 90
        3
 70
         1
 10
50.3
 20
-1.81854
 10
51.44
 20
-1.24854
 10
51.44
 20
-2.38854
  0
HATCH
  5
34
100
AcDbEntity
  8
ASSEMBLY_OUTLINES_TOP
100
AcDbHatch
 10
0.0
 20
0.0
 30
0.0
210
0.0
220
0.0
230
1.0
  2
SOLID
 70
         1
 71
         1
 91
        1
 92
        2
 72
         0
 73
         1
 93
        3
 10
50.299999999999997
 20
-1.81854
 10
51.439999999999998
 20
-1.24854
 10
51.439999999999998
 20
-2.3885399999999999
 97
        1
330
33
 75
         0
 76
         1
 98
        1
 10
0.0
 20
0.0
  0
LWPOLYLINE
  5
35
100
AcDbEntity
  8
ASSEMBLY_OUTLINES_TOP
100
AcDbPolyline
 90
        2
 70
         0
 43
0.2
 10
60.418371
 20
-1.81854
 10
62.23
 20
-1.81854
  0
LWPOLYLINE
  5
36
100
AcDbEntity
  8
ASSEMBLY_OUTLINES_TOP
100
AcDbPolyline
 90
        2
 70
         0
 43
0.2
 10
50.87
 20
-1.81854
 10
52.681629
 20
-1.81854
  0
LWPOLYLINE
  5
37
100
AcDbEntity
  8
ASSEMBLY_OUTLINES_TOP
100
AcDbPolyline
 90
        2
 70
         0
 43
0.2
 10
62.8
 20
6.69
 10
62.8
 20
-2.32854
  0
LWPOLYLINE
  5
38
100
AcDbEntity
  8
ASSEMBLY_OUTLINES_TOP
100
AcDbPolyline
 90
        2
 70
         0
 43
0.2
 10
50.3
 20
2.19
 10
50.3
 20
-2.32854
  0
LWPOLYLINE
  5
39
100
AcDbEntity
  8
ASSEMBLY_OUTLINES_TOP
100
AcDbPolyline
 90
        3
 70
         1
 10
62.3
 20
120.051436
 10
61.16
 20
119.481436
 10
61.16
 20
120.621436
  0
HATCH
  5
3A
100
AcDbEntity
  8
ASSEMBLY_OUTLINES_TOP
100
AcDbHatch
 10
0.0
 20
0.0
 30
0.0
210
0.0
220
0.0
230
1.0
  2
SOLID
 70
         1
 71
         1
 91
        1
 92
        2
 72
         0
 73
         1
 93
        3
 10
62.299999999999997
 20
120.051436
 10
61.159999999999997
 20
119.481436
 10
61.159999999999997
 20
120.621436
 97
        1
330
39
 75
         0
 76
         1
 98
        1
 10
0.0
 20
0.0
  0
LWPOLYLINE
  5
3B
100
AcDbEntity
  8
ASSEMBLY_OUTLINES_TOP
100
AcDbPolyline
 90
        3
 70
         1
 10
50.3
 20
120.051436
 10
51.44
 20
120.621436
 10
51.44
 20
119.481436
  0
HATCH
  5
3C
100
AcDbEntity
  8
ASSEMBLY_OUTLINES_TOP
100
AcDbHatch
 10
0.0
 20
0.0
 30
0.0
210
0.0
220
0.0
230
1.0
  2
SOLID
 70
         1
 71
         1
 91
        1
 92
        2
 72
         0
 73
         1
 93
        3
 10
50.299999999999997
 20
120.051436
 10
51.439999999999998
 20
120.621436
 10
51.439999999999998
 20
119.481436
 97
        1
330
3B
 75
         0
 76
         1
 98
        1
 10
0.0
 20
0.0
  0
LWPOLYLINE
  5
3D
100
AcDbEntity
  8
ASSEMBLY_OUTLINES_TOP
100
AcDbPolyline
 90
        2
 70
         0
 43
0.2
 10
59.025562
 20
120.051436
 10
61.73
 20
120.051436
  0
LWPOLYLINE
  5
3E
100
AcDbEntity
  8
ASSEMBLY_OUTLINES_TOP
100
AcDbPolyline
 90
        2
 70
         0
 43
0.2
 10
50.87
 20
120.051436
 10
53.574438
 20
120.051436
  0
LWPOLYLINE
  5
3F
100
AcDbEntity
  8
ASSEMBLY_OUTLINES_TOP
100
AcDbPolyline
 90
        2
 70
         0
 43
0.2
 10
62.3
 20
105.21
 10
62.3
 20
120.561436
  0
LWPOLYLINE
  5
40
100
AcDbEntity
  8
ASSEMBLY_OUTLINES_TOP
100
AcDbPolyline
 90
        2
 70
         0
 43
0.2
 10
50.3
 20
117.21
 10
50.3
 20
120.561436
  0
LWPOLYLINE
  5
41
100
AcDbEntity
  8
ASSEMBLY_OUTLINES_TOP
100
AcDbPolyline
 90
        3
 70
         1
 10
46.282865
 20
104.7
 10
45.712865
 20
105.84
 10
46.852865
 20
105.84
  0
HATCH
  5
42
100
AcDbEntity
  8
ASSEMBLY_OUTLINES_TOP
100
AcDbHatch
 10
0.0
 20
0.0
 30
0.0
210
0.0
220
0.0
230
1.0
  2
SOLID
 70
         1
 71
         1
 91
        1
 92
        2
 72
         0
 73
         1
 93
        3
 10
46.282865000000001
 20
104.7
 10
45.712865000000001
 20
105.84
 10
46.852865000000001
 20
105.84
 97
        1
330
41
 75
         0
 76
         1
 98
        1
 10
0.0
 20
0.0
  0
LWPOLYLINE
  5
43
100
AcDbEntity
  8
ASSEMBLY_OUTLINES_TOP
100
AcDbPolyline
 90
        3
 70
         1
 10
46.282865
 20
116.7
 10
46.852864
 20
115.56
 10
45.712865
 20
115.56
  0
HATCH
  5
44
100
AcDbEntity
  8
ASSEMBLY_OUTLINES_TOP
100
AcDbHatch
 10
0.0
 20
0.0
 30
0.0
210
0.0
220
0.0
230
1.0
  2
SOLID
 70
         1
 71
         1
 91
        1
 92
        2
 72
         0
 73
         1
 93
        3
 10
46.282865000000001
 20
116.7
 10
46.852863999999997
 20
115.56
 10
45.712865000000001
 20
115.56
 97
        1
330
43
 75
         0
 76
         1
 98
        1
 10
0.0
 20
0.0
  0
LWPOLYLINE
  5
45
100
AcDbEntity
  8
ASSEMBLY_OUTLINES_TOP
100
AcDbPolyline
 90
        2
 70
         0
 43
0.2
 10
46.282865
 20
107.974438
 10
46.282865
 20
105.27
  0
LWPOLYLINE
  5
46
100
AcDbEntity
  8
ASSEMBLY_OUTLINES_TOP
100
AcDbPolyline
 90
        2
 70
         0
 43
0.2
 10
46.282865
 20
116.13
 10
46.282865
 20
113.425561
  0
LWPOLYLINE
  5
47
100
AcDbEntity
  8
ASSEMBLY_OUTLINES_TOP
100
AcDbPolyline
 90
        2
 70
         0
 43
0.2
 10
61.79
 20
104.7
 10
45.772865
 20
104.7
  0
LWPOLYLINE
  5
48
100
AcDbEntity
  8
ASSEMBLY_OUTLINES_TOP
100
AcDbPolyline
 90
        2
 70
         0
 43
0.2
 10
49.79
 20
116.7
 10
45.772865
 20
116.7
  0
LWPOLYLINE
  5
49
100
AcDbEntity
  8
ASSEMBLY_OUTLINES_TOP
100
AcDbPolyline
 90
        3
 70
         1
 10
140.913496
 20
113.2
 10
141.483495
 20
112.06
 10
140.343496
 20
112.06
  0
HATCH
  5
4A
100
AcDbEntity
  8
ASSEMBLY_OUTLINES_TOP
100
AcDbHatch
 10
0.0
 20
0.0
 30
0.0
210
0.0
220
0.0
230
1.0
  2
SOLID
 70
         1
 71
         1
 91
        1
 92
        2
 72
         0
 73
         1
 93
        3
 10
140.91349600000001
 20
113.2
 10
141.483495
 20
112.06
 10
140.34349599999999
 20
112.06
 97
        1
330
49
 75
         0
 76
         1
 98
        1
 10
0.0
 20
0.0
  0
LWPOLYLINE
  5
4B
100
AcDbEntity
  8
ASSEMBLY_OUTLINES_TOP
100
AcDbPolyline
 90
        3
 70
         1
 10
140.913496
 20
116.7
 10
140.343496
 20
117.84
 10
141.483496
 20
117.84
  0
HATCH
  5
4C
100
AcDbEntity
  8
ASSEMBLY_OUTLINES_TOP
100
AcDbHatch
 10
0.0
 20
0.0
 30
0.0
210
0.0
220
0.0
230
1.0
  2
SOLID
 70
         1
 71
         1
 91
        1
 92
        2
 72
         0
 73
         1
 93
        3
 10
140.91349600000001
 20
116.7
 10
140.34349599999999
 20
117.84
 10
141.483496
 20
117.84
 97
        1
330
4B
 75
         0
 76
         1
 98
        1
 10
0.0
 20
0.0
  0
LWPOLYLINE
  5
4D
100
AcDbEntity
  8
ASSEMBLY_OUTLINES_TOP
100
AcDbPolyline
 90
        2
 70
         0
 43
0.2
 10
140.913496
 20
112.63
 10
140.913496
 20
110.35
  0
LWPOLYLINE
  5
4E
100
AcDbEntity
  8
ASSEMBLY_OUTLINES_TOP
100
AcDbPolyline
 90
        2
 70
         0
 43
0.2
 10
140.913496
 20
117.27
 10
140.913496
 20
119.55
  0
LWPOLYLINE
  5
4F
100
AcDbEntity
  8
ASSEMBLY_OUTLINES_TOP
100
AcDbPolyline
 90
        2
 70
         0
 43
0.2
 10
122.51
 20
113.2
 10
141.423496
 20
113.2
  0
LWPOLYLINE
  5
50
100
AcDbEntity
  8
ASSEMBLY_OUTLINES_TOP
100
AcDbPolyline
 90
        2
 70
         0
 43
0.2
 10
137.81
 20
116.7
 10
141.423496
 20
116.7
  0
LWPOLYLINE
  5
51
100
AcDbEntity
  8
ASSEMBLY_OUTLINES_TOP
100
AcDbPolyline
 90
        3
 70
         1
 10
137.3
 20
121.825483
 10
136.16
 20
121.255483
 10
136.16
 20
122.395483
  0
HATCH
  5
52
100
AcDbEntity
  8
ASSEMBLY_OUTLINES_TOP
100
AcDbHatch
 10
0.0
 20
0.0
 30
0.0
210
0.0
220
0.0
230
1.0
  2
SOLID
 70
         1
 71
         1
 91
        1
 92
        2
 72
         0
 73
         1
 93
        3
 10
137.30000000000001
 20
121.82548300000001
 10
136.16
 20
121.255483
 10
136.16
 20
122.395483
 97
        1
330
51
 75
         0
 76
         1
 98
        1
 10
0.0
 20
0.0
  0
LWPOLYLINE
  5
53
100
AcDbEntity
  8
ASSEMBLY_OUTLINES_TOP
100
AcDbPolyline
 90
        3
 70
         1
 10
122.0
 20
121.825483
 10
123.14
 20
122.395483
 10
123.14
 20
121.255483
  0
HATCH
  5
54
100
AcDbEntity
  8
ASSEMBLY_OUTLINES_TOP
100
AcDbHatch
 10
0.0
 20
0.0
 30
0.0
210
0.0
220
0.0
230
1.0
  2
SOLID
 70
         1
 71
         1
 91
        1
 92
        2
 72
         0
 73
         1
 93
        3
 10
122.0
 20
121.82548300000001
 10
123.14
 20
122.395483
 10
123.14
 20
121.255483
 97
        1
330
53
 75
         0
 76
         1
 98
        1
 10
0.0
 20
0.0
  0
LWPOLYLINE
  5
55
100
AcDbEntity
  8
ASSEMBLY_OUTLINES_TOP
100
AcDbPolyline
 90
        2
 70
         0
 43
0.2
 10
133.518371
 20
121.825483
 10
136.73
 20
121.825483
  0
LWPOLYLINE
  5
56
100
AcDbEntity
  8
ASSEMBLY_OUTLINES_TOP
100
AcDbPolyline
 90
        2
 70
         0
 43
0.2
 10
122.57
 20
121.825483
 10
125.781629
 20
121.825483
  0
LWPOLYLINE
  5
57
100
AcDbEntity
  8
ASSEMBLY_OUTLINES_TOP
100
AcDbPolyline
 90
        2
 70
         0
 43
0.2
 10
137.3
 20
117.21
 10
137.3
 20
122.335483
  0
LWPOLYLINE
  5
58
100
AcDbEntity
  8
ASSEMBLY_OUTLINES_TOP
100
AcDbPolyline
 90
        2
 70
         0
 43
0.2
 10
122.0
 20
113.71
 10
122.0
 20
122.335483
  0
LWPOLYLINE
  5
59
100
AcDbEntity
  8
ASSEMBLY_OUTLINES_TOP
100
AcDbPolyline
 90
        3
 70
         1
 10
141.384674
 20
2.7
 10
140.814674
 20
3.84
 10
141.954674
 20
3.84
  0
HATCH
  5
5A
100
AcDbEntity
  8
ASSEMBLY_OUTLINES_TOP
100
AcDbHatch
 10
0.0
 20
0.0
 30
0.0
210
0.0
220
0.0
230
1.0
  2
SOLID
 70
         1
 71
         1
 91
        1
 92
        2
 72
         0
 73
         1
 93
        3
 10
141.38467399999999
 20
2.7000000000000002
 10
140.814674
 20
3.8399999999999999
 10
141.95467400000001
 20
3.8399999999999999
 97
        1
330
59
 75
         0
 76
         1
 98
        1
 10
0.0
 20
0.0
  0
LWPOLYLINE
  5
5B
100
AcDbEntity
  8
ASSEMBLY_OUTLINES_TOP
100
AcDbPolyline
 90
        3
 70
         1
 10
141.384674
 20
23.7
 10
141.954673
 20
22.56
 10
140.814674
 20
22.56
  0
HATCH
  5
5C
100
AcDbEntity
  8
ASSEMBLY_OUTLINES_TOP
100
AcDbHatch
 10
0.0
 20
0.0
 30
0.0
210
0.0
220
0.0
230
1.0
  2
SOLID
 70
         1
 71
         1
 91
        1
 92
        2
 72
         0
 73
         1
 93
        3
 10
141.38467399999999
 20
23.699999999999999
 10
141.95467300000001
 20
22.559999999999999
 10
140.814674
 20
22.559999999999999
 97
        1
330
5B
 75
         0
 76
         1
 98
        1
 10
0.0
 20
0.0
  0
LWPOLYLINE
  5
5D
100
AcDbEntity
  8
ASSEMBLY_OUTLINES_TOP
100
AcDbPolyline
 90
        2
 70
         0
 43
0.2
 10
141.384674
 20
10.474438
 10
141.384674
 20
3.27
  0
LWPOLYLINE
  5
5E
100
AcDbEntity
  8
ASSEMBLY_OUTLINES_TOP
100
AcDbPolyline
 90
        2
 70
         0
 43
0.2
 10
141.384674
 20
23.13
 10
141.384674
 20
15.925561
  0
LWPOLYLINE
  5
5F
100
AcDbEntity
  8
ASSEMBLY_OUTLINES_TOP
100
AcDbPolyline
 90
        2
 70
         0
 43
0.2
 10
137.81
 20
2.7
 10
141.894674
 20
2.7
  0
LWPOLYLINE
  5
60
100
AcDbEntity
  8
ASSEMBLY_OUTLINES_TOP
100
AcDbPolyline
 90
        2
 70
         0
 43
0.2
 10
121.81
 20
23.7
 10
141.894674
 20
23.7
  0
LWPOLYLINE
  5
61
100
AcDbEntity
  8
ASSEMBLY_OUTLINES_TOP
100
AcDbPolyline
 90
        3
 70
         1
 10
137.3
 20
-0.469871
 10
136.16
 20
-1.039871
 10
136.16
 20
0.100129
  0
HATCH
  5
62
100
AcDbEntity
  8
ASSEMBLY_OUTLINES_TOP
100
AcDbHatch
 10
0.0
 20
0.0
 30
0.0
210
0.0
220
0.0
230
1.0
  2
SOLID
 70
         1
 71
         1
 91
        1
 92
        2
 72
         0
 73
         1
 93
        3
 10
137.30000000000001
 20
-0.469871
 10
136.16
 20
-1.039871
 10
136.16
 20
0.100129
 97
        1
330
61
 75
         0
 76
         1
 98
        1
 10
0.0
 20
0.0
  0
LWPOLYLINE
  5
63
100
AcDbEntity
  8
ASSEMBLY_OUTLINES_TOP
100
AcDbPolyline
 90
        3
 70
         1
 10
121.3
 20
-0.469871
 10
122.44
 20
0.100129
 10
122.44
 20
-1.039871
  0
HATCH
  5
64
100
AcDbEntity
  8
ASSEMBLY_OUTLINES_TOP
100
AcDbHatch
 10
0.0
 20
0.0
 30
0.0
210
0.0
220
0.0
230
1.0
  2
SOLID
 70
         1
 71
         1
 91
        1
 92
        2
 72
         0
 73
         1
 93
        3
 10
121.3
 20
-0.469871
 10
122.44
 20
0.100129
 10
122.44
 20
-1.039871
 97
        1
330
63
 75
         0
 76
         1
 98
        1
 10
0.0
 20
0.0
  0
LWPOLYLINE
  5
65
100
AcDbEntity
  8
ASSEMBLY_OUTLINES_TOP
100
AcDbPolyline
 90
        2
 70
         0
 43
0.2
 10
132.025562
 20
-0.46987
 10
136.73
 20
-0.46987
  0
LWPOLYLINE
  5
66
100
AcDbEntity
  8
ASSEMBLY_OUTLINES_TOP
100
AcDbPolyline
 90
        2
 70
         0
 43
0.2
 10
121.87
 20
-0.469871
 10
126.574438
 20
-0.469871
  0
LWPOLYLINE
  5
67
100
AcDbEntity
  8
ASSEMBLY_OUTLINES_TOP
100
AcDbPolyline
 90
        2
 70
         0
 43
0.2
 10
137.3
 20
2.19
 10
137.3
 20
-0.979871
  0
LWPOLYLINE
  5
68
100
AcDbEntity
  8
ASSEMBLY_OUTLINES_TOP
100
AcDbPolyline
 90
        2
 70
         0
 43
0.2
 10
121.3
 20
23.19
 10
121.3
 20
-0.979871
  0
LWPOLYLINE
  5
69
100
AcDbEntity
  8
ASSEMBLY_OUTLINES_TOP
100
AcDbPolyline
 90
        2
 70
         0
 43
0.2
 10
49.79
 20
116.7
 10
41.39
 20
116.7
  0
LWPOLYLINE
  5
6A
100
AcDbEntity
  8
ASSEMBLY_OUTLINES_TOP
100
AcDbPolyline
 90
        2
 70
         0
 43
0.2
 10
49.79
 20
2.7
 10
41.39
 20
2.7
  0
LWPOLYLINE
  5
6B
100
AcDbEntity
  8
ASSEMBLY_OUTLINES_TOP
100
AcDbPolyline
 90
        2
 70
         0
 43
0.2
 10
41.9
 20
116.13
 10
41.9
 20
63.032303
  0
LWPOLYLINE
  5
6C
100
AcDbEntity
  8
ASSEMBLY_OUTLINES_TOP
100
AcDbPolyline
 90
        2
 70
         0
 43
0.2
 10
41.9
 20
56.367696
 10
41.9
 20
3.27
  0
LWPOLYLINE
  5
6D
100
AcDbEntity
  8
ASSEMBLY_OUTLINES_TOP
100
AcDbPolyline
 90
        3
 70
         1
 10
41.9
 20
116.7
 10
42.469999
 20
115.56
 10
41.33
 20
115.56
  0
HATCH
  5
6E
100
AcDbEntity
  8
ASSEMBLY_OUTLINES_TOP
100
AcDbHatch
 10
0.0
 20
0.0
 30
0.0
210
0.0
220
0.0
230
1.0
  2
SOLID
 70
         1
 71
         1
 91
        1
 92
        2
 72
         0
 73
         1
 93
        3
 10
41.899999999999999
 20
116.7
 10
42.469999000000001
 20
115.56
 10
41.329999999999998
 20
115.56
 97
        1
330
6D
 75
         0
 76
         1
 98
        1
 10
0.0
 20
0.0
  0
LWPOLYLINE
  5
6F
100
AcDbEntity
  8
ASSEMBLY_OUTLINES_TOP
100
AcDbPolyline
 90
        3
 70
         1
 10
41.9
 20
2.7
 10
41.33
 20
3.84
 10
42.47
 20
3.84
  0
HATCH
  5
70
100
AcDbEntity
  8
ASSEMBLY_OUTLINES_TOP
100
AcDbHatch
 10
0.0
 20
0.0
 30
0.0
210
0.0
220
0.0
230
1.0
  2
SOLID
 70
         1
 71
         1
 91
        1
 92
        2
 72
         0
 73
         1
 93
        3
 10
41.899999999999999
 20
2.7000000000000002
 10
41.329999999999998
 20
3.8399999999999999
 10
42.469999999999999
 20
3.8399999999999999
 97
        1
330
6F
 75
         0
 76
         1
 98
        1
 10
0.0
 20
0.0
  0
LWPOLYLINE
  5
71
100
AcDbEntity
  8
ASSEMBLY_OUTLINES_TOP
100
AcDbPolyline
 90
        2
 70
         0
 43
0.2
 10
50.3
 20
2.19
 10
50.3
 20
-6.621479
  0
LWPOLYLINE
  5
72
100
AcDbEntity
  8
ASSEMBLY_OUTLINES_TOP
100
AcDbPolyline
 90
        2
 70
         0
 43
0.2
 10
137.3
 20
2.19
 10
137.3
 20
-6.621479
  0
LWPOLYLINE
  5
73
100
AcDbEntity
  8
ASSEMBLY_OUTLINES_TOP
100
AcDbPolyline
 90
        2
 70
         0
 43
0.2
 10
50.87
 20
-6.111479
 10
91.057103
 20
-6.111479
  0
LWPOLYLINE
  5
74
100
AcDbEntity
  8
ASSEMBLY_OUTLINES_TOP
100
AcDbPolyline
 90
        2
 70
         0
 43
0.2
 10
96.542897
 20
-6.111479
 10
136.73
 20
-6.111479
  0
LWPOLYLINE
  5
75
100
AcDbEntity
  8
ASSEMBLY_OUTLINES_TOP
100
AcDbPolyline
 90
        3
 70
         1
 10
50.3
 20
-6.111479
 10
51.44
 20
-5.541479
 10
51.44
 20
-6.681479
  0
HATCH
  5
76
100
AcDbEntity
  8
ASSEMBLY_OUTLINES_TOP
100
AcDbHatch
 10
0.0
 20
0.0
 30
0.0
210
0.0
220
0.0
230
1.0
  2
SOLID
 70
         1
 71
         1
 91
        1
 92
        2
 72
         0
 73
         1
 93
        3
 10
50.299999999999997
 20
-6.1114790000000001
 10
51.439999999999998
 20
-5.5414789999999998
 10
51.439999999999998
 20
-6.6814790000000004
 97
        1
330
75
 75
         0
 76
         1
 98
        1
 10
0.0
 20
0.0
  0
LWPOLYLINE
  5
77
100
AcDbEntity
  8
ASSEMBLY_OUTLINES_TOP
100
AcDbPolyline
 90
        3
 70
         1
 10
137.3
 20
-6.111479
 10
136.16
 20
-6.681479
 10
136.16
 20
-5.541479
  0
HATCH
  5
78
100
AcDbEntity
  8
ASSEMBLY_OUTLINES_TOP
100
AcDbHatch
 10
0.0
 20
0.0
 30
0.0
210
0.0
220
0.0
230
1.0
  2
SOLID
 70
         1
 71
         1
 91
        1
 92
        2
 72
         0
 73
         1
 93
        3
 10
137.30000000000001
 20
-6.1114790000000001
 10
136.16
 20
-6.6814790000000004
 10
136.16
 20
-5.5414789999999998
 97
        1
330
77
 75
         0
 76
         1
 98
        1
 10
0.0
 20
0.0
  0
TEXT
  5
7A
100
AcDbEntity
  8
ASSEMBLY_OUTLINES_TOP
100
AcDbText
 10
47.747533
 20
10.325554
 30
0.0
 40
1.27
  1
4.5mm
 50
90.0
  7
VERIBEST_GERBER_0
 72
         1
 11
47.112533
 21
13.211629
 31
0.0
100
AcDbText
 73
         2
  0
TEXT
  5
7B
100
AcDbEntity
  8
ASSEMBLY_OUTLINES_TOP
100
AcDbText
 10
53.086075
 20
-2.45354
 30
0.0
 40
1.27
  1
12.5mm
  7
VERIBEST_GERBER_0
 72
         1
 11
56.55
 21
-1.81854
 31
0.0
100
AcDbText
 73
         2
  0
TEXT
  5
7C
100
AcDbEntity
  8
ASSEMBLY_OUTLINES_TOP
100
AcDbText
 10
53.924465
 20
119.416436
 30
0.0
 40
1.27
  1
12mm
  7
VERIBEST_GERBER_0
 72
         1
 11
56.3
 21
120.051436
 31
0.0
100
AcDbText
 73
         2
  0
TEXT
  5
7D
100
AcDbEntity
  8
ASSEMBLY_OUTLINES_TOP
100
AcDbText
 10
46.917864
 20
108.324466
 30
0.0
 40
1.27
  1
12mm
 50
90.0
  7
VERIBEST_GERBER_0
 72
         1
 11
46.282864
 21
110.700001
 31
0.0
100
AcDbText
 73
         2
  0
TEXT
  5
7E
100
AcDbEntity
  8
ASSEMBLY_OUTLINES_TOP
100
AcDbText
 10
141.548496
 20
119.825554
 30
0.0
 40
1.27
  1
3.5mm
 50
90.0
  7
VERIBEST_GERBER_0
 72
         1
 11
140.913496
 21
122.711629
 31
0.0
100
AcDbText
 73
         2
  0
TEXT
  5
7F
100
AcDbEntity
  8
ASSEMBLY_OUTLINES_TOP
100
AcDbText
 10
126.186075
 20
121.190482
 30
0.0
 40
1.27
  1
15.3mm
  7
VERIBEST_GERBER_0
 72
         1
 11
129.65
 21
121.825482
 31
0.0
100
AcDbText
 73
         2
  0
TEXT
  5
80
100
AcDbEntity
  8
ASSEMBLY_OUTLINES_TOP
100
AcDbText
 10
142.019674
 20
10.824466
 30
0.0
 40
1.27
  1
21mm
 50
90.0
  7
VERIBEST_GERBER_0
 72
         1
 11
141.384674
 21
13.200001
 31
0.0
100
AcDbText
 73
         2
  0
TEXT
  5
81
100
AcDbEntity
  8
ASSEMBLY_OUTLINES_TOP
100
AcDbText
 10
126.924465
 20
-1.10487
 30
0.0
 40
1.27
  1
16mm
  7
VERIBEST_GERBER_0
 72
         1
 11
129.3
 21
-0.46987
 31
0.0
100
AcDbText
 73
         2
  0
TEXT
  5
82
100
AcDbEntity
  8
ASSEMBLY_OUTLINES_TOP
100
AcDbText
 10
42.535
 20
56.746616
 30
0.0
 40
1.27
  1
114mm
 50
90.0
  7
VERIBEST_GERBER_0
 72
         1
 11
41.9
 21
59.700001
 31
0.0
100
AcDbText
 73
         2
  0
TEXT
  5
83
100
AcDbEntity
  8
ASSEMBLY_OUTLINES_TOP
100
AcDbText
 10
91.407955
 20
-6.746478
 30
0.0
 40
1.27
  1
87mm
  7
VERIBEST_GERBER_0
 72
         1
 11
93.8
 21
-6.111478
 31
0.0
100
AcDbText
 73
         2
  0
LWPOLYLINE
  5
84
100
AcDbEntity
  8
ASSEMBLY_OUTLINES_TOP
100
AcDbPolyline
 90
        4
 70
         1
 10
119.33
 20
83.73
 10
119.33
 20
88.81
 10
121.87
 20
88.81
 10
121.87
 20
83.73
  0
LWPOLYLINE
  5
85
100
AcDbEntity
  8
ASSEMBLY_OUTLINES_TOP
100
AcDbPolyline
 90
        4
 70
         1
 10
114.63
 20
59.23
 10
114.63
 20
64.31
 10
117.17
 20
64.31
 10
117.17
 20
59.23
  0
LWPOLYLINE
  5
86
100
AcDbEntity
  8
ASSEMBLY_OUTLINES_TOP
100
AcDbPolyline
 90
        4
 70
         1
 10
137.35
 20
28.5
 10
137.35
 20
44.5
 10
143.25
 20
44.5
 10
143.25
 20
28.5
  0
LWPOLYLINE
  5
87
100
AcDbEntity
  8
ASSEMBLY_OUTLINES_TOP
100
AcDbPolyline
 90
        4
 70
         1
 10
124.95
 20
21.1
 10
124.95
 20
51.9
 10
137.35
 20
51.9
 10
137.35
 20
21.1
  0
LWPOLYLINE
  5
88
100
AcDbEntity
  8
ASSEMBLY_OUTLINES_TOP
100
AcDbPolyline
 90
        4
 70
         1
 43
0.1
 10
66.85
 20
70.45
 10
66.85
 20
71.75
 10
69.75
 20
71.75
 10
69.75
 20
70.45
  0
LWPOLYLINE
  5
89
100
AcDbEntity
  8
ASSEMBLY_OUTLINES_TOP
100
AcDbPolyline
 90
        4
 70
         1
 43
0.1
 10
109.4
 20
73.85
 10
109.4
 20
75.15
 10
112.2
 20
75.15
 10
112.2
 20
73.85
  0
LWPOLYLINE
  5
8A
100
AcDbEntity
  8
ASSEMBLY_OUTLINES_TOP
100
AcDbPolyline
 90
        4
 70
         1
 43
0.1
 10
83.4
 20
65.15
 10
83.4
 20
66.45
 10
86.2
 20
66.45
 10
86.2
 20
65.15
  0
LWPOLYLINE
  5
8B
100
AcDbEntity
  8
ASSEMBLY_OUTLINES_TOP
100
AcDbPolyline
 90
        4
 70
         1
 43
0.1
 10
63.45
 20
38.25
 10
63.45
 20
39.55
 10
66.35
 20
39.55
 10
66.35
 20
38.25
  0
LWPOLYLINE
  5
8C
100
AcDbEntity
  8
ASSEMBLY_OUTLINES_TOP
100
AcDbPolyline
 90
        4
 70
         1
 43
0.1
 10
110.1
 20
93.8
 10
110.1
 20
97.6
 10
115.7
 20
97.6
 10
115.7
 20
93.8
  0
LWPOLYLINE
  5
8D
100
AcDbEntity
  8
ASSEMBLY_OUTLINES_TOP
100
AcDbPolyline
 90
        2
 70
         0
 43
0.1
 10
110.2
 20
93.8
 10
110.2
 20
97.6
  0
LWPOLYLINE
  5
8E
100
AcDbEntity
  8
ASSEMBLY_OUTLINES_TOP
100
AcDbPolyline
 90
        2
 70
         0
 43
0.1
 10
110.3
 20
93.8
 10
110.3
 20
97.6
  0
LWPOLYLINE
  5
8F
100
AcDbEntity
  8
ASSEMBLY_OUTLINES_TOP
100
AcDbPolyline
 90
        2
 70
         0
 43
0.1
 10
110.4
 20
93.8
 10
110.4
 20
97.6
  0
LWPOLYLINE
  5
90
100
AcDbEntity
  8
ASSEMBLY_OUTLINES_TOP
100
AcDbPolyline
 90
        2
 70
         0
 43
0.1
 10
110.5
 20
93.8
 10
110.5
 20
97.6
  0
LWPOLYLINE
  5
91
100
AcDbEntity
  8
ASSEMBLY_OUTLINES_TOP
100
AcDbPolyline
 90
        2
 70
         0
 43
0.1
 10
110.6
 20
93.8
 10
110.6
 20
97.6
  0
LWPOLYLINE
  5
92
100
AcDbEntity
  8
ASSEMBLY_OUTLINES_TOP
100
AcDbPolyline
 90
        2
 70
         0
 43
0.1
 10
110.7
 20
93.8
 10
110.7
 20
97.6
  0
LWPOLYLINE
  5
93
100
AcDbEntity
  8
ASSEMBLY_OUTLINES_TOP
100
AcDbPolyline
 90
        2
 70
         0
 43
0.1
 10
110.8
 20
93.8
 10
110.8
 20
97.6
  0
LWPOLYLINE
  5
94
100
AcDbEntity
  8
ASSEMBLY_OUTLINES_TOP
100
AcDbPolyline
 90
        2
 70
         0
 43
0.1
 10
110.9
 20
93.8
 10
110.9
 20
97.6
  0
LWPOLYLINE
  5
95
100
AcDbEntity
  8
ASSEMBLY_OUTLINES_TOP
100
AcDbPolyline
 90
        4
 70
         1
 43
0.1
 10
58.3
 20
57.0
 10
58.3
 20
62.4
 10
63.7
 20
62.4
 10
63.7
 20
57.0
  0
LWPOLYLINE
  5
96
100
AcDbEntity
  8
ASSEMBLY_OUTLINES_TOP
100
AcDbPolyline
 90
        2
 70
         1
 43
0.1
 10
62.2
 20
58.0
 42
-1.0
 10
63.2
 20
58.0
 42
-1.0
  0
LWPOLYLINE
  5
97
100
AcDbEntity
  8
ASSEMBLY_OUTLINES_TOP
100
AcDbPolyline
 90
        4
 70
         1
 43
0.1
 10
72.15
 20
49.25
 10
72.15
 20
50.55
 10
75.05
 20
50.55
 10
75.05
 20
49.25
  0
LWPOLYLINE
  5
98
100
AcDbEntity
  8
ASSEMBLY_OUTLINES_TOP
100
AcDbPolyline
 90
        4
 70
         1
 10
61.1
 20
109.375
 10
61.1
 20
114.455
 10
111.9
 20
114.455
 10
111.9
 20
109.375
  0
CIRCLE
  5
99
100
AcDbEntity
  8
ASSEMBLY_OUTLINES_TOP
100
AcDbCircle
 10
62.368225
 20
110.63456
 30
0.0
 40
0.45
  0
HATCH
  5
9A
100
AcDbEntity
  8
ASSEMBLY_OUTLINES_TOP
100
AcDbHatch
 10
0.0
 20
0.0
 30
0.0
210
0.0
220
0.0
230
1.0
  2
SOLID
 70
         1
 71
         1
 91
        1
 92
        1
 93
        1
 72
         2
 10
62.368225000000002
 20
110.63455999999999
 40
0.45
 50
0.0
 51
360.0
 73
         1
 97
        1
330
99
 75
         0
 76
         1
 98
        1
 10
0.0
 20
0.0
  0
CIRCLE
  5
9B
100
AcDbEntity
  8
ASSEMBLY_OUTLINES_TOP
100
AcDbCircle
 10
64.908225
 20
110.63456
 30
0.0
 40
0.45
  0
HATCH
  5
9C
100
AcDbEntity
  8
ASSEMBLY_OUTLINES_TOP
100
AcDbHatch
 10
0.0
 20
0.0
 30
0.0
210
0.0
220
0.0
230
1.0
  2
SOLID
 70
         1
 71
         1
 91
        1
 92
        1
 93
        1
 72
         2
 10
64.908225000000002
 20
110.63455999999999
 40
0.45
 50
0.0
 51
360.0
 73
         1
 97
        1
330
9B
 75
         0
 76
         1
 98
        1
 10
0.0
 20
0.0
  0
CIRCLE
  5
9D
100
AcDbEntity
  8
ASSEMBLY_OUTLINES_TOP
100
AcDbCircle
 10
67.448225
 20
110.63456
 30
0.0
 40
0.45
  0
HATCH
  5
9E
100
AcDbEntity
  8
ASSEMBLY_OUTLINES_TOP
100
AcDbHatch
 10
0.0
 20
0.0
 30
0.0
210
0.0
220
0.0
230
1.0
  2
SOLID
 70
         1
 71
         1
 91
        1
 92
        1
 93
        1
 72
         2
 10
67.448224999999994
 20
110.63455999999999
 40
0.45
 50
0.0
 51
360.0
 73
         1
 97
        1
330
9D
 75
         0
 76
         1
 98
        1
 10
0.0
 20
0.0
  0
CIRCLE
  5
9F
100
AcDbEntity
  8
ASSEMBLY_OUTLINES_TOP
100
AcDbCircle
 10
69.988225
 20
110.63456
 30
0.0
 40
0.45
  0
HATCH
  5
A0
100
AcDbEntity
  8
ASSEMBLY_OUTLINES_TOP
100
AcDbHatch
 10
0.0
 20
0.0
 30
0.0
210
0.0
220
0.0
230
1.0
  2
SOLID
 70
         1
 71
         1
 91
        1
 92
        1
 93
        1
 72
         2
 10
69.988225
 20
110.63455999999999
 40
0.45
 50
0.0
 51
360.0
 73
         1
 97
        1
330
9F
 75
         0
 76
         1
 98
        1
 10
0.0
 20
0.0
  0
CIRCLE
  5
A1
100
AcDbEntity
  8
ASSEMBLY_OUTLINES_TOP
100
AcDbCircle
 10
72.528225
 20
110.63456
 30
0.0
 40
0.45
  0
HATCH
  5
A2
100
AcDbEntity
  8
ASSEMBLY_OUTLINES_TOP
100
AcDbHatch
 10
0.0
 20
0.0
 30
0.0
210
0.0
220
0.0
230
1.0
  2
SOLID
 70
         1
 71
         1
 91
        1
 92
        1
 93
        1
 72
         2
 10
72.528225000000006
 20
110.63455999999999
 40
0.45
 50
0.0
 51
360.0
 73
         1
 97
        1
330
A1
 75
         0
 76
         1
 98
        1
 10
0.0
 20
0.0
  0
CIRCLE
  5
A3
100
AcDbEntity
  8
ASSEMBLY_OUTLINES_TOP
100
AcDbCircle
 10
75.068225
 20
110.63456
 30
0.0
 40
0.45
  0
HATCH
  5
A4
100
AcDbEntity
  8
ASSEMBLY_OUTLINES_TOP
100
AcDbHatch
 10
0.0
 20
0.0
 30
0.0
210
0.0
220
0.0
230
1.0
  2
SOLID
 70
         1
 71
         1
 91
        1
 92
        1
 93
        1
 72
         2
 10
75.068224999999998
 20
110.63455999999999
 40
0.45
 50
0.0
 51
360.0
 73
         1
 97
        1
330
A3
 75
         0
 76
         1
 98
        1
 10
0.0
 20
0.0
  0
CIRCLE
  5
A5
100
AcDbEntity
  8
ASSEMBLY_OUTLINES_TOP
100
AcDbCircle
 10
77.608225
 20
110.63456
 30
0.0
 40
0.45
  0
HATCH
  5
A6
100
AcDbEntity
  8
ASSEMBLY_OUTLINES_TOP
100
AcDbHatch
 10
0.0
 20
0.0
 30
0.0
210
0.0
220
0.0
230
1.0
  2
SOLID
 70
         1
 71
         1
 91
        1
 92
        1
 93
        1
 72
         2
 10
77.608225000000004
 20
110.63455999999999
 40
0.45
 50
0.0
 51
360.0
 73
         1
 97
        1
330
A5
 75
         0
 76
         1
 98
        1
 10
0.0
 20
0.0
  0
CIRCLE
  5
A7
100
AcDbEntity
  8
ASSEMBLY_OUTLINES_TOP
100
AcDbCircle
 10
80.148225
 20
110.63456
 30
0.0
 40
0.45
  0
HATCH
  5
A8
100
AcDbEntity
  8
ASSEMBLY_OUTLINES_TOP
100
AcDbHatch
 10
0.0
 20
0.0
 30
0.0
210
0.0
220
0.0
230
1.0
  2
SOLID
 70
         1
 71
         1
 91
        1
 92
        1
 93
        1
 72
         2
 10
80.148224999999996
 20
110.63455999999999
 40
0.45
 50
0.0
 51
360.0
 73
         1
 97
        1
330
A7
 75
         0
 76
         1
 98
        1
 10
0.0
 20
0.0
  0
CIRCLE
  5
A9
100
AcDbEntity
  8
ASSEMBLY_OUTLINES_TOP
100
AcDbCircle
 10
82.688225
 20
110.63456
 30
0.0
 40
0.45
  0
HATCH
  5
AA
100
AcDbEntity
  8
ASSEMBLY_OUTLINES_TOP
100
AcDbHatch
 10
0.0
 20
0.0
 30
0.0
210
0.0
220
0.0
230
1.0
  2
SOLID
 70
         1
 71
         1
 91
        1
 92
        1
 93
        1
 72
         2
 10
82.688225000000003
 20
110.63455999999999
 40
0.45
 50
0.0
 51
360.0
 73
         1
 97
        1
330
A9
 75
         0
 76
         1
 98
        1
 10
0.0
 20
0.0
  0
CIRCLE
  5
AB
100
AcDbEntity
  8
ASSEMBLY_OUTLINES_TOP
100
AcDbCircle
 10
85.228225
 20
110.63456
 30
0.0
 40
0.45
  0
HATCH
  5
AC
100
AcDbEntity
  8
ASSEMBLY_OUTLINES_TOP
100
AcDbHatch
 10
0.0
 20
0.0
 30
0.0
210
0.0
220
0.0
230
1.0
  2
SOLID
 70
         1
 71
         1
 91
        1
 92
        1
 93
        1
 72
         2
 10
85.228224999999995
 20
110.63455999999999
 40
0.45
 50
0.0
 51
360.0
 73
         1
 97
        1
330
AB
 75
         0
 76
         1
 98
        1
 10
0.0
 20
0.0
  0
CIRCLE
  5
AD
100
AcDbEntity
  8
ASSEMBLY_OUTLINES_TOP
100
AcDbCircle
 10
87.771774
 20
110.62544
 30
0.0
 40
0.45
  0
HATCH
  5
AE
100
AcDbEntity
  8
ASSEMBLY_OUTLINES_TOP
100
AcDbHatch
 10
0.0
 20
0.0
 30
0.0
210
0.0
220
0.0
230
1.0
  2
SOLID
 70
         1
 71
         1
 91
        1
 92
        1
 93
        1
 72
         2
 10
87.771773999999994
 20
110.62544
 40
0.45
 50
0.0
 51
360.0
 73
         1
 97
        1
330
AD
 75
         0
 76
         1
 98
        1
 10
0.0
 20
0.0
  0
CIRCLE
  5
AF
100
AcDbEntity
  8
ASSEMBLY_OUTLINES_TOP
100
AcDbCircle
 10
90.311774
 20
110.62544
 30
0.0
 40
0.45
  0
HATCH
  5
B0
100
AcDbEntity
  8
ASSEMBLY_OUTLINES_TOP
100
AcDbHatch
 10
0.0
 20
0.0
 30
0.0
210
0.0
220
0.0
230
1.0
  2
SOLID
 70
         1
 71
         1
 91
        1
 92
        1
 93
        1
 72
         2
 10
90.311774
 20
110.62544
 40
0.45
 50
0.0
 51
360.0
 73
         1
 97
        1
330
AF
 75
         0
 76
         1
 98
        1
 10
0.0
 20
0.0
  0
CIRCLE
  5
B1
100
AcDbEntity
  8
ASSEMBLY_OUTLINES_TOP
100
AcDbCircle
 10
92.851774
 20
110.62544
 30
0.0
 40
0.45
  0
HATCH
  5
B2
100
AcDbEntity
  8
ASSEMBLY_OUTLINES_TOP
100
AcDbHatch
 10
0.0
 20
0.0
 30
0.0
210
0.0
220
0.0
230
1.0
  2
SOLID
 70
         1
 71
         1
 91
        1
 92
        1
 93
        1
 72
         2
 10
92.851774000000006
 20
110.62544
 40
0.45
 50
0.0
 51
360.0
 73
         1
 97
        1
330
B1
 75
         0
 76
         1
 98
        1
 10
0.0
 20
0.0
  0
CIRCLE
  5
B3
100
AcDbEntity
  8
ASSEMBLY_OUTLINES_TOP
100
AcDbCircle
 10
95.391774
 20
110.62544
 30
0.0
 40
0.45
  0
HATCH
  5
B4
100
AcDbEntity
  8
ASSEMBLY_OUTLINES_TOP
100
AcDbHatch
 10
0.0
 20
0.0
 30
0.0
210
0.0
220
0.0
230
1.0
  2
SOLID
 70
         1
 71
         1
 91
        1
 92
        1
 93
        1
 72
         2
 10
95.391773999999998
 20
110.62544
 40
0.45
 50
0.0
 51
360.0
 73
         1
 97
        1
330
B3
 75
         0
 76
         1
 98
        1
 10
0.0
 20
0.0
  0
CIRCLE
  5
B5
100
AcDbEntity
  8
ASSEMBLY_OUTLINES_TOP
100
AcDbCircle
 10
97.931774
 20
110.62544
 30
0.0
 40
0.45
  0
HATCH
  5
B6
100
AcDbEntity
  8
ASSEMBLY_OUTLINES_TOP
100
AcDbHatch
 10
0.0
 20
0.0
 30
0.0
210
0.0
220
0.0
230
1.0
  2
SOLID
 70
         1
 71
         1
 91
        1
 92
        1
 93
        1
 72
         2
 10
97.931774000000004
 20
110.62544
 40
0.45
 50
0.0
 51
360.0
 73
         1
 97
        1
330
B5
 75
         0
 76
         1
 98
        1
 10
0.0
 20
0.0
  0
CIRCLE
  5
B7
100
AcDbEntity
  8
ASSEMBLY_OUTLINES_TOP
100
AcDbCircle
 10
100.471774
 20
110.62544
 30
0.0
 40
0.45
  0
HATCH
  5
B8
100
AcDbEntity
  8
ASSEMBLY_OUTLINES_TOP
100
AcDbHatch
 10
0.0
 20
0.0
 30
0.0
210
0.0
220
0.0
230
1.0
  2
SOLID
 70
         1
 71
         1
 91
        1
 92
        1
 93
        1
 72
         2
 10
100.471774
 20
110.62544
 40
0.45
 50
0.0
 51
360.0
 73
         1
 97
        1
330
B7
 75
         0
 76
         1
 98
        1
 10
0.0
 20
0.0
  0
CIRCLE
  5
B9
100
AcDbEntity
  8
ASSEMBLY_OUTLINES_TOP
100
AcDbCircle
 10
103.011774
 20
110.62544
 30
0.0
 40
0.45
  0
HATCH
  5
BA
100
AcDbEntity
  8
ASSEMBLY_OUTLINES_TOP
100
AcDbHatch
 10
0.0
 20
0.0
 30
0.0
210
0.0
220
0.0
230
1.0
  2
SOLID
 70
         1
 71
         1
 91
        1
 92
        1
 93
        1
 72
         2
 10
103.011774
 20
110.62544
 40
0.45
 50
0.0
 51
360.0
 73
         1
 97
        1
330
B9
 75
         0
 76
         1
 98
        1
 10
0.0
 20
0.0
  0
CIRCLE
  5
BB
100
AcDbEntity
  8
ASSEMBLY_OUTLINES_TOP
100
AcDbCircle
 10
105.551774
 20
110.62544
 30
0.0
 40
0.45
  0
HATCH
  5
BC
100
AcDbEntity
  8
ASSEMBLY_OUTLINES_TOP
100
AcDbHatch
 10
0.0
 20
0.0
 30
0.0
210
0.0
220
0.0
230
1.0
  2
SOLID
 70
         1
 71
         1
 91
        1
 92
        1
 93
        1
 72
         2
 10
105.55177399999999
 20
110.62544
 40
0.45
 50
0.0
 51
360.0
 73
         1
 97
        1
330
BB
 75
         0
 76
         1
 98
        1
 10
0.0
 20
0.0
  0
CIRCLE
  5
BD
100
AcDbEntity
  8
ASSEMBLY_OUTLINES_TOP
100
AcDbCircle
 10
108.091774
 20
110.62544
 30
0.0
 40
0.45
  0
HATCH
  5
BE
100
AcDbEntity
  8
ASSEMBLY_OUTLINES_TOP
100
AcDbHatch
 10
0.0
 20
0.0
 30
0.0
210
0.0
220
0.0
230
1.0
  2
SOLID
 70
         1
 71
         1
 91
        1
 92
        1
 93
        1
 72
         2
 10
108.091774
 20
110.62544
 40
0.45
 50
0.0
 51
360.0
 73
         1
 97
        1
330
BD
 75
         0
 76
         1
 98
        1
 10
0.0
 20
0.0
  0
CIRCLE
  5
BF
100
AcDbEntity
  8
ASSEMBLY_OUTLINES_TOP
100
AcDbCircle
 10
110.631774
 20
110.62544
 30
0.0
 40
0.45
  0
HATCH
  5
C0
100
AcDbEntity
  8
ASSEMBLY_OUTLINES_TOP
100
AcDbHatch
 10
0.0
 20
0.0
 30
0.0
210
0.0
220
0.0
230
1.0
  2
SOLID
 70
         1
 71
         1
 91
        1
 92
        1
 93
        1
 72
         2
 10
110.63177399999999
 20
110.62544
 40
0.45
 50
0.0
 51
360.0
 73
         1
 97
        1
330
BF
 75
         0
 76
         1
 98
        1
 10
0.0
 20
0.0
  0
CIRCLE
  5
C1
100
AcDbEntity
  8
ASSEMBLY_OUTLINES_TOP
100
AcDbCircle
 10
62.37
 20
113.17
 30
0.0
 40
0.45
  0
HATCH
  5
C2
100
AcDbEntity
  8
ASSEMBLY_OUTLINES_TOP
100
AcDbHatch
 10
0.0
 20
0.0
 30
0.0
210
0.0
220
0.0
230
1.0
  2
SOLID
 70
         1
 71
         1
 91
        1
 92
        1
 93
        1
 72
         2
 10
62.369999999999997
 20
113.17
 40
0.45
 50
0.0
 51
360.0
 73
         1
 97
        1
330
C1
 75
         0
 76
         1
 98
        1
 10
0.0
 20
0.0
  0
CIRCLE
  5
C3
100
AcDbEntity
  8
ASSEMBLY_OUTLINES_TOP
100
AcDbCircle
 10
64.91
 20
113.17
 30
0.0
 40
0.45
  0
HATCH
  5
C4
100
AcDbEntity
  8
ASSEMBLY_OUTLINES_TOP
100
AcDbHatch
 10
0.0
 20
0.0
 30
0.0
210
0.0
220
0.0
230
1.0
  2
SOLID
 70
         1
 71
         1
 91
        1
 92
        1
 93
        1
 72
         2
 10
64.909999999999997
 20
113.17
 40
0.45
 50
0.0
 51
360.0
 73
         1
 97
        1
330
C3
 75
         0
 76
         1
 98
        1
 10
0.0
 20
0.0
  0
CIRCLE
  5
C5
100
AcDbEntity
  8
ASSEMBLY_OUTLINES_TOP
100
AcDbCircle
 10
67.45
 20
113.17
 30
0.0
 40
0.45
  0
HATCH
  5
C6
100
AcDbEntity
  8
ASSEMBLY_OUTLINES_TOP
100
AcDbHatch
 10
0.0
 20
0.0
 30
0.0
210
0.0
220
0.0
230
1.0
  2
SOLID
 70
         1
 71
         1
 91
        1
 92
        1
 93
        1
 72
         2
 10
67.450000000000003
 20
113.17
 40
0.45
 50
0.0
 51
360.0
 73
         1
 97
        1
330
C5
 75
         0
 76
         1
 98
        1
 10
0.0
 20
0.0
  0
CIRCLE
  5
C7
100
AcDbEntity
  8
ASSEMBLY_OUTLINES_TOP
100
AcDbCircle
 10
69.99
 20
113.17
 30
0.0
 40
0.45
  0
HATCH
  5
C8
100
AcDbEntity
  8
ASSEMBLY_OUTLINES_TOP
100
AcDbHatch
 10
0.0
 20
0.0
 30
0.0
210
0.0
220
0.0
230
1.0
  2
SOLID
 70
         1
 71
         1
 91
        1
 92
        1
 93
        1
 72
         2
 10
69.989999999999995
 20
113.17
 40
0.45
 50
0.0
 51
360.0
 73
         1
 97
        1
330
C7
 75
         0
 76
         1
 98
        1
 10
0.0
 20
0.0
  0
CIRCLE
  5
C9
100
AcDbEntity
  8
ASSEMBLY_OUTLINES_TOP
100
AcDbCircle
 10
72.53
 20
113.17
 30
0.0
 40
0.45
  0
HATCH
  5
CA
100
AcDbEntity
  8
ASSEMBLY_OUTLINES_TOP
100
AcDbHatch
 10
0.0
 20
0.0
 30
0.0
210
0.0
220
0.0
230
1.0
  2
SOLID
 70
         1
 71
         1
 91
        1
 92
        1
 93
        1
 72
         2
 10
72.530000000000001
 20
113.17
 40
0.45
 50
0.0
 51
360.0
 73
         1
 97
        1
330
C9
 75
         0
 76
         1
 98
        1
 10
0.0
 20
0.0
  0
CIRCLE
  5
CB
100
AcDbEntity
  8
ASSEMBLY_OUTLINES_TOP
100
AcDbCircle
 10
75.07
 20
113.17
 30
0.0
 40
0.45
  0
HATCH
  5
CC
100
AcDbEntity
  8
ASSEMBLY_OUTLINES_TOP
100
AcDbHatch
 10
0.0
 20
0.0
 30
0.0
210
0.0
220
0.0
230
1.0
  2
SOLID
 70
         1
 71
         1
 91
        1
 92
        1
 93
        1
 72
         2
 10
75.069999999999993
 20
113.17
 40
0.45
 50
0.0
 51
360.0
 73
         1
 97
        1
330
CB
 75
         0
 76
         1
 98
        1
 10
0.0
 20
0.0
  0
CIRCLE
  5
CD
100
AcDbEntity
  8
ASSEMBLY_OUTLINES_TOP
100
AcDbCircle
 10
77.61
 20
113.17
 30
0.0
 40
0.45
  0
HATCH
  5
CE
100
AcDbEntity
  8
ASSEMBLY_OUTLINES_TOP
100
AcDbHatch
 10
0.0
 20
0.0
 30
0.0
210
0.0
220
0.0
230
1.0
  2
SOLID
 70
         1
 71
         1
 91
        1
 92
        1
 93
        1
 72
         2
 10
77.609999999999999
 20
113.17
 40
0.45
 50
0.0
 51
360.0
 73
         1
 97
        1
330
CD
 75
         0
 76
         1
 98
        1
 10
0.0
 20
0.0
  0
CIRCLE
  5
CF
100
AcDbEntity
  8
ASSEMBLY_OUTLINES_TOP
100
AcDbCircle
 10
80.15
 20
113.17
 30
0.0
 40
0.45
  0
HATCH
  5
D0
100
AcDbEntity
  8
ASSEMBLY_OUTLINES_TOP
100
AcDbHatch
 10
0.0
 20
0.0
 30
0.0
210
0.0
220
0.0
230
1.0
  2
SOLID
 70
         1
 71
         1
 91
        1
 92
        1
 93
        1
 72
         2
 10
80.150000000000006
 20
113.17
 40
0.45
 50
0.0
 51
360.0
 73
         1
 97
        1
330
CF
 75
         0
 76
         1
 98
        1
 10
0.0
 20
0.0
  0
CIRCLE
  5
D1
100
AcDbEntity
  8
ASSEMBLY_OUTLINES_TOP
100
AcDbCircle
 10
82.69
 20
113.17
 30
0.0
 40
0.45
  0
HATCH
  5
D2
100
AcDbEntity
  8
ASSEMBLY_OUTLINES_TOP
100
AcDbHatch
 10
0.0
 20
0.0
 30
0.0
210
0.0
220
0.0
230
1.0
  2
SOLID
 70
         1
 71
         1
 91
        1
 92
        1
 93
        1
 72
         2
 10
82.689999999999998
 20
113.17
 40
0.45
 50
0.0
 51
360.0
 73
         1
 97
        1
330
D1
 75
         0
 76
         1
 98
        1
 10
0.0
 20
0.0
  0
CIRCLE
  5
D3
100
AcDbEntity
  8
ASSEMBLY_OUTLINES_TOP
100
AcDbCircle
 10
85.23
 20
113.17
 30
0.0
 40
0.45
  0
HATCH
  5
D4
100
AcDbEntity
  8
ASSEMBLY_OUTLINES_TOP
100
AcDbHatch
 10
0.0
 20
0.0
 30
0.0
210
0.0
220
0.0
230
1.0
  2
SOLID
 70
         1
 71
         1
 91
        1
 92
        1
 93
        1
 72
         2
 10
85.230000000000004
 20
113.17
 40
0.45
 50
0.0
 51
360.0
 73
         1
 97
        1
330
D3
 75
         0
 76
         1
 98
        1
 10
0.0
 20
0.0
  0
CIRCLE
  5
D5
100
AcDbEntity
  8
ASSEMBLY_OUTLINES_TOP
100
AcDbCircle
 10
87.773549
 20
113.17088
 30
0.0
 40
0.45
  0
HATCH
  5
D6
100
AcDbEntity
  8
ASSEMBLY_OUTLINES_TOP
100
AcDbHatch
 10
0.0
 20
0.0
 30
0.0
210
0.0
220
0.0
230
1.0
  2
SOLID
 70
         1
 71
         1
 91
        1
 92
        1
 93
        1
 72
         2
 10
87.773549000000003
 20
113.17088
 40
0.45
 50
0.0
 51
360.0
 73
         1
 97
        1
330
D5
 75
         0
 76
         1
 98
        1
 10
0.0
 20
0.0
  0
CIRCLE
  5
D7
100
AcDbEntity
  8
ASSEMBLY_OUTLINES_TOP
100
AcDbCircle
 10
90.313549
 20
113.17088
 30
0.0
 40
0.45
  0
HATCH
  5
D8
100
AcDbEntity
  8
ASSEMBLY_OUTLINES_TOP
100
AcDbHatch
 10
0.0
 20
0.0
 30
0.0
210
0.0
220
0.0
230
1.0
  2
SOLID
 70
         1
 71
         1
 91
        1
 92
        1
 93
        1
 72
         2
 10
90.313548999999995
 20
113.17088
 40
0.45
 50
0.0
 51
360.0
 73
         1
 97
        1
330
D7
 75
         0
 76
         1
 98
        1
 10
0.0
 20
0.0
  0
CIRCLE
  5
D9
100
AcDbEntity
  8
ASSEMBLY_OUTLINES_TOP
100
AcDbCircle
 10
92.853549
 20
113.17088
 30
0.0
 40
0.45
  0
HATCH
  5
DA
100
AcDbEntity
  8
ASSEMBLY_OUTLINES_TOP
100
AcDbHatch
 10
0.0
 20
0.0
 30
0.0
210
0.0
220
0.0
230
1.0
  2
SOLID
 70
         1
 71
         1
 91
        1
 92
        1
 93
        1
 72
         2
 10
92.853549000000001
 20
113.17088
 40
0.45
 50
0.0
 51
360.0
 73
         1
 97
        1
330
D9
 75
         0
 76
         1
 98
        1
 10
0.0
 20
0.0
  0
CIRCLE
  5
DB
100
AcDbEntity
  8
ASSEMBLY_OUTLINES_TOP
100
AcDbCircle
 10
95.393549
 20
113.17088
 30
0.0
 40
0.45
  0
HATCH
  5
DC
100
AcDbEntity
  8
ASSEMBLY_OUTLINES_TOP
100
AcDbHatch
 10
0.0
 20
0.0
 30
0.0
210
0.0
220
0.0
230
1.0
  2
SOLID
 70
         1
 71
         1
 91
        1
 92
        1
 93
        1
 72
         2
 10
95.393548999999993
 20
113.17088
 40
0.45
 50
0.0
 51
360.0
 73
         1
 97
        1
330
DB
 75
         0
 76
         1
 98
        1
 10
0.0
 20
0.0
  0
CIRCLE
  5
DD
100
AcDbEntity
  8
ASSEMBLY_OUTLINES_TOP
100
AcDbCircle
 10
97.933549
 20
113.17088
 30
0.0
 40
0.45
  0
HATCH
  5
DE
100
AcDbEntity
  8
ASSEMBLY_OUTLINES_TOP
100
AcDbHatch
 10
0.0
 20
0.0
 30
0.0
210
0.0
220
0.0
230
1.0
  2
SOLID
 70
         1
 71
         1
 91
        1
 92
        1
 93
        1
 72
         2
 10
97.933548999999999
 20
113.17088
 40
0.45
 50
0.0
 51
360.0
 73
         1
 97
        1
330
DD
 75
         0
 76
         1
 98
        1
 10
0.0
 20
0.0
  0
CIRCLE
  5
DF
100
AcDbEntity
  8
ASSEMBLY_OUTLINES_TOP
100
AcDbCircle
 10
100.473549
 20
113.17088
 30
0.0
 40
0.45
  0
HATCH
  5
E0
100
AcDbEntity
  8
ASSEMBLY_OUTLINES_TOP
100
AcDbHatch
 10
0.0
 20
0.0
 30
0.0
210
0.0
220
0.0
230
1.0
  2
SOLID
 70
         1
 71
         1
 91
        1
 92
        1
 93
        1
 72
         2
 10
100.47354900000001
 20
113.17088
 40
0.45
 50
0.0
 51
360.0
 73
         1
 97
        1
330
DF
 75
         0
 76
         1
 98
        1
 10
0.0
 20
0.0
  0
CIRCLE
  5
E1
100
AcDbEntity
  8
ASSEMBLY_OUTLINES_TOP
100
AcDbCircle
 10
103.013549
 20
113.17088
 30
0.0
 40
0.45
  0
HATCH
  5
E2
100
AcDbEntity
  8
ASSEMBLY_OUTLINES_TOP
100
AcDbHatch
 10
0.0
 20
0.0
 30
0.0
210
0.0
220
0.0
230
1.0
  2
SOLID
 70
         1
 71
         1
 91
        1
 92
        1
 93
        1
 72
         2
 10
103.013549
 20
113.17088
 40
0.45
 50
0.0
 51
360.0
 73
         1
 97
        1
330
E1
 75
         0
 76
         1
 98
        1
 10
0.0
 20
0.0
  0
CIRCLE
  5
E3
100
AcDbEntity
  8
ASSEMBLY_OUTLINES_TOP
100
AcDbCircle
 10
105.553549
 20
113.17088
 30
0.0
 40
0.45
  0
HATCH
  5
E4
100
AcDbEntity
  8
ASSEMBLY_OUTLINES_TOP
100
AcDbHatch
 10
0.0
 20
0.0
 30
0.0
210
0.0
220
0.0
230
1.0
  2
SOLID
 70
         1
 71
         1
 91
        1
 92
        1
 93
        1
 72
         2
 10
105.553549
 20
113.17088
 40
0.45
 50
0.0
 51
360.0
 73
         1
 97
        1
330
E3
 75
         0
 76
         1
 98
        1
 10
0.0
 20
0.0
  0
CIRCLE
  5
E5
100
AcDbEntity
  8
ASSEMBLY_OUTLINES_TOP
100
AcDbCircle
 10
108.093549
 20
113.17088
 30
0.0
 40
0.45
  0
HATCH
  5
E6
100
AcDbEntity
  8
ASSEMBLY_OUTLINES_TOP
100
AcDbHatch
 10
0.0
 20
0.0
 30
0.0
210
0.0
220
0.0
230
1.0
  2
SOLID
 70
         1
 71
         1
 91
        1
 92
        1
 93
        1
 72
         2
 10
108.093549
 20
113.17088
 40
0.45
 50
0.0
 51
360.0
 73
         1
 97
        1
330
E5
 75
         0
 76
         1
 98
        1
 10
0.0
 20
0.0
  0
CIRCLE
  5
E7
100
AcDbEntity
  8
ASSEMBLY_OUTLINES_TOP
100
AcDbCircle
 10
110.633549
 20
113.17088
 30
0.0
 40
0.45
  0
HATCH
  5
E8
100
AcDbEntity
  8
ASSEMBLY_OUTLINES_TOP
100
AcDbHatch
 10
0.0
 20
0.0
 30
0.0
210
0.0
220
0.0
230
1.0
  2
SOLID
 70
         1
 71
         1
 91
        1
 92
        1
 93
        1
 72
         2
 10
110.633549
 20
113.17088
 40
0.45
 50
0.0
 51
360.0
 73
         1
 97
        1
330
E7
 75
         0
 76
         1
 98
        1
 10
0.0
 20
0.0
  0
LWPOLYLINE
  5
E9
100
AcDbEntity
  8
ASSEMBLY_OUTLINES_TOP
100
AcDbPolyline
 90
        4
 70
         1
 43
0.1
 10
110.25
 20
17.55
 10
110.25
 20
20.45
 10
111.55
 20
20.45
 10
111.55
 20
17.55
  0
LWPOLYLINE
  5
EA
100
AcDbEntity
  8
ASSEMBLY_OUTLINES_TOP
100
AcDbPolyline
 90
        4
 70
         1
 43
0.1
 10
72.85
 20
56.0
 10
72.85
 20
58.8
 10
74.15
 20
58.8
 10
74.15
 20
56.0
  0
LWPOLYLINE
  5
EB
100
AcDbEntity
  8
ASSEMBLY_OUTLINES_TOP
100
AcDbPolyline
 90
        4
 70
         1
 43
0.1
 10
76.15
 20
61.8
 10
76.15
 20
63.6
 10
79.45
 20
63.6
 10
79.45
 20
61.8
  0
LWPOLYLINE
  5
EC
100
AcDbEntity
  8
ASSEMBLY_OUTLINES_TOP
100
AcDbPolyline
 90
        4
 70
         1
 43
0.1
 10
114.05
 20
29.15
 10
114.05
 20
30.45
 10
116.95
 20
30.45
 10
116.95
 20
29.15
  0
LWPOLYLINE
  5
ED
100
AcDbEntity
  8
ASSEMBLY_OUTLINES_TOP
100
AcDbPolyline
 90
        4
 70
         1
 43
0.1
 10
120.4
 20
93.95
 10
120.4
 20
97.25
 10
122.2
 20
97.25
 10
122.2
 20
93.95
  0
LWPOLYLINE
  5
EE
100
AcDbEntity
  8
ASSEMBLY_OUTLINES_TOP
100
AcDbPolyline
 90
        4
 70
         1
 43
0.1
 10
120.25
 20
54.4
 10
120.25
 20
57.2
 10
121.55
 20
57.2
 10
121.55
 20
54.4
  0
LWPOLYLINE
  5
EF
100
AcDbEntity
  8
ASSEMBLY_OUTLINES_TOP
100
AcDbPolyline
 90
        4
 70
         1
 43
0.1
 10
110.2
 20
11.55
 10
110.2
 20
12.85
 10
113.0
 20
12.85
 10
113.0
 20
11.55
  0
LWPOLYLINE
  5
F0
100
AcDbEntity
  8
ASSEMBLY_OUTLINES_TOP
100
AcDbPolyline
 90
        4
 70
         1
 43
0.1
 10
71.25
 20
51.85
 10
71.25
 20
54.75
 10
72.55
 20
54.75
 10
72.55
 20
51.85
  0
LWPOLYLINE
  5
F1
100
AcDbEntity
  8
ASSEMBLY_OUTLINES_TOP
100
AcDbPolyline
 90
        4
 70
         1
 43
0.1
 10
63.45
 20
31.75
 10
63.45
 20
33.05
 10
66.35
 20
33.05
 10
66.35
 20
31.75
  0
LWPOLYLINE
  5
F2
100
AcDbEntity
  8
ASSEMBLY_OUTLINES_TOP
100
AcDbPolyline
 90
        4
 70
         1
 43
0.1
 10
121.85
 20
62.05
 10
121.85
 20
64.95
 10
123.15
 20
64.95
 10
123.15
 20
62.05
  0
LWPOLYLINE
  5
F3
100
AcDbEntity
  8
ASSEMBLY_OUTLINES_TOP
100
AcDbPolyline
 90
        4
 70
         1
 43
0.1
 10
120.45
 20
89.65
 10
120.45
 20
90.95
 10
123.35
 20
90.95
 10
123.35
 20
89.65
  0
LWPOLYLINE
  5
F4
100
AcDbEntity
  8
ASSEMBLY_OUTLINES_TOP
100
AcDbPolyline
 90
        4
 70
         1
 43
0.1
 10
106.45
 20
14.15
 10
106.45
 20
17.05
 10
107.75
 20
17.05
 10
107.75
 20
14.15
  0
LWPOLYLINE
  5
F5
100
AcDbEntity
  8
ASSEMBLY_OUTLINES_TOP
100
AcDbPolyline
 90
        4
 70
         1
 10
113.45
 20
4.4
 10
113.45
 20
20.4
 10
138.85
 20
20.4
 10
138.85
 20
4.4
  0
LWPOLYLINE
  5
F6
100
AcDbEntity
  8
ASSEMBLY_OUTLINES_TOP
100
AcDbPolyline
 90
        4
 70
         1
 10
124.84
 20
57.36
 10
124.84
 20
70.56
 10
138.84
 20
70.56
 10
138.84
 20
57.36
  0
LWPOLYLINE
  5
F7
100
AcDbEntity
  8
ASSEMBLY_OUTLINES_TOP
100
AcDbPolyline
 90
        4
 70
         1
 43
0.1
 10
114.05
 20
25.75
 10
114.05
 20
27.05
 10
116.95
 20
27.05
 10
116.95
 20
25.75
  0
LWPOLYLINE
  5
F8
100
AcDbEntity
  8
ASSEMBLY_OUTLINES_TOP
100
AcDbPolyline
 90
        4
 70
         1
 43
0.1
 10
120.15
 20
39.6
 10
120.15
 20
42.4
 10
121.45
 20
42.4
 10
121.45
 20
39.6
  0
LWPOLYLINE
  5
F9
100
AcDbEntity
  8
ASSEMBLY_OUTLINES_TOP
100
AcDbPolyline
 90
        4
 70
         1
 43
0.1
 10
83.0
 20
19.6
 10
83.0
 20
23.6
 10
87.0
 20
23.6
 10
87.0
 20
19.6
  0
LWPOLYLINE
  5
FA
100
AcDbEntity
  8
ASSEMBLY_OUTLINES_TOP
100
AcDbPolyline
 90
        2
 70
         0
 43
0.1
 10
86.9
 20
19.6
 10
87.0
 20
19.7
  0
LWPOLYLINE
  5
FB
100
AcDbEntity
  8
ASSEMBLY_OUTLINES_TOP
100
AcDbPolyline
 90
        2
 70
         0
 43
0.1
 10
86.8
 20
19.6
 10
87.0
 20
19.8
  0
LWPOLYLINE
  5
FC
100
AcDbEntity
  8
ASSEMBLY_OUTLINES_TOP
100
AcDbPolyline
 90
        2
 70
         0
 43
0.1
 10
86.7
 20
19.6
 10
87.0
 20
19.9
  0
LWPOLYLINE
  5
FD
100
AcDbEntity
  8
ASSEMBLY_OUTLINES_TOP
100
AcDbPolyline
 90
        2
 70
         0
 43
0.1
 10
86.6
 20
19.6
 10
87.0
 20
20.0
  0
LWPOLYLINE
  5
FE
100
AcDbEntity
  8
ASSEMBLY_OUTLINES_TOP
100
AcDbPolyline
 90
        2
 70
         0
 43
0.1
 10
86.5
 20
19.6
 10
87.0
 20
20.1
  0
LWPOLYLINE
  5
FF
100
AcDbEntity
  8
ASSEMBLY_OUTLINES_TOP
100
AcDbPolyline
 90
        2
 70
         0
 43
0.1
 10
86.4
 20
19.6
 10
87.0
 20
20.2
  0
LWPOLYLINE
  5
100
100
AcDbEntity
  8
ASSEMBLY_OUTLINES_TOP
100
AcDbPolyline
 90
        2
 70
         0
 43
0.1
 10
86.3
 20
19.6
 10
87.0
 20
20.3
  0
LWPOLYLINE
  5
101
100
AcDbEntity
  8
ASSEMBLY_OUTLINES_TOP
100
AcDbPolyline
 90
        2
 70
         0
 43
0.1
 10
86.2
 20
19.6
 10
87.0
 20
20.4
  0
LWPOLYLINE
  5
102
100
AcDbEntity
  8
ASSEMBLY_OUTLINES_TOP
100
AcDbPolyline
 90
        2
 70
         0
 43
0.1
 10
86.1
 20
19.6
 10
87.0
 20
20.5
  0
LWPOLYLINE
  5
103
100
AcDbEntity
  8
ASSEMBLY_OUTLINES_TOP
100
AcDbPolyline
 90
        2
 70
         0
 43
0.1
 10
86.0
 20
19.6
 10
87.0
 20
20.6
  0
LWPOLYLINE
  5
104
100
AcDbEntity
  8
ASSEMBLY_OUTLINES_TOP
100
AcDbPolyline
 90
        4
 70
         1
 43
0.1
 10
98.45
 20
21.4
 10
98.45
 20
24.2
 10
99.75
 20
24.2
 10
99.75
 20
21.4
  0
LWPOLYLINE
  5
105
100
AcDbEntity
  8
ASSEMBLY_OUTLINES_TOP
100
AcDbPolyline
 90
        4
 70
         1
 43
0.1
 10
95.25
 20
17.35
 10
95.25
 20
20.25
 10
96.55
 20
20.25
 10
96.55
 20
17.35
  0
LWPOLYLINE
  5
106
100
AcDbEntity
  8
ASSEMBLY_OUTLINES_TOP
100
AcDbPolyline
 90
        4
 70
         1
 43
0.1
 10
108.8
 20
77.4
 10
108.8
 20
81.4
 10
113.8
 20
81.4
 10
113.8
 20
77.4
  0
LWPOLYLINE
  5
107
100
AcDbEntity
  8
ASSEMBLY_OUTLINES_TOP
100
AcDbPolyline
 90
        2
 70
         1
 43
0.1
 10
109.3
 20
78.4
 42
-1.0
 10
110.3
 20
78.4
 42
-1.0
  0
LWPOLYLINE
  5
108
100
AcDbEntity
  8
ASSEMBLY_OUTLINES_TOP
100
AcDbPolyline
 90
        4
 70
         1
 43
0.1
 10
98.6
 20
42.65
 10
98.6
 20
43.95
 10
101.4
 20
43.95
 10
101.4
 20
42.65
  0
LWPOLYLINE
  5
109
100
AcDbEntity
  8
ASSEMBLY_OUTLINES_TOP
100
AcDbPolyline
 90
        4
 70
         1
 43
0.1
 10
105.15
 20
58.65
 10
105.15
 20
61.55
 10
106.45
 20
61.55
 10
106.45
 20
58.65
  0
LWPOLYLINE
  5
10A
100
AcDbEntity
  8
ASSEMBLY_OUTLINES_TOP
100
AcDbPolyline
 90
        4
 70
         1
 43
0.1
 10
93.25
 20
21.4
 10
93.25
 20
24.2
 10
94.55
 20
24.2
 10
94.55
 20
21.4
  0
LWPOLYLINE
  5
10B
100
AcDbEntity
  8
ASSEMBLY_OUTLINES_TOP
100
AcDbPolyline
 90
        4
 70
         1
 43
0.1
 10
96.3
 20
60.95
 10
96.3
 20
64.25
 10
98.1
 20
64.25
 10
98.1
 20
60.95
  0
LWPOLYLINE
  5
10C
100
AcDbEntity
  8
ASSEMBLY_OUTLINES_TOP
100
AcDbPolyline
 90
        4
 70
         1
 43
0.1
 10
63.45
 20
34.15
 10
63.45
 20
35.45
 10
66.35
 20
35.45
 10
66.35
 20
34.15
  0
LWPOLYLINE
  5
10D
100
AcDbEntity
  8
ASSEMBLY_OUTLINES_TOP
100
AcDbPolyline
 90
        4
 70
         1
 43
0.1
 10
81.85
 20
6.45
 10
81.85
 20
8.15
 10
84.95
 20
8.15
 10
84.95
 20
6.45
  0
LWPOLYLINE
  5
10E
100
AcDbEntity
  8
ASSEMBLY_OUTLINES_TOP
100
AcDbPolyline
 90
        2
 70
         0
 43
0.1
 10
84.85
 20
8.15
 10
84.85
 20
6.45
  0
LWPOLYLINE
  5
10F
100
AcDbEntity
  8
ASSEMBLY_OUTLINES_TOP
100
AcDbPolyline
 90
        2
 70
         0
 43
0.1
 10
84.75
 20
8.15
 10
84.75
 20
6.45
  0
LWPOLYLINE
  5
110
100
AcDbEntity
  8
ASSEMBLY_OUTLINES_TOP
100
AcDbPolyline
 90
        2
 70
         0
 43
0.1
 10
84.65
 20
8.15
 10
84.65
 20
6.45
  0
LWPOLYLINE
  5
111
100
AcDbEntity
  8
ASSEMBLY_OUTLINES_TOP
100
AcDbPolyline
 90
        2
 70
         0
 43
0.1
 10
84.55
 20
8.15
 10
84.55
 20
6.45
  0
LWPOLYLINE
  5
112
100
AcDbEntity
  8
ASSEMBLY_OUTLINES_TOP
100
AcDbPolyline
 90
        2
 70
         0
 43
0.1
 10
84.45
 20
8.15
 10
84.45
 20
6.45
  0
LWPOLYLINE
  5
113
100
AcDbEntity
  8
ASSEMBLY_OUTLINES_TOP
100
AcDbPolyline
 90
        2
 70
         0
 43
0.1
 10
84.35
 20
8.15
 10
84.35
 20
6.45
  0
LWPOLYLINE
  5
114
100
AcDbEntity
  8
ASSEMBLY_OUTLINES_TOP
100
AcDbPolyline
 90
        4
 70
         1
 43
0.1
 10
107.05
 20
62.35
 10
107.05
 20
65.25
 10
108.35
 20
65.25
 10
108.35
 20
62.35
  0
LWPOLYLINE
  5
115
100
AcDbEntity
  8
ASSEMBLY_OUTLINES_TOP
100
AcDbPolyline
 90
        4
 70
         1
 43
0.1
 10
120.15
 20
62.05
 10
120.15
 20
64.95
 10
121.45
 20
64.95
 10
121.45
 20
62.05
  0
LWPOLYLINE
  5
116
100
AcDbEntity
  8
ASSEMBLY_OUTLINES_TOP
100
AcDbPolyline
 90
        4
 70
         1
 43
0.1
 10
67.05
 20
53.55
 10
67.05
 20
56.45
 10
68.35
 20
56.45
 10
68.35
 20
53.55
  0
LWPOLYLINE
  5
117
100
AcDbEntity
  8
ASSEMBLY_OUTLINES_TOP
100
AcDbPolyline
 90
        4
 70
         1
 43
0.1
 10
77.8
 20
40.25
 10
77.8
 20
43.55
 10
79.6
 20
43.55
 10
79.6
 20
40.25
  0
LWPOLYLINE
  5
118
100
AcDbEntity
  8
ASSEMBLY_OUTLINES_TOP
100
AcDbPolyline
 90
        4
 70
         1
 43
0.1
 10
69.25
 20
7.35
 10
69.25
 20
8.65
 10
72.15
 20
8.65
 10
72.15
 20
7.35
  0
LWPOLYLINE
  5
119
100
AcDbEntity
  8
ASSEMBLY_OUTLINES_TOP
100
AcDbPolyline
 90
        4
 70
         1
 43
0.1
 10
80.2
 20
17.85
 10
80.2
 20
19.15
 10
83.0
 20
19.15
 10
83.0
 20
17.85
  0
LWPOLYLINE
  5
11A
100
AcDbEntity
  8
ASSEMBLY_OUTLINES_TOP
100
AcDbPolyline
 90
        4
 70
         1
 10
117.23
 20
59.23
 10
117.23
 20
64.31
 10
119.77
 20
64.31
 10
119.77
 20
59.23
  0
LWPOLYLINE
  5
11B
100
AcDbEntity
  8
ASSEMBLY_OUTLINES_TOP
100
AcDbPolyline
 90
        4
 70
         1
 43
0.1
 10
102.3
 20
17.8
 10
102.3
 20
27.8
 10
106.3
 20
27.8
 10
106.3
 20
17.8
  0
LWPOLYLINE
  5
11C
100
AcDbEntity
  8
ASSEMBLY_OUTLINES_TOP
100
AcDbPolyline
 90
        2
 70
         1
 43
0.1
 10
102.8
 20
26.8
 42
-1.0
 10
103.8
 20
26.8
 42
-1.0
  0
LWPOLYLINE
  5
11D
100
AcDbEntity
  8
ASSEMBLY_OUTLINES_TOP
100
AcDbPolyline
 90
        4
 70
         1
 43
0.1
 10
63.45
 20
36.35
 10
63.45
 20
37.65
 10
66.35
 20
37.65
 10
66.35
 20
36.35
  0
LWPOLYLINE
  5
11E
100
AcDbEntity
  8
ASSEMBLY_OUTLINES_TOP
100
AcDbPolyline
 90
        4
 70
         1
 43
0.1
 10
81.85
 20
8.95
 10
81.85
 20
10.25
 10
84.75
 20
10.25
 10
84.75
 20
8.95
  0
LWPOLYLINE
  5
11F
100
AcDbEntity
  8
ASSEMBLY_OUTLINES_TOP
100
AcDbPolyline
 90
        4
 70
         1
 10
107.4
 20
66.95
 10
107.4
 20
73.25
 10
112.4
 20
73.25
 10
112.4
 20
66.95
  0
LWPOLYLINE
  5
120
100
AcDbEntity
  8
ASSEMBLY_OUTLINES_TOP
100
AcDbPolyline
 90
        2
 70
         0
 10
74.8
 20
59.55
 10
74.8
 20
52.05
  0
LWPOLYLINE
  5
121
100
AcDbEntity
  8
ASSEMBLY_OUTLINES_TOP
100
AcDbPolyline
 90
        2
 70
         0
 10
78.8
 20
59.55
 10
78.8
 20
52.05
  0
LWPOLYLINE
  5
122
100
AcDbEntity
  8
ASSEMBLY_OUTLINES_TOP
100
AcDbPolyline
 90
        2
 70
         0
 10
74.8
 20
52.05
 42
1.0
 10
78.8
 20
52.05
  0
LWPOLYLINE
  5
123
100
AcDbEntity
  8
ASSEMBLY_OUTLINES_TOP
100
AcDbPolyline
 90
        2
 70
         0
 10
78.8
 20
59.55
 42
1.0
 10
74.8
 20
59.55
  0
LWPOLYLINE
  5
124
100
AcDbEntity
  8
ASSEMBLY_OUTLINES_TOP
100
AcDbPolyline
 90
        4
 70
         1
 43
0.1
 10
89.25
 20
15.15
 10
89.25
 20
18.05
 10
90.55
 20
18.05
 10
90.55
 20
15.15
  0
LWPOLYLINE
  5
125
100
AcDbEntity
  8
ASSEMBLY_OUTLINES_TOP
100
AcDbPolyline
 90
        4
 70
         1
 43
0.1
 10
87.55
 20
16.7
 10
87.55
 20
19.5
 10
88.85
 20
19.5
 10
88.85
 20
16.7
  0
LWPOLYLINE
  5
126
100
AcDbEntity
  8
ASSEMBLY_OUTLINES_TOP
100
AcDbPolyline
 90
        4
 70
         1
 43
0.1
 10
54.15
 20
58.8
 10
54.15
 20
61.6
 10
55.45
 20
61.6
 10
55.45
 20
58.8
  0
LWPOLYLINE
  5
127
100
AcDbEntity
  8
ASSEMBLY_OUTLINES_TOP
100
AcDbPolyline
 90
        4
 70
         1
 43
0.1
 10
110.1
 20
98.3
 10
110.1
 20
102.1
 10
115.7
 20
102.1
 10
115.7
 20
98.3
  0
LWPOLYLINE
  5
128
100
AcDbEntity
  8
ASSEMBLY_OUTLINES_TOP
100
AcDbPolyline
 90
        2
 70
         0
 43
0.1
 10
110.2
 20
98.3
 10
110.2
 20
102.1
  0
LWPOLYLINE
  5
129
100
AcDbEntity
  8
ASSEMBLY_OUTLINES_TOP
100
AcDbPolyline
 90
        2
 70
         0
 43
0.1
 10
110.3
 20
98.3
 10
110.3
 20
102.1
  0
LWPOLYLINE
  5
12A
100
AcDbEntity
  8
ASSEMBLY_OUTLINES_TOP
100
AcDbPolyline
 90
        2
 70
         0
 43
0.1
 10
110.4
 20
98.3
 10
110.4
 20
102.1
  0
LWPOLYLINE
  5
12B
100
AcDbEntity
  8
ASSEMBLY_OUTLINES_TOP
100
AcDbPolyline
 90
        2
 70
         0
 43
0.1
 10
110.5
 20
98.3
 10
110.5
 20
102.1
  0
LWPOLYLINE
  5
12C
100
AcDbEntity
  8
ASSEMBLY_OUTLINES_TOP
100
AcDbPolyline
 90
        2
 70
         0
 43
0.1
 10
110.6
 20
98.3
 10
110.6
 20
102.1
  0
LWPOLYLINE
  5
12D
100
AcDbEntity
  8
ASSEMBLY_OUTLINES_TOP
100
AcDbPolyline
 90
        2
 70
         0
 43
0.1
 10
110.7
 20
98.3
 10
110.7
 20
102.1
  0
LWPOLYLINE
  5
12E
100
AcDbEntity
  8
ASSEMBLY_OUTLINES_TOP
100
AcDbPolyline
 90
        2
 70
         0
 43
0.1
 10
110.8
 20
98.3
 10
110.8
 20
102.1
  0
LWPOLYLINE
  5
12F
100
AcDbEntity
  8
ASSEMBLY_OUTLINES_TOP
100
AcDbPolyline
 90
        2
 70
         0
 43
0.1
 10
110.9
 20
98.3
 10
110.9
 20
102.1
  0
LWPOLYLINE
  5
130
100
AcDbEntity
  8
ASSEMBLY_OUTLINES_TOP
100
AcDbPolyline
 90
        4
 70
         1
 10
124.34
 20
105.2
 10
124.34
 20
114.2
 10
138.84
 20
114.2
 10
138.84
 20
105.2
  0
LWPOLYLINE
  5
131
100
AcDbEntity
  8
ASSEMBLY_OUTLINES_TOP
100
AcDbPolyline
 90
        4
 70
         1
 43
0.1
 10
78.75
 20
13.8
 10
78.75
 20
16.8
 10
82.45
 20
16.8
 10
82.45
 20
13.8
  0
LWPOLYLINE
  5
132
100
AcDbEntity
  8
ASSEMBLY_OUTLINES_TOP
100
AcDbPolyline
 90
        2
 70
         0
 43
0.1
 10
82.35
 20
16.8
 10
82.35
 20
13.8
  0
LWPOLYLINE
  5
133
100
AcDbEntity
  8
ASSEMBLY_OUTLINES_TOP
100
AcDbPolyline
 90
        2
 70
         0
 43
0.1
 10
82.25
 20
16.8
 10
82.25
 20
13.8
  0
LWPOLYLINE
  5
134
100
AcDbEntity
  8
ASSEMBLY_OUTLINES_TOP
100
AcDbPolyline
 90
        2
 70
         0
 43
0.1
 10
82.15
 20
16.8
 10
82.15
 20
13.8
  0
LWPOLYLINE
  5
135
100
AcDbEntity
  8
ASSEMBLY_OUTLINES_TOP
100
AcDbPolyline
 90
        2
 70
         0
 43
0.1
 10
82.05
 20
16.8
 10
82.05
 20
13.8
  0
LWPOLYLINE
  5
136
100
AcDbEntity
  8
ASSEMBLY_OUTLINES_TOP
100
AcDbPolyline
 90
        2
 70
         0
 43
0.1
 10
81.95
 20
16.8
 10
81.95
 20
13.8
  0
LWPOLYLINE
  5
137
100
AcDbEntity
  8
ASSEMBLY_OUTLINES_TOP
100
AcDbPolyline
 90
        2
 70
         0
 43
0.1
 10
81.85
 20
16.8
 10
81.85
 20
13.8
  0
LWPOLYLINE
  5
138
100
AcDbEntity
  8
ASSEMBLY_OUTLINES_TOP
100
AcDbPolyline
 90
        2
 70
         0
 43
0.1
 10
81.75
 20
16.8
 10
81.75
 20
13.8
  0
LWPOLYLINE
  5
139
100
AcDbEntity
  8
ASSEMBLY_OUTLINES_TOP
100
AcDbPolyline
 90
        2
 70
         0
 43
0.1
 10
81.65
 20
16.8
 10
81.65
 20
13.8
  0
LWPOLYLINE
  5
13A
100
AcDbEntity
  8
ASSEMBLY_OUTLINES_TOP
100
AcDbPolyline
 90
        4
 70
         1
 43
0.1
 10
98.45
 20
18.2
 10
98.45
 20
21.0
 10
99.75
 20
21.0
 10
99.75
 20
18.2
  0
CIRCLE
  5
13B
100
AcDbEntity
  8
ASSEMBLY_OUTLINES_TOP
100
AcDbCircle
 10
88.0
 20
64.5
 30
0.0
 40
2.0
  0
LWPOLYLINE
  5
13C
100
AcDbEntity
  8
ASSEMBLY_OUTLINES_TOP
100
AcDbPolyline
 90
        2
 70
         0
 10
88.8
 20
28.05
 10
88.8
 20
20.55
  0
LWPOLYLINE
  5
13D
100
AcDbEntity
  8
ASSEMBLY_OUTLINES_TOP
100
AcDbPolyline
 90
        2
 70
         0
 10
92.8
 20
28.05
 10
92.8
 20
20.55
  0
LWPOLYLINE
  5
13E
100
AcDbEntity
  8
ASSEMBLY_OUTLINES_TOP
100
AcDbPolyline
 90
        2
 70
         0
 10
88.8
 20
20.55
 42
1.0
 10
92.8
 20
20.55
  0
LWPOLYLINE
  5
13F
100
AcDbEntity
  8
ASSEMBLY_OUTLINES_TOP
100
AcDbPolyline
 90
        2
 70
         0
 10
92.8
 20
28.05
 42
1.0
 10
88.8
 20
28.05
  0
LWPOLYLINE
  5
140
100
AcDbEntity
  8
ASSEMBLY_OUTLINES_TOP
100
AcDbPolyline
 90
        4
 70
         1
 43
0.1
 10
96.95
 20
40.7
 10
96.95
 20
42.5
 10
100.25
 20
42.5
 10
100.25
 20
40.7
  0
LWPOLYLINE
  5
141
100
AcDbEntity
  8
ASSEMBLY_OUTLINES_TOP
100
AcDbPolyline
 90
        4
 70
         1
 43
0.1
 10
108.75
 20
25.3
 10
108.75
 20
28.1
 10
110.05
 20
28.1
 10
110.05
 20
25.3
  0
LWPOLYLINE
  5
142
100
AcDbEntity
  8
ASSEMBLY_OUTLINES_TOP
100
AcDbPolyline
 90
        4
 70
         1
 43
0.1
 10
94.85
 20
97.85
 10
94.85
 20
99.15
 10
97.75
 20
99.15
 10
97.75
 20
97.85
  0
LWPOLYLINE
  5
143
100
AcDbEntity
  8
ASSEMBLY_OUTLINES_TOP
100
AcDbPolyline
 90
        4
 70
         1
 43
0.1
 10
118.45
 20
101.15
 10
118.45
 20
102.45
 10
121.35
 20
102.45
 10
121.35
 20
101.15
  0
LWPOLYLINE
  5
144
100
AcDbEntity
  8
ASSEMBLY_OUTLINES_TOP
100
AcDbPolyline
 90
        4
 70
         1
 43
0.1
 10
112.635
 20
108.298
 10
112.635
 20
114.518
 10
119.365
 20
114.518
 10
119.365
 20
108.298
  0
LWPOLYLINE
  5
145
100
AcDbEntity
  8
ASSEMBLY_OUTLINES_TOP
100
AcDbPolyline
 90
        4
 70
         1
 43
0.1
 10
103.0
 20
28.35
 10
103.0
 20
29.65
 10
105.8
 20
29.65
 10
105.8
 20
28.35
  0
LWPOLYLINE
  5
146
100
AcDbEntity
  8
ASSEMBLY_OUTLINES_TOP
100
AcDbPolyline
 90
        4
 70
         1
 43
0.1
 10
96.4
 20
70.45
 10
96.4
 20
74.15
 10
99.4
 20
74.15
 10
99.4
 20
70.45
  0
LWPOLYLINE
  5
147
100
AcDbEntity
  8
ASSEMBLY_OUTLINES_TOP
100
AcDbPolyline
 90
        2
 70
         0
 43
0.1
 10
99.4
 20
70.55
 10
96.4
 20
70.55
  0
LWPOLYLINE
  5
148
100
AcDbEntity
  8
ASSEMBLY_OUTLINES_TOP
100
AcDbPolyline
 90
        2
 70
         0
 43
0.1
 10
99.4
 20
70.65
 10
96.4
 20
70.65
  0
LWPOLYLINE
  5
149
100
AcDbEntity
  8
ASSEMBLY_OUTLINES_TOP
100
AcDbPolyline
 90
        2
 70
         0
 43
0.1
 10
99.4
 20
70.75
 10
96.4
 20
70.75
  0
LWPOLYLINE
  5
14A
100
AcDbEntity
  8
ASSEMBLY_OUTLINES_TOP
100
AcDbPolyline
 90
        2
 70
         0
 43
0.1
 10
99.4
 20
70.85
 10
96.4
 20
70.85
  0
LWPOLYLINE
  5
14B
100
AcDbEntity
  8
ASSEMBLY_OUTLINES_TOP
100
AcDbPolyline
 90
        2
 70
         0
 43
0.1
 10
99.4
 20
70.95
 10
96.4
 20
70.95
  0
LWPOLYLINE
  5
14C
100
AcDbEntity
  8
ASSEMBLY_OUTLINES_TOP
100
AcDbPolyline
 90
        2
 70
         0
 43
0.1
 10
99.4
 20
71.05
 10
96.4
 20
71.05
  0
LWPOLYLINE
  5
14D
100
AcDbEntity
  8
ASSEMBLY_OUTLINES_TOP
100
AcDbPolyline
 90
        2
 70
         0
 43
0.1
 10
99.4
 20
71.15
 10
96.4
 20
71.15
  0
LWPOLYLINE
  5
14E
100
AcDbEntity
  8
ASSEMBLY_OUTLINES_TOP
100
AcDbPolyline
 90
        2
 70
         0
 43
0.1
 10
99.4
 20
71.25
 10
96.4
 20
71.25
  0
LWPOLYLINE
  5
14F
100
AcDbEntity
  8
ASSEMBLY_OUTLINES_TOP
100
AcDbPolyline
 90
        4
 70
         1
 43
0.1
 10
107.05
 20
58.65
 10
107.05
 20
61.55
 10
108.35
 20
61.55
 10
108.35
 20
58.65
  0
LWPOLYLINE
  5
150
100
AcDbEntity
  8
ASSEMBLY_OUTLINES_TOP
100
AcDbPolyline
 90
        4
 70
         1
 43
0.1
 10
120.15
 20
43.6
 10
120.15
 20
46.4
 10
121.45
 20
46.4
 10
121.45
 20
43.6
  0
LWPOLYLINE
  5
151
100
AcDbEntity
  8
ASSEMBLY_OUTLINES_TOP
100
AcDbPolyline
 90
        4
 70
         1
 43
0.1
 10
94.85
 20
22.85
 10
94.85
 20
25.75
 10
96.15
 20
25.75
 10
96.15
 20
22.85
  0
LWPOLYLINE
  5
152
100
AcDbEntity
  8
ASSEMBLY_OUTLINES_TOP
100
AcDbPolyline
 90
        4
 70
         1
 43
0.1
 10
72.85
 20
52.8
 10
72.85
 20
55.6
 10
74.15
 20
55.6
 10
74.15
 20
52.8
  0
LWPOLYLINE
  5
153
100
AcDbEntity
  8
ASSEMBLY_OUTLINES_TOP
100
AcDbPolyline
 90
        4
 70
         1
 10
66.82
 20
10.67
 10
66.82
 20
43.67
 10
75.52
 20
43.67
 10
75.52
 20
10.67
  0
LWPOLYLINE
  5
154
100
AcDbEntity
  8
ASSEMBLY_OUTLINES_TOP
100
AcDbPolyline
 90
        4
 70
         1
 10
66.82
 20
24.1
 10
66.82
 20
30.6
 10
67.4
 20
30.6
 10
67.4
 20
24.1
  0
LWPOLYLINE
  5
155
100
AcDbEntity
  8
ASSEMBLY_OUTLINES_TOP
100
AcDbPolyline
 90
        4
 70
         1
 10
109.43
 20
59.23
 10
109.43
 20
64.31
 10
111.97
 20
64.31
 10
111.97
 20
59.23
  0
LWPOLYLINE
  5
156
100
AcDbEntity
  8
ASSEMBLY_OUTLINES_TOP
100
AcDbPolyline
 90
        4
 70
         1
 10
94.65
 20
88.8
 10
94.65
 20
93.8
 10
100.95
 20
93.8
 10
100.95
 20
88.8
  0
LWPOLYLINE
  5
157
100
AcDbEntity
  8
ASSEMBLY_OUTLINES_TOP
100
AcDbPolyline
 90
        4
 70
         1
 43
0.1
 10
104.05
 20
38.7
 10
104.05
 20
41.5
 10
105.35
 20
41.5
 10
105.35
 20
38.7
  0
LWPOLYLINE
  5
158
100
AcDbEntity
  8
ASSEMBLY_OUTLINES_TOP
100
AcDbPolyline
 90
        8
 70
         0
 10
86.0
 20
88.4
 42
-2.549150321
 10
86.0
 20
98.6
 10
86.0
 20
100.5
 10
88.0
 20
100.5
 10
88.0
 20
86.5
 10
86.0
 20
86.5
 10
86.0
 20
88.4
 10
86.0
 20
88.3
  0
LWPOLYLINE
  5
159
100
AcDbEntity
  8
ASSEMBLY_OUTLINES_TOP
100
AcDbPolyline
 90
        4
 70
         1
 43
0.1
 10
105.85
 20
8.05
 10
105.85
 20
10.95
 10
107.15
 20
10.95
 10
107.15
 20
8.05
  0
LWPOLYLINE
  5
15A
100
AcDbEntity
  8
ASSEMBLY_OUTLINES_TOP
100
AcDbPolyline
 90
        4
 70
         1
 43
0.1
 10
120.15
 20
35.0
 10
120.15
 20
37.8
 10
121.45
 20
37.8
 10
121.45
 20
35.0
  0
LWPOLYLINE
  5
15B
100
AcDbEntity
  8
ASSEMBLY_OUTLINES_TOP
100
AcDbPolyline
 90
        4
 70
         1
 43
0.1
 10
98.35
 20
61.0
 10
98.35
 20
63.8
 10
99.65
 20
63.8
 10
99.65
 20
61.0
  0
LWPOLYLINE
  5
15C
100
AcDbEntity
  8
ASSEMBLY_OUTLINES_TOP
100
AcDbPolyline
 90
        4
 70
         1
 43
0.1
 10
114.05
 20
24.15
 10
114.05
 20
25.45
 10
116.95
 20
25.45
 10
116.95
 20
24.15
  0
LWPOLYLINE
  5
15D
100
AcDbEntity
  8
ASSEMBLY_OUTLINES_TOP
100
AcDbPolyline
 90
        4
 70
         1
 43
0.1
 10
80.0
 20
43.2
 10
80.0
 20
60.2
 10
97.0
 20
60.2
 10
97.0
 20
43.2
  0
LWPOLYLINE
  5
15E
100
AcDbEntity
  8
ASSEMBLY_OUTLINES_TOP
100
AcDbPolyline
 90
        2
 70
         0
 43
0.1
 10
80.1
 20
60.2
 10
80.0
 20
60.1
  0
LWPOLYLINE
  5
15F
100
AcDbEntity
  8
ASSEMBLY_OUTLINES_TOP
100
AcDbPolyline
 90
        2
 70
         0
 43
0.1
 10
80.2
 20
60.2
 10
80.0
 20
60.0
  0
LWPOLYLINE
  5
160
100
AcDbEntity
  8
ASSEMBLY_OUTLINES_TOP
100
AcDbPolyline
 90
        2
 70
         0
 43
0.1
 10
80.3
 20
60.2
 10
80.0
 20
59.9
  0
LWPOLYLINE
  5
161
100
AcDbEntity
  8
ASSEMBLY_OUTLINES_TOP
100
AcDbPolyline
 90
        2
 70
         0
 43
0.1
 10
80.4
 20
60.2
 10
80.0
 20
59.8
  0
LWPOLYLINE
  5
162
100
AcDbEntity
  8
ASSEMBLY_OUTLINES_TOP
100
AcDbPolyline
 90
        2
 70
         0
 43
0.1
 10
80.5
 20
60.2
 10
80.0
 20
59.7
  0
LWPOLYLINE
  5
163
100
AcDbEntity
  8
ASSEMBLY_OUTLINES_TOP
100
AcDbPolyline
 90
        2
 70
         0
 43
0.1
 10
80.6
 20
60.2
 10
80.0
 20
59.6
  0
LWPOLYLINE
  5
164
100
AcDbEntity
  8
ASSEMBLY_OUTLINES_TOP
100
AcDbPolyline
 90
        2
 70
         0
 43
0.1
 10
80.7
 20
60.2
 10
80.0
 20
59.5
  0
LWPOLYLINE
  5
165
100
AcDbEntity
  8
ASSEMBLY_OUTLINES_TOP
100
AcDbPolyline
 90
        2
 70
         0
 43
0.1
 10
80.8
 20
60.2
 10
80.0
 20
59.4
  0
LWPOLYLINE
  5
166
100
AcDbEntity
  8
ASSEMBLY_OUTLINES_TOP
100
AcDbPolyline
 90
        2
 70
         0
 43
0.1
 10
80.9
 20
60.2
 10
80.0
 20
59.3
  0
LWPOLYLINE
  5
167
100
AcDbEntity
  8
ASSEMBLY_OUTLINES_TOP
100
AcDbPolyline
 90
        2
 70
         0
 43
0.1
 10
81.0
 20
60.2
 10
80.0
 20
59.2
  0
LWPOLYLINE
  5
168
100
AcDbEntity
  8
ASSEMBLY_OUTLINES_TOP
100
AcDbPolyline
 90
        4
 70
         1
 43
0.1
 10
124.95
 20
52.5
 10
124.95
 20
55.5
 10
128.65
 20
55.5
 10
128.65
 20
52.5
  0
LWPOLYLINE
  5
169
100
AcDbEntity
  8
ASSEMBLY_OUTLINES_TOP
100
AcDbPolyline
 90
        2
 70
         0
 43
0.1
 10
125.05
 20
52.5
 10
125.05
 20
55.5
  0
LWPOLYLINE
  5
16A
100
AcDbEntity
  8
ASSEMBLY_OUTLINES_TOP
100
AcDbPolyline
 90
        2
 70
         0
 43
0.1
 10
125.15
 20
52.5
 10
125.15
 20
55.5
  0
LWPOLYLINE
  5
16B
100
AcDbEntity
  8
ASSEMBLY_OUTLINES_TOP
100
AcDbPolyline
 90
        2
 70
         0
 43
0.1
 10
125.25
 20
52.5
 10
125.25
 20
55.5
  0
LWPOLYLINE
  5
16C
100
AcDbEntity
  8
ASSEMBLY_OUTLINES_TOP
100
AcDbPolyline
 90
        2
 70
         0
 43
0.1
 10
125.35
 20
52.5
 10
125.35
 20
55.5
  0
LWPOLYLINE
  5
16D
100
AcDbEntity
  8
ASSEMBLY_OUTLINES_TOP
100
AcDbPolyline
 90
        2
 70
         0
 43
0.1
 10
125.45
 20
52.5
 10
125.45
 20
55.5
  0
LWPOLYLINE
  5
16E
100
AcDbEntity
  8
ASSEMBLY_OUTLINES_TOP
100
AcDbPolyline
 90
        2
 70
         0
 43
0.1
 10
125.55
 20
52.5
 10
125.55
 20
55.5
  0
LWPOLYLINE
  5
16F
100
AcDbEntity
  8
ASSEMBLY_OUTLINES_TOP
100
AcDbPolyline
 90
        2
 70
         0
 43
0.1
 10
125.65
 20
52.5
 10
125.65
 20
55.5
  0
LWPOLYLINE
  5
170
100
AcDbEntity
  8
ASSEMBLY_OUTLINES_TOP
100
AcDbPolyline
 90
        2
 70
         0
 43
0.1
 10
125.75
 20
52.5
 10
125.75
 20
55.5
  0
LWPOLYLINE
  5
171
100
AcDbEntity
  8
ASSEMBLY_OUTLINES_TOP
100
AcDbPolyline
 90
        4
 70
         1
 10
52.445
 20
63.2
 10
52.445
 20
114.0
 10
57.525
 20
114.0
 10
57.525
 20
63.2
  0
CIRCLE
  5
172
100
AcDbEntity
  8
ASSEMBLY_OUTLINES_TOP
100
AcDbCircle
 10
56.26544
 20
64.468225
 30
0.0
 40
0.45
  0
HATCH
  5
173
100
AcDbEntity
  8
ASSEMBLY_OUTLINES_TOP
100
AcDbHatch
 10
0.0
 20
0.0
 30
0.0
210
0.0
220
0.0
230
1.0
  2
SOLID
 70
         1
 71
         1
 91
        1
 92
        1
 93
        1
 72
         2
 10
56.265439999999998
 20
64.468225000000004
 40
0.45
 50
0.0
 51
360.0
 73
         1
 97
        1
330
172
 75
         0
 76
         1
 98
        1
 10
0.0
 20
0.0
  0
CIRCLE
  5
174
100
AcDbEntity
  8
ASSEMBLY_OUTLINES_TOP
100
AcDbCircle
 10
56.26544
 20
67.008225
 30
0.0
 40
0.45
  0
HATCH
  5
175
100
AcDbEntity
  8
ASSEMBLY_OUTLINES_TOP
100
AcDbHatch
 10
0.0
 20
0.0
 30
0.0
210
0.0
220
0.0
230
1.0
  2
SOLID
 70
         1
 71
         1
 91
        1
 92
        1
 93
        1
 72
         2
 10
56.265439999999998
 20
67.008224999999996
 40
0.45
 50
0.0
 51
360.0
 73
         1
 97
        1
330
174
 75
         0
 76
         1
 98
        1
 10
0.0
 20
0.0
  0
CIRCLE
  5
176
100
AcDbEntity
  8
ASSEMBLY_OUTLINES_TOP
100
AcDbCircle
 10
56.26544
 20
69.548225
 30
0.0
 40
0.45
  0
HATCH
  5
177
100
AcDbEntity
  8
ASSEMBLY_OUTLINES_TOP
100
AcDbHatch
 10
0.0
 20
0.0
 30
0.0
210
0.0
220
0.0
230
1.0
  2
SOLID
 70
         1
 71
         1
 91
        1
 92
        1
 93
        1
 72
         2
 10
56.265439999999998
 20
69.548225000000002
 40
0.45
 50
0.0
 51
360.0
 73
         1
 97
        1
330
176
 75
         0
 76
         1
 98
        1
 10
0.0
 20
0.0
  0
CIRCLE
  5
178
100
AcDbEntity
  8
ASSEMBLY_OUTLINES_TOP
100
AcDbCircle
 10
56.26544
 20
72.088225
 30
0.0
 40
0.45
  0
HATCH
  5
179
100
AcDbEntity
  8
ASSEMBLY_OUTLINES_TOP
100
AcDbHatch
 10
0.0
 20
0.0
 30
0.0
210
0.0
220
0.0
230
1.0
  2
SOLID
 70
         1
 71
         1
 91
        1
 92
        1
 93
        1
 72
         2
 10
56.265439999999998
 20
72.088224999999994
 40
0.45
 50
0.0
 51
360.0
 73
         1
 97
        1
330
178
 75
         0
 76
         1
 98
        1
 10
0.0
 20
0.0
  0
CIRCLE
  5
17A
100
AcDbEntity
  8
ASSEMBLY_OUTLINES_TOP
100
AcDbCircle
 10
56.26544
 20
74.628225
 30
0.0
 40
0.45
  0
HATCH
  5
17B
100
AcDbEntity
  8
ASSEMBLY_OUTLINES_TOP
100
AcDbHatch
 10
0.0
 20
0.0
 30
0.0
210
0.0
220
0.0
230
1.0
  2
SOLID
 70
         1
 71
         1
 91
        1
 92
        1
 93
        1
 72
         2
 10
56.265439999999998
 20
74.628225
 40
0.45
 50
0.0
 51
360.0
 73
         1
 97
        1
330
17A
 75
         0
 76
         1
 98
        1
 10
0.0
 20
0.0
  0
CIRCLE
  5
17C
100
AcDbEntity
  8
ASSEMBLY_OUTLINES_TOP
100
AcDbCircle
 10
56.26544
 20
77.168225
 30
0.0
 40
0.45
  0
HATCH
  5
17D
100
AcDbEntity
  8
ASSEMBLY_OUTLINES_TOP
100
AcDbHatch
 10
0.0
 20
0.0
 30
0.0
210
0.0
220
0.0
230
1.0
  2
SOLID
 70
         1
 71
         1
 91
        1
 92
        1
 93
        1
 72
         2
 10
56.265439999999998
 20
77.168225000000007
 40
0.45
 50
0.0
 51
360.0
 73
         1
 97
        1
330
17C
 75
         0
 76
         1
 98
        1
 10
0.0
 20
0.0
  0
CIRCLE
  5
17E
100
AcDbEntity
  8
ASSEMBLY_OUTLINES_TOP
100
AcDbCircle
 10
56.26544
 20
79.708225
 30
0.0
 40
0.45
  0
HATCH
  5
17F
100
AcDbEntity
  8
ASSEMBLY_OUTLINES_TOP
100
AcDbHatch
 10
0.0
 20
0.0
 30
0.0
210
0.0
220
0.0
230
1.0
  2
SOLID
 70
         1
 71
         1
 91
        1
 92
        1
 93
        1
 72
         2
 10
56.265439999999998
 20
79.708224999999999
 40
0.45
 50
0.0
 51
360.0
 73
         1
 97
        1
330
17E
 75
         0
 76
         1
 98
        1
 10
0.0
 20
0.0
  0
CIRCLE
  5
180
100
AcDbEntity
  8
ASSEMBLY_OUTLINES_TOP
100
AcDbCircle
 10
56.26544
 20
82.248225
 30
0.0
 40
0.45
  0
HATCH
  5
181
100
AcDbEntity
  8
ASSEMBLY_OUTLINES_TOP
100
AcDbHatch
 10
0.0
 20
0.0
 30
0.0
210
0.0
220
0.0
230
1.0
  2
SOLID
 70
         1
 71
         1
 91
        1
 92
        1
 93
        1
 72
         2
 10
56.265439999999998
 20
82.248225000000005
 40
0.45
 50
0.0
 51
360.0
 73
         1
 97
        1
330
180
 75
         0
 76
         1
 98
        1
 10
0.0
 20
0.0
  0
CIRCLE
  5
182
100
AcDbEntity
  8
ASSEMBLY_OUTLINES_TOP
100
AcDbCircle
 10
56.26544
 20
84.788225
 30
0.0
 40
0.45
  0
HATCH
  5
183
100
AcDbEntity
  8
ASSEMBLY_OUTLINES_TOP
100
AcDbHatch
 10
0.0
 20
0.0
 30
0.0
210
0.0
220
0.0
230
1.0
  2
SOLID
 70
         1
 71
         1
 91
        1
 92
        1
 93
        1
 72
         2
 10
56.265439999999998
 20
84.788224999999997
 40
0.45
 50
0.0
 51
360.0
 73
         1
 97
        1
330
182
 75
         0
 76
         1
 98
        1
 10
0.0
 20
0.0
  0
CIRCLE
  5
184
100
AcDbEntity
  8
ASSEMBLY_OUTLINES_TOP
100
AcDbCircle
 10
56.26544
 20
87.328225
 30
0.0
 40
0.45
  0
HATCH
  5
185
100
AcDbEntity
  8
ASSEMBLY_OUTLINES_TOP
100
AcDbHatch
 10
0.0
 20
0.0
 30
0.0
210
0.0
220
0.0
230
1.0
  2
SOLID
 70
         1
 71
         1
 91
        1
 92
        1
 93
        1
 72
         2
 10
56.265439999999998
 20
87.328225000000003
 40
0.45
 50
0.0
 51
360.0
 73
         1
 97
        1
330
184
 75
         0
 76
         1
 98
        1
 10
0.0
 20
0.0
  0
CIRCLE
  5
186
100
AcDbEntity
  8
ASSEMBLY_OUTLINES_TOP
100
AcDbCircle
 10
56.27456
 20
89.871774
 30
0.0
 40
0.45
  0
HATCH
  5
187
100
AcDbEntity
  8
ASSEMBLY_OUTLINES_TOP
100
AcDbHatch
 10
0.0
 20
0.0
 30
0.0
210
0.0
220
0.0
230
1.0
  2
SOLID
 70
         1
 71
         1
 91
        1
 92
        1
 93
        1
 72
         2
 10
56.274560000000001
 20
89.871774000000002
 40
0.45
 50
0.0
 51
360.0
 73
         1
 97
        1
330
186
 75
         0
 76
         1
 98
        1
 10
0.0
 20
0.0
  0
CIRCLE
  5
188
100
AcDbEntity
  8
ASSEMBLY_OUTLINES_TOP
100
AcDbCircle
 10
56.27456
 20
92.411774
 30
0.0
 40
0.45
  0
HATCH
  5
189
100
AcDbEntity
  8
ASSEMBLY_OUTLINES_TOP
100
AcDbHatch
 10
0.0
 20
0.0
 30
0.0
210
0.0
220
0.0
230
1.0
  2
SOLID
 70
         1
 71
         1
 91
        1
 92
        1
 93
        1
 72
         2
 10
56.274560000000001
 20
92.411773999999994
 40
0.45
 50
0.0
 51
360.0
 73
         1
 97
        1
330
188
 75
         0
 76
         1
 98
        1
 10
0.0
 20
0.0
  0
CIRCLE
  5
18A
100
AcDbEntity
  8
ASSEMBLY_OUTLINES_TOP
100
AcDbCircle
 10
56.27456
 20
94.951774
 30
0.0
 40
0.45
  0
HATCH
  5
18B
100
AcDbEntity
  8
ASSEMBLY_OUTLINES_TOP
100
AcDbHatch
 10
0.0
 20
0.0
 30
0.0
210
0.0
220
0.0
230
1.0
  2
SOLID
 70
         1
 71
         1
 91
        1
 92
        1
 93
        1
 72
         2
 10
56.274560000000001
 20
94.951774
 40
0.45
 50
0.0
 51
360.0
 73
         1
 97
        1
330
18A
 75
         0
 76
         1
 98
        1
 10
0.0
 20
0.0
  0
CIRCLE
  5
18C
100
AcDbEntity
  8
ASSEMBLY_OUTLINES_TOP
100
AcDbCircle
 10
56.27456
 20
97.491774
 30
0.0
 40
0.45
  0
HATCH
  5
18D
100
AcDbEntity
  8
ASSEMBLY_OUTLINES_TOP
100
AcDbHatch
 10
0.0
 20
0.0
 30
0.0
210
0.0
220
0.0
230
1.0
  2
SOLID
 70
         1
 71
         1
 91
        1
 92
        1
 93
        1
 72
         2
 10
56.274560000000001
 20
97.491774000000007
 40
0.45
 50
0.0
 51
360.0
 73
         1
 97
        1
330
18C
 75
         0
 76
         1
 98
        1
 10
0.0
 20
0.0
  0
CIRCLE
  5
18E
100
AcDbEntity
  8
ASSEMBLY_OUTLINES_TOP
100
AcDbCircle
 10
56.27456
 20
100.031774
 30
0.0
 40
0.45
  0
HATCH
  5
18F
100
AcDbEntity
  8
ASSEMBLY_OUTLINES_TOP
100
AcDbHatch
 10
0.0
 20
0.0
 30
0.0
210
0.0
220
0.0
230
1.0
  2
SOLID
 70
         1
 71
         1
 91
        1
 92
        1
 93
        1
 72
         2
 10
56.274560000000001
 20
100.031774
 40
0.45
 50
0.0
 51
360.0
 73
         1
 97
        1
330
18E
 75
         0
 76
         1
 98
        1
 10
0.0
 20
0.0
  0
CIRCLE
  5
190
100
AcDbEntity
  8
ASSEMBLY_OUTLINES_TOP
100
AcDbCircle
 10
56.27456
 20
102.571774
 30
0.0
 40
0.45
  0
HATCH
  5
191
100
AcDbEntity
  8
ASSEMBLY_OUTLINES_TOP
100
AcDbHatch
 10
0.0
 20
0.0
 30
0.0
210
0.0
220
0.0
230
1.0
  2
SOLID
 70
         1
 71
         1
 91
        1
 92
        1
 93
        1
 72
         2
 10
56.274560000000001
 20
102.571774
 40
0.45
 50
0.0
 51
360.0
 73
         1
 97
        1
330
190
 75
         0
 76
         1
 98
        1
 10
0.0
 20
0.0
  0
CIRCLE
  5
192
100
AcDbEntity
  8
ASSEMBLY_OUTLINES_TOP
100
AcDbCircle
 10
56.27456
 20
105.111774
 30
0.0
 40
0.45
  0
HATCH
  5
193
100
AcDbEntity
  8
ASSEMBLY_OUTLINES_TOP
100
AcDbHatch
 10
0.0
 20
0.0
 30
0.0
210
0.0
220
0.0
230
1.0
  2
SOLID
 70
         1
 71
         1
 91
        1
 92
        1
 93
        1
 72
         2
 10
56.274560000000001
 20
105.111774
 40
0.45
 50
0.0
 51
360.0
 73
         1
 97
        1
330
192
 75
         0
 76
         1
 98
        1
 10
0.0
 20
0.0
  0
CIRCLE
  5
194
100
AcDbEntity
  8
ASSEMBLY_OUTLINES_TOP
100
AcDbCircle
 10
56.27456
 20
107.651774
 30
0.0
 40
0.45
  0
HATCH
  5
195
100
AcDbEntity
  8
ASSEMBLY_OUTLINES_TOP
100
AcDbHatch
 10
0.0
 20
0.0
 30
0.0
210
0.0
220
0.0
230
1.0
  2
SOLID
 70
         1
 71
         1
 91
        1
 92
        1
 93
        1
 72
         2
 10
56.274560000000001
 20
107.651774
 40
0.45
 50
0.0
 51
360.0
 73
         1
 97
        1
330
194
 75
         0
 76
         1
 98
        1
 10
0.0
 20
0.0
  0
CIRCLE
  5
196
100
AcDbEntity
  8
ASSEMBLY_OUTLINES_TOP
100
AcDbCircle
 10
56.27456
 20
110.191774
 30
0.0
 40
0.45
  0
HATCH
  5
197
100
AcDbEntity
  8
ASSEMBLY_OUTLINES_TOP
100
AcDbHatch
 10
0.0
 20
0.0
 30
0.0
210
0.0
220
0.0
230
1.0
  2
SOLID
 70
         1
 71
         1
 91
        1
 92
        1
 93
        1
 72
         2
 10
56.274560000000001
 20
110.191774
 40
0.45
 50
0.0
 51
360.0
 73
         1
 97
        1
330
196
 75
         0
 76
         1
 98
        1
 10
0.0
 20
0.0
  0
CIRCLE
  5
198
100
AcDbEntity
  8
ASSEMBLY_OUTLINES_TOP
100
AcDbCircle
 10
56.27456
 20
112.731774
 30
0.0
 40
0.45
  0
HATCH
  5
199
100
AcDbEntity
  8
ASSEMBLY_OUTLINES_TOP
100
AcDbHatch
 10
0.0
 20
0.0
 30
0.0
210
0.0
220
0.0
230
1.0
  2
SOLID
 70
         1
 71
         1
 91
        1
 92
        1
 93
        1
 72
         2
 10
56.274560000000001
 20
112.731774
 40
0.45
 50
0.0
 51
360.0
 73
         1
 97
        1
330
198
 75
         0
 76
         1
 98
        1
 10
0.0
 20
0.0
  0
CIRCLE
  5
19A
100
AcDbEntity
  8
ASSEMBLY_OUTLINES_TOP
100
AcDbCircle
 10
53.73
 20
64.47
 30
0.0
 40
0.45
  0
HATCH
  5
19B
100
AcDbEntity
  8
ASSEMBLY_OUTLINES_TOP
100
AcDbHatch
 10
0.0
 20
0.0
 30
0.0
210
0.0
220
0.0
230
1.0
  2
SOLID
 70
         1
 71
         1
 91
        1
 92
        1
 93
        1
 72
         2
 10
53.729999999999997
 20
64.469999999999999
 40
0.45
 50
0.0
 51
360.0
 73
         1
 97
        1
330
19A
 75
         0
 76
         1
 98
        1
 10
0.0
 20
0.0
  0
CIRCLE
  5
19C
100
AcDbEntity
  8
ASSEMBLY_OUTLINES_TOP
100
AcDbCircle
 10
53.73
 20
67.01
 30
0.0
 40
0.45
  0
HATCH
  5
19D
100
AcDbEntity
  8
ASSEMBLY_OUTLINES_TOP
100
AcDbHatch
 10
0.0
 20
0.0
 30
0.0
210
0.0
220
0.0
230
1.0
  2
SOLID
 70
         1
 71
         1
 91
        1
 92
        1
 93
        1
 72
         2
 10
53.729999999999997
 20
67.010000000000005
 40
0.45
 50
0.0
 51
360.0
 73
         1
 97
        1
330
19C
 75
         0
 76
         1
 98
        1
 10
0.0
 20
0.0
  0
CIRCLE
  5
19E
100
AcDbEntity
  8
ASSEMBLY_OUTLINES_TOP
100
AcDbCircle
 10
53.73
 20
69.55
 30
0.0
 40
0.45
  0
HATCH
  5
19F
100
AcDbEntity
  8
ASSEMBLY_OUTLINES_TOP
100
AcDbHatch
 10
0.0
 20
0.0
 30
0.0
210
0.0
220
0.0
230
1.0
  2
SOLID
 70
         1
 71
         1
 91
        1
 92
        1
 93
        1
 72
         2
 10
53.729999999999997
 20
69.549999999999997
 40
0.45
 50
0.0
 51
360.0
 73
         1
 97
        1
330
19E
 75
         0
 76
         1
 98
        1
 10
0.0
 20
0.0
  0
CIRCLE
  5
1A0
100
AcDbEntity
  8
ASSEMBLY_OUTLINES_TOP
100
AcDbCircle
 10
53.73
 20
72.09
 30
0.0
 40
0.45
  0
HATCH
  5
1A1
100
AcDbEntity
  8
ASSEMBLY_OUTLINES_TOP
100
AcDbHatch
 10
0.0
 20
0.0
 30
0.0
210
0.0
220
0.0
230
1.0
  2
SOLID
 70
         1
 71
         1
 91
        1
 92
        1
 93
        1
 72
         2
 10
53.729999999999997
 20
72.090000000000003
 40
0.45
 50
0.0
 51
360.0
 73
         1
 97
        1
330
1A0
 75
         0
 76
         1
 98
        1
 10
0.0
 20
0.0
  0
CIRCLE
  5
1A2
100
AcDbEntity
  8
ASSEMBLY_OUTLINES_TOP
100
AcDbCircle
 10
53.73
 20
74.63
 30
0.0
 40
0.45
  0
HATCH
  5
1A3
100
AcDbEntity
  8
ASSEMBLY_OUTLINES_TOP
100
AcDbHatch
 10
0.0
 20
0.0
 30
0.0
210
0.0
220
0.0
230
1.0
  2
SOLID
 70
         1
 71
         1
 91
        1
 92
        1
 93
        1
 72
         2
 10
53.729999999999997
 20
74.629999999999995
 40
0.45
 50
0.0
 51
360.0
 73
         1
 97
        1
330
1A2
 75
         0
 76
         1
 98
        1
 10
0.0
 20
0.0
  0
CIRCLE
  5
1A4
100
AcDbEntity
  8
ASSEMBLY_OUTLINES_TOP
100
AcDbCircle
 10
53.73
 20
77.17
 30
0.0
 40
0.45
  0
HATCH
  5
1A5
100
AcDbEntity
  8
ASSEMBLY_OUTLINES_TOP
100
AcDbHatch
 10
0.0
 20
0.0
 30
0.0
210
0.0
220
0.0
230
1.0
  2
SOLID
 70
         1
 71
         1
 91
        1
 92
        1
 93
        1
 72
         2
 10
53.729999999999997
 20
77.170000000000002
 40
0.45
 50
0.0
 51
360.0
 73
         1
 97
        1
330
1A4
 75
         0
 76
         1
 98
        1
 10
0.0
 20
0.0
  0
CIRCLE
  5
1A6
100
AcDbEntity
  8
ASSEMBLY_OUTLINES_TOP
100
AcDbCircle
 10
53.73
 20
79.71
 30
0.0
 40
0.45
  0
HATCH
  5
1A7
100
AcDbEntity
  8
ASSEMBLY_OUTLINES_TOP
100
AcDbHatch
 10
0.0
 20
0.0
 30
0.0
210
0.0
220
0.0
230
1.0
  2
SOLID
 70
         1
 71
         1
 91
        1
 92
        1
 93
        1
 72
         2
 10
53.729999999999997
 20
79.709999999999994
 40
0.45
 50
0.0
 51
360.0
 73
         1
 97
        1
330
1A6
 75
         0
 76
         1
 98
        1
 10
0.0
 20
0.0
  0
CIRCLE
  5
1A8
100
AcDbEntity
  8
ASSEMBLY_OUTLINES_TOP
100
AcDbCircle
 10
53.73
 20
82.25
 30
0.0
 40
0.45
  0
HATCH
  5
1A9
100
AcDbEntity
  8
ASSEMBLY_OUTLINES_TOP
100
AcDbHatch
 10
0.0
 20
0.0
 30
0.0
210
0.0
220
0.0
230
1.0
  2
SOLID
 70
         1
 71
         1
 91
        1
 92
        1
 93
        1
 72
         2
 10
53.729999999999997
 20
82.25
 40
0.45
 50
0.0
 51
360.0
 73
         1
 97
        1
330
1A8
 75
         0
 76
         1
 98
        1
 10
0.0
 20
0.0
  0
CIRCLE
  5
1AA
100
AcDbEntity
  8
ASSEMBLY_OUTLINES_TOP
100
AcDbCircle
 10
53.73
 20
84.79
 30
0.0
 40
0.45
  0
HATCH
  5
1AB
100
AcDbEntity
  8
ASSEMBLY_OUTLINES_TOP
100
AcDbHatch
 10
0.0
 20
0.0
 30
0.0
210
0.0
220
0.0
230
1.0
  2
SOLID
 70
         1
 71
         1
 91
        1
 92
        1
 93
        1
 72
         2
 10
53.729999999999997
 20
84.790000000000006
 40
0.45
 50
0.0
 51
360.0
 73
         1
 97
        1
330
1AA
 75
         0
 76
         1
 98
        1
 10
0.0
 20
0.0
  0
CIRCLE
  5
1AC
100
AcDbEntity
  8
ASSEMBLY_OUTLINES_TOP
100
AcDbCircle
 10
53.73
 20
87.33
 30
0.0
 40
0.45
  0
HATCH
  5
1AD
100
AcDbEntity
  8
ASSEMBLY_OUTLINES_TOP
100
AcDbHatch
 10
0.0
 20
0.0
 30
0.0
210
0.0
220
0.0
230
1.0
  2
SOLID
 70
         1
 71
         1
 91
        1
 92
        1
 93
        1
 72
         2
 10
53.729999999999997
 20
87.329999999999998
 40
0.45
 50
0.0
 51
360.0
 73
         1
 97
        1
330
1AC
 75
         0
 76
         1
 98
        1
 10
0.0
 20
0.0
  0
CIRCLE
  5
1AE
100
AcDbEntity
  8
ASSEMBLY_OUTLINES_TOP
100
AcDbCircle
 10
53.72912
 20
89.873549
 30
0.0
 40
0.45
  0
HATCH
  5
1AF
100
AcDbEntity
  8
ASSEMBLY_OUTLINES_TOP
100
AcDbHatch
 10
0.0
 20
0.0
 30
0.0
210
0.0
220
0.0
230
1.0
  2
SOLID
 70
         1
 71
         1
 91
        1
 92
        1
 93
        1
 72
         2
 10
53.729120000000002
 20
89.873548999999997
 40
0.45
 50
0.0
 51
360.0
 73
         1
 97
        1
330
1AE
 75
         0
 76
         1
 98
        1
 10
0.0
 20
0.0
  0
CIRCLE
  5
1B0
100
AcDbEntity
  8
ASSEMBLY_OUTLINES_TOP
100
AcDbCircle
 10
53.72912
 20
92.413549
 30
0.0
 40
0.45
  0
HATCH
  5
1B1
100
AcDbEntity
  8
ASSEMBLY_OUTLINES_TOP
100
AcDbHatch
 10
0.0
 20
0.0
 30
0.0
210
0.0
220
0.0
230
1.0
  2
SOLID
 70
         1
 71
         1
 91
        1
 92
        1
 93
        1
 72
         2
 10
53.729120000000002
 20
92.413549000000003
 40
0.45
 50
0.0
 51
360.0
 73
         1
 97
        1
330
1B0
 75
         0
 76
         1
 98
        1
 10
0.0
 20
0.0
  0
CIRCLE
  5
1B2
100
AcDbEntity
  8
ASSEMBLY_OUTLINES_TOP
100
AcDbCircle
 10
53.72912
 20
94.953549
 30
0.0
 40
0.45
  0
HATCH
  5
1B3
100
AcDbEntity
  8
ASSEMBLY_OUTLINES_TOP
100
AcDbHatch
 10
0.0
 20
0.0
 30
0.0
210
0.0
220
0.0
230
1.0
  2
SOLID
 70
         1
 71
         1
 91
        1
 92
        1
 93
        1
 72
         2
 10
53.729120000000002
 20
94.953548999999995
 40
0.45
 50
0.0
 51
360.0
 73
         1
 97
        1
330
1B2
 75
         0
 76
         1
 98
        1
 10
0.0
 20
0.0
  0
CIRCLE
  5
1B4
100
AcDbEntity
  8
ASSEMBLY_OUTLINES_TOP
100
AcDbCircle
 10
53.72912
 20
97.493549
 30
0.0
 40
0.45
  0
HATCH
  5
1B5
100
AcDbEntity
  8
ASSEMBLY_OUTLINES_TOP
100
AcDbHatch
 10
0.0
 20
0.0
 30
0.0
210
0.0
220
0.0
230
1.0
  2
SOLID
 70
         1
 71
         1
 91
        1
 92
        1
 93
        1
 72
         2
 10
53.729120000000002
 20
97.493549000000002
 40
0.45
 50
0.0
 51
360.0
 73
         1
 97
        1
330
1B4
 75
         0
 76
         1
 98
        1
 10
0.0
 20
0.0
  0
CIRCLE
  5
1B6
100
AcDbEntity
  8
ASSEMBLY_OUTLINES_TOP
100
AcDbCircle
 10
53.72912
 20
100.033549
 30
0.0
 40
0.45
  0
HATCH
  5
1B7
100
AcDbEntity
  8
ASSEMBLY_OUTLINES_TOP
100
AcDbHatch
 10
0.0
 20
0.0
 30
0.0
210
0.0
220
0.0
230
1.0
  2
SOLID
 70
         1
 71
         1
 91
        1
 92
        1
 93
        1
 72
         2
 10
53.729120000000002
 20
100.03354899999999
 40
0.45
 50
0.0
 51
360.0
 73
         1
 97
        1
330
1B6
 75
         0
 76
         1
 98
        1
 10
0.0
 20
0.0
  0
CIRCLE
  5
1B8
100
AcDbEntity
  8
ASSEMBLY_OUTLINES_TOP
100
AcDbCircle
 10
53.72912
 20
102.573549
 30
0.0
 40
0.45
  0
HATCH
  5
1B9
100
AcDbEntity
  8
ASSEMBLY_OUTLINES_TOP
100
AcDbHatch
 10
0.0
 20
0.0
 30
0.0
210
0.0
220
0.0
230
1.0
  2
SOLID
 70
         1
 71
         1
 91
        1
 92
        1
 93
        1
 72
         2
 10
53.729120000000002
 20
102.573549
 40
0.45
 50
0.0
 51
360.0
 73
         1
 97
        1
330
1B8
 75
         0
 76
         1
 98
        1
 10
0.0
 20
0.0
  0
CIRCLE
  5
1BA
100
AcDbEntity
  8
ASSEMBLY_OUTLINES_TOP
100
AcDbCircle
 10
53.72912
 20
105.113549
 30
0.0
 40
0.45
  0
HATCH
  5
1BB
100
AcDbEntity
  8
ASSEMBLY_OUTLINES_TOP
100
AcDbHatch
 10
0.0
 20
0.0
 30
0.0
210
0.0
220
0.0
230
1.0
  2
SOLID
 70
         1
 71
         1
 91
        1
 92
        1
 93
        1
 72
         2
 10
53.729120000000002
 20
105.11354900000001
 40
0.45
 50
0.0
 51
360.0
 73
         1
 97
        1
330
1BA
 75
         0
 76
         1
 98
        1
 10
0.0
 20
0.0
  0
CIRCLE
  5
1BC
100
AcDbEntity
  8
ASSEMBLY_OUTLINES_TOP
100
AcDbCircle
 10
53.72912
 20
107.653549
 30
0.0
 40
0.45
  0
HATCH
  5
1BD
100
AcDbEntity
  8
ASSEMBLY_OUTLINES_TOP
100
AcDbHatch
 10
0.0
 20
0.0
 30
0.0
210
0.0
220
0.0
230
1.0
  2
SOLID
 70
         1
 71
         1
 91
        1
 92
        1
 93
        1
 72
         2
 10
53.729120000000002
 20
107.653549
 40
0.45
 50
0.0
 51
360.0
 73
         1
 97
        1
330
1BC
 75
         0
 76
         1
 98
        1
 10
0.0
 20
0.0
  0
CIRCLE
  5
1BE
100
AcDbEntity
  8
ASSEMBLY_OUTLINES_TOP
100
AcDbCircle
 10
53.72912
 20
110.193549
 30
0.0
 40
0.45
  0
HATCH
  5
1BF
100
AcDbEntity
  8
ASSEMBLY_OUTLINES_TOP
100
AcDbHatch
 10
0.0
 20
0.0
 30
0.0
210
0.0
220
0.0
230
1.0
  2
SOLID
 70
         1
 71
         1
 91
        1
 92
        1
 93
        1
 72
         2
 10
53.729120000000002
 20
110.193549
 40
0.45
 50
0.0
 51
360.0
 73
         1
 97
        1
330
1BE
 75
         0
 76
         1
 98
        1
 10
0.0
 20
0.0
  0
CIRCLE
  5
1C0
100
AcDbEntity
  8
ASSEMBLY_OUTLINES_TOP
100
AcDbCircle
 10
53.72912
 20
112.733549
 30
0.0
 40
0.45
  0
HATCH
  5
1C1
100
AcDbEntity
  8
ASSEMBLY_OUTLINES_TOP
100
AcDbHatch
 10
0.0
 20
0.0
 30
0.0
210
0.0
220
0.0
230
1.0
  2
SOLID
 70
         1
 71
         1
 91
        1
 92
        1
 93
        1
 72
         2
 10
53.729120000000002
 20
112.733549
 40
0.45
 50
0.0
 51
360.0
 73
         1
 97
        1
330
1C0
 75
         0
 76
         1
 98
        1
 10
0.0
 20
0.0
  0
LWPOLYLINE
  5
1C2
100
AcDbEntity
  8
ASSEMBLY_OUTLINES_TOP
100
AcDbPolyline
 90
        4
 70
         1
 43
0.1
 10
121.65
 20
103.55
 10
121.65
 20
104.85
 10
124.55
 20
104.85
 10
124.55
 20
103.55
  0
LWPOLYLINE
  5
1C3
100
AcDbEntity
  8
ASSEMBLY_OUTLINES_TOP
100
AcDbPolyline
 90
        4
 70
         1
 43
0.1
 10
120.15
 20
58.45
 10
120.15
 20
61.35
 10
121.45
 20
61.35
 10
121.45
 20
58.45
  0
LWPOLYLINE
  5
1C4
100
AcDbEntity
  8
ASSEMBLY_OUTLINES_TOP
100
AcDbPolyline
 90
        4
 70
         1
 43
0.1
 10
103.55
 20
83.05
 10
103.55
 20
85.95
 10
104.85
 20
85.95
 10
104.85
 20
83.05
  0
LWPOLYLINE
  5
1C5
100
AcDbEntity
  8
ASSEMBLY_OUTLINES_TOP
100
AcDbPolyline
 90
        4
 70
         1
 43
0.1
 10
105.6
 20
97.45
 10
105.6
 20
101.15
 10
108.6
 20
101.15
 10
108.6
 20
97.45
  0
LWPOLYLINE
  5
1C6
100
AcDbEntity
  8
ASSEMBLY_OUTLINES_TOP
100
AcDbPolyline
 90
        2
 70
         0
 43
0.1
 10
108.6
 20
97.55
 10
105.6
 20
97.55
  0
LWPOLYLINE
  5
1C7
100
AcDbEntity
  8
ASSEMBLY_OUTLINES_TOP
100
AcDbPolyline
 90
        2
 70
         0
 43
0.1
 10
108.6
 20
97.65
 10
105.6
 20
97.65
  0
LWPOLYLINE
  5
1C8
100
AcDbEntity
  8
ASSEMBLY_OUTLINES_TOP
100
AcDbPolyline
 90
        2
 70
         0
 43
0.1
 10
108.6
 20
97.75
 10
105.6
 20
97.75
  0
LWPOLYLINE
  5
1C9
100
AcDbEntity
  8
ASSEMBLY_OUTLINES_TOP
100
AcDbPolyline
 90
        2
 70
         0
 43
0.1
 10
108.6
 20
97.85
 10
105.6
 20
97.85
  0
LWPOLYLINE
  5
1CA
100
AcDbEntity
  8
ASSEMBLY_OUTLINES_TOP
100
AcDbPolyline
 90
        2
 70
         0
 43
0.1
 10
108.6
 20
97.95
 10
105.6
 20
97.95
  0
LWPOLYLINE
  5
1CB
100
AcDbEntity
  8
ASSEMBLY_OUTLINES_TOP
100
AcDbPolyline
 90
        2
 70
         0
 43
0.1
 10
108.6
 20
98.05
 10
105.6
 20
98.05
  0
LWPOLYLINE
  5
1CC
100
AcDbEntity
  8
ASSEMBLY_OUTLINES_TOP
100
AcDbPolyline
 90
        2
 70
         0
 43
0.1
 10
108.6
 20
98.15
 10
105.6
 20
98.15
  0
LWPOLYLINE
  5
1CD
100
AcDbEntity
  8
ASSEMBLY_OUTLINES_TOP
100
AcDbPolyline
 90
        2
 70
         0
 43
0.1
 10
108.6
 20
98.25
 10
105.6
 20
98.25
  0
LWPOLYLINE
  5
1CE
100
AcDbEntity
  8
ASSEMBLY_OUTLINES_TOP
100
AcDbPolyline
 90
        4
 70
         1
 43
0.1
 10
98.45
 20
24.5
 10
98.45
 20
27.3
 10
99.75
 20
27.3
 10
99.75
 20
24.5
  0
LWPOLYLINE
  5
1CF
100
AcDbEntity
  8
ASSEMBLY_OUTLINES_TOP
100
AcDbPolyline
 90
        4
 70
         1
 43
0.1
 10
76.35
 20
40.7
 10
76.35
 20
43.5
 10
77.65
 20
43.5
 10
77.65
 20
40.7
  0
LWPOLYLINE
  5
1D0
100
AcDbEntity
  8
ASSEMBLY_OUTLINES_TOP
100
AcDbPolyline
 90
        4
 70
         1
 43
0.1
 10
105.15
 20
62.35
 10
105.15
 20
65.25
 10
106.45
 20
65.25
 10
106.45
 20
62.35
  0
LWPOLYLINE
  5
1D1
100
AcDbEntity
  8
ASSEMBLY_OUTLINES_TOP
100
AcDbPolyline
 90
        4
 70
         1
 43
0.1
 10
90.1
 20
98.8
 10
90.1
 20
100.2
 10
93.1
 20
100.2
 10
93.1
 20
98.8
  0
LWPOLYLINE
  5
1D2
100
AcDbEntity
  8
ASSEMBLY_OUTLINES_TOP
100
AcDbPolyline
 90
        2
 70
         0
 43
0.1
 10
90.2
 20
98.8
 10
90.1
 20
98.9
  0
LWPOLYLINE
  5
1D3
100
AcDbEntity
  8
ASSEMBLY_OUTLINES_TOP
100
AcDbPolyline
 90
        2
 70
         0
 43
0.1
 10
90.3
 20
98.8
 10
90.1
 20
99.0
  0
LWPOLYLINE
  5
1D4
100
AcDbEntity
  8
ASSEMBLY_OUTLINES_TOP
100
AcDbPolyline
 90
        2
 70
         0
 43
0.1
 10
90.4
 20
98.8
 10
90.1
 20
99.1
  0
LWPOLYLINE
  5
1D5
100
AcDbEntity
  8
ASSEMBLY_OUTLINES_TOP
100
AcDbPolyline
 90
        2
 70
         0
 43
0.1
 10
90.5
 20
98.8
 10
90.1
 20
99.2
  0
LWPOLYLINE
  5
1D6
100
AcDbEntity
  8
ASSEMBLY_OUTLINES_TOP
100
AcDbPolyline
 90
        2
 70
         0
 43
0.1
 10
90.6
 20
98.8
 10
90.1
 20
99.3
  0
LWPOLYLINE
  5
1D7
100
AcDbEntity
  8
ASSEMBLY_OUTLINES_TOP
100
AcDbPolyline
 90
        2
 70
         0
 43
0.1
 10
90.7
 20
98.8
 10
90.1
 20
99.4
  0
LWPOLYLINE
  5
1D8
100
AcDbEntity
  8
ASSEMBLY_OUTLINES_TOP
100
AcDbPolyline
 90
        4
 70
         1
 43
0.1
 10
102.05
 20
76.55
 10
102.05
 20
77.85
 10
104.95
 20
77.85
 10
104.95
 20
76.55
  0
LWPOLYLINE
  5
1D9
100
AcDbEntity
  8
ASSEMBLY_OUTLINES_TOP
100
AcDbPolyline
 90
        4
 70
         1
 10
64.13
 20
50.63
 10
64.13
 20
53.17
 10
69.21
 20
53.17
 10
69.21
 20
50.63
  0
LWPOLYLINE
  5
1DA
100
AcDbEntity
  8
ASSEMBLY_OUTLINES_TOP
100
AcDbPolyline
 90
        4
 70
         1
 43
0.1
 10
121.85
 20
58.45
 10
121.85
 20
61.35
 10
123.15
 20
61.35
 10
123.15
 20
58.45
  0
LWPOLYLINE
  5
1DB
100
AcDbEntity
  8
ASSEMBLY_OUTLINES_TOP
100
AcDbPolyline
 90
        4
 70
         1
 43
0.1
 10
114.05
 20
27.55
 10
114.05
 20
28.85
 10
116.95
 20
28.85
 10
116.95
 20
27.55
  0
LWPOLYLINE
  5
1DC
100
AcDbEntity
  8
ASSEMBLY_OUTLINES_TOP
100
AcDbPolyline
 90
        4
 70
         1
 43
0.1
 10
76.2
 20
63.75
 10
76.2
 20
65.05
 10
79.0
 20
65.05
 10
79.0
 20
63.75
  0
LWPOLYLINE
  5
1DD
100
AcDbEntity
  8
ASSEMBLY_OUTLINES_TOP
100
AcDbPolyline
 90
        4
 70
         1
 43
0.1
 10
104.75
 20
13.35
 10
104.75
 20
16.25
 10
106.05
 20
16.25
 10
106.05
 20
13.35
  0
LWPOLYLINE
  5
1DE
100
AcDbEntity
  8
ASSEMBLY_OUTLINES_TOP
100
AcDbPolyline
 90
        4
 70
         1
 43
0.1
 10
90.75
 20
15.15
 10
90.75
 20
18.05
 10
92.05
 20
18.05
 10
92.05
 20
15.15
  0
LWPOLYLINE
  5
1DF
100
AcDbEntity
  8
ASSEMBLY_OUTLINES_TOP
100
AcDbPolyline
 90
        4
 70
         1
 43
0.1
 10
82.75
 20
25.25
 10
82.75
 20
28.15
 10
84.05
 20
28.15
 10
84.05
 20
25.25
  0
LWPOLYLINE
  5
1E0
100
AcDbEntity
  8
ASSEMBLY_OUTLINES_TOP
100
AcDbPolyline
 90
        4
 70
         1
 10
122.4
 20
76.0
 10
122.4
 20
88.0
 10
138.35
 20
88.0
 10
138.35
 20
76.0
  0
LWPOLYLINE
  5
1E1
100
AcDbEntity
  8
ASSEMBLY_OUTLINES_TOP
100
AcDbPolyline
 90
        4
 70
         1
 43
0.1
 10
106.85
 20
103.6
 10
106.85
 20
106.6
 10
110.55
 20
106.6
 10
110.55
 20
103.6
  0
LWPOLYLINE
  5
1E2
100
AcDbEntity
  8
ASSEMBLY_OUTLINES_TOP
100
AcDbPolyline
 90
        2
 70
         0
 43
0.1
 10
110.45
 20
106.6
 10
110.45
 20
103.6
  0
LWPOLYLINE
  5
1E3
100
AcDbEntity
  8
ASSEMBLY_OUTLINES_TOP
100
AcDbPolyline
 90
        2
 70
         0
 43
0.1
 10
110.35
 20
106.6
 10
110.35
 20
103.6
  0
LWPOLYLINE
  5
1E4
100
AcDbEntity
  8
ASSEMBLY_OUTLINES_TOP
100
AcDbPolyline
 90
        2
 70
         0
 43
0.1
 10
110.25
 20
106.6
 10
110.25
 20
103.6
  0
LWPOLYLINE
  5
1E5
100
AcDbEntity
  8
ASSEMBLY_OUTLINES_TOP
100
AcDbPolyline
 90
        2
 70
         0
 43
0.1
 10
110.15
 20
106.6
 10
110.15
 20
103.6
  0
LWPOLYLINE
  5
1E6
100
AcDbEntity
  8
ASSEMBLY_OUTLINES_TOP
100
AcDbPolyline
 90
        2
 70
         0
 43
0.1
 10
110.05
 20
106.6
 10
110.05
 20
103.6
  0
LWPOLYLINE
  5
1E7
100
AcDbEntity
  8
ASSEMBLY_OUTLINES_TOP
100
AcDbPolyline
 90
        2
 70
         0
 43
0.1
 10
109.95
 20
106.6
 10
109.95
 20
103.6
  0
LWPOLYLINE
  5
1E8
100
AcDbEntity
  8
ASSEMBLY_OUTLINES_TOP
100
AcDbPolyline
 90
        2
 70
         0
 43
0.1
 10
109.85
 20
106.6
 10
109.85
 20
103.6
  0
LWPOLYLINE
  5
1E9
100
AcDbEntity
  8
ASSEMBLY_OUTLINES_TOP
100
AcDbPolyline
 90
        2
 70
         0
 43
0.1
 10
109.75
 20
106.6
 10
109.75
 20
103.6
  0
LWPOLYLINE
  5
1EA
100
AcDbEntity
  8
ASSEMBLY_OUTLINES_TOP
100
AcDbPolyline
 90
        4
 70
         1
 43
0.1
 10
107.67
 20
34.65
 10
107.67
 20
56.95
 10
117.93
 20
56.95
 10
117.93
 20
34.65
  0
LWPOLYLINE
  5
1EB
100
AcDbEntity
  8
ASSEMBLY_OUTLINES_TOP
100
AcDbPolyline
 90
        2
 70
         1
 43
0.1
 10
116.43
 20
35.65
 42
-1.0
 10
117.43
 20
35.65
 42
-1.0
  0
LWPOLYLINE
  5
1EC
100
AcDbEntity
  8
ASSEMBLY_OUTLINES_TOP
100
AcDbPolyline
 90
        4
 70
         1
 43
0.1
 10
105.55
 20
82.05
 10
105.55
 20
83.35
 10
108.45
 20
83.35
 10
108.45
 20
82.05
  0
LWPOLYLINE
  5
1ED
100
AcDbEntity
  8
ASSEMBLY_OUTLINES_TOP
100
AcDbPolyline
 90
        4
 70
         1
 43
0.1
 10
118.75
 20
91.55
 10
118.75
 20
94.45
 10
120.05
 20
94.45
 10
120.05
 20
91.55
  0
LWPOLYLINE
  5
1EE
100
AcDbEntity
  8
ASSEMBLY_OUTLINES_TOP
100
AcDbPolyline
 90
        4
 70
         1
 43
0.1
 10
93.25
 20
24.5
 10
93.25
 20
27.3
 10
94.55
 20
27.3
 10
94.55
 20
24.5
  0
LWPOLYLINE
  5
1EF
100
AcDbEntity
  8
ASSEMBLY_OUTLINES_TOP
100
AcDbPolyline
 90
        4
 70
         1
 43
0.1
 10
96.85
 20
28.5
 10
96.85
 20
31.5
 10
100.55
 20
31.5
 10
100.55
 20
28.5
  0
LWPOLYLINE
  5
1F0
100
AcDbEntity
  8
ASSEMBLY_OUTLINES_TOP
100
AcDbPolyline
 90
        2
 70
         0
 43
0.1
 10
100.45
 20
31.5
 10
100.45
 20
28.5
  0
LWPOLYLINE
  5
1F1
100
AcDbEntity
  8
ASSEMBLY_OUTLINES_TOP
100
AcDbPolyline
 90
        2
 70
         0
 43
0.1
 10
100.35
 20
31.5
 10
100.35
 20
28.5
  0
LWPOLYLINE
  5
1F2
100
AcDbEntity
  8
ASSEMBLY_OUTLINES_TOP
100
AcDbPolyline
 90
        2
 70
         0
 43
0.1
 10
100.25
 20
31.5
 10
100.25
 20
28.5
  0
LWPOLYLINE
  5
1F3
100
AcDbEntity
  8
ASSEMBLY_OUTLINES_TOP
100
AcDbPolyline
 90
        2
 70
         0
 43
0.1
 10
100.15
 20
31.5
 10
100.15
 20
28.5
  0
LWPOLYLINE
  5
1F4
100
AcDbEntity
  8
ASSEMBLY_OUTLINES_TOP
100
AcDbPolyline
 90
        2
 70
         0
 43
0.1
 10
100.05
 20
31.5
 10
100.05
 20
28.5
  0
LWPOLYLINE
  5
1F5
100
AcDbEntity
  8
ASSEMBLY_OUTLINES_TOP
100
AcDbPolyline
 90
        2
 70
         0
 43
0.1
 10
99.95
 20
31.5
 10
99.95
 20
28.5
  0
LWPOLYLINE
  5
1F6
100
AcDbEntity
  8
ASSEMBLY_OUTLINES_TOP
100
AcDbPolyline
 90
        2
 70
         0
 43
0.1
 10
99.85
 20
31.5
 10
99.85
 20
28.5
  0
LWPOLYLINE
  5
1F7
100
AcDbEntity
  8
ASSEMBLY_OUTLINES_TOP
100
AcDbPolyline
 90
        2
 70
         0
 43
0.1
 10
99.75
 20
31.5
 10
99.75
 20
28.5
  0
LWPOLYLINE
  5
1F8
100
AcDbEntity
  8
ASSEMBLY_OUTLINES_TOP
100
AcDbPolyline
 90
        4
 70
         1
 43
0.1
 10
83.4
 20
63.65
 10
83.4
 20
64.95
 10
86.2
 20
64.95
 10
86.2
 20
63.65
  0
LWPOLYLINE
  5
1F9
100
AcDbEntity
  8
ASSEMBLY_OUTLINES_TOP
100
AcDbPolyline
 90
        4
 70
         1
 43
0.1
 10
109.85
 20
8.65
 10
109.85
 20
9.95
 10
112.75
 20
9.95
 10
112.75
 20
8.65
  0
LWPOLYLINE
  5
1FA
100
AcDbEntity
  8
ASSEMBLY_OUTLINES_TOP
100
AcDbPolyline
 90
        4
 70
         1
 10
52.645
 20
5.5
 10
52.645
 20
56.3
 10
57.725
 20
56.3
 10
57.725
 20
5.5
  0
CIRCLE
  5
1FB
100
AcDbEntity
  8
ASSEMBLY_OUTLINES_TOP
100
AcDbCircle
 10
56.46544
 20
6.768225
 30
0.0
 40
0.45
  0
HATCH
  5
1FC
100
AcDbEntity
  8
ASSEMBLY_OUTLINES_TOP
100
AcDbHatch
 10
0.0
 20
0.0
 30
0.0
210
0.0
220
0.0
230
1.0
  2
SOLID
 70
         1
 71
         1
 91
        1
 92
        1
 93
        1
 72
         2
 10
56.465440000000001
 20
6.7682250000000002
 40
0.45
 50
0.0
 51
360.0
 73
         1
 97
        1
330
1FB
 75
         0
 76
         1
 98
        1
 10
0.0
 20
0.0
  0
CIRCLE
  5
1FD
100
AcDbEntity
  8
ASSEMBLY_OUTLINES_TOP
100
AcDbCircle
 10
56.46544
 20
9.308225
 30
0.0
 40
0.45
  0
HATCH
  5
1FE
100
AcDbEntity
  8
ASSEMBLY_OUTLINES_TOP
100
AcDbHatch
 10
0.0
 20
0.0
 30
0.0
210
0.0
220
0.0
230
1.0
  2
SOLID
 70
         1
 71
         1
 91
        1
 92
        1
 93
        1
 72
         2
 10
56.465440000000001
 20
9.3082250000000002
 40
0.45
 50
0.0
 51
360.0
 73
         1
 97
        1
330
1FD
 75
         0
 76
         1
 98
        1
 10
0.0
 20
0.0
  0
CIRCLE
  5
1FF
100
AcDbEntity
  8
ASSEMBLY_OUTLINES_TOP
100
AcDbCircle
 10
56.46544
 20
11.848225
 30
0.0
 40
0.45
  0
HATCH
  5
200
100
AcDbEntity
  8
ASSEMBLY_OUTLINES_TOP
100
AcDbHatch
 10
0.0
 20
0.0
 30
0.0
210
0.0
220
0.0
230
1.0
  2
SOLID
 70
         1
 71
         1
 91
        1
 92
        1
 93
        1
 72
         2
 10
56.465440000000001
 20
11.848224999999999
 40
0.45
 50
0.0
 51
360.0
 73
         1
 97
        1
330
1FF
 75
         0
 76
         1
 98
        1
 10
0.0
 20
0.0
  0
CIRCLE
  5
201
100
AcDbEntity
  8
ASSEMBLY_OUTLINES_TOP
100
AcDbCircle
 10
56.46544
 20
14.388225
 30
0.0
 40
0.45
  0
HATCH
  5
202
100
AcDbEntity
  8
ASSEMBLY_OUTLINES_TOP
100
AcDbHatch
 10
0.0
 20
0.0
 30
0.0
210
0.0
220
0.0
230
1.0
  2
SOLID
 70
         1
 71
         1
 91
        1
 92
        1
 93
        1
 72
         2
 10
56.465440000000001
 20
14.388225
 40
0.45
 50
0.0
 51
360.0
 73
         1
 97
        1
330
201
 75
         0
 76
         1
 98
        1
 10
0.0
 20
0.0
  0
CIRCLE
  5
203
100
AcDbEntity
  8
ASSEMBLY_OUTLINES_TOP
100
AcDbCircle
 10
56.46544
 20
16.928225
 30
0.0
 40
0.45
  0
HATCH
  5
204
100
AcDbEntity
  8
ASSEMBLY_OUTLINES_TOP
100
AcDbHatch
 10
0.0
 20
0.0
 30
0.0
210
0.0
220
0.0
230
1.0
  2
SOLID
 70
         1
 71
         1
 91
        1
 92
        1
 93
        1
 72
         2
 10
56.465440000000001
 20
16.928225000000001
 40
0.45
 50
0.0
 51
360.0
 73
         1
 97
        1
330
203
 75
         0
 76
         1
 98
        1
 10
0.0
 20
0.0
  0
CIRCLE
  5
205
100
AcDbEntity
  8
ASSEMBLY_OUTLINES_TOP
100
AcDbCircle
 10
56.46544
 20
19.468225
 30
0.0
 40
0.45
  0
HATCH
  5
206
100
AcDbEntity
  8
ASSEMBLY_OUTLINES_TOP
100
AcDbHatch
 10
0.0
 20
0.0
 30
0.0
210
0.0
220
0.0
230
1.0
  2
SOLID
 70
         1
 71
         1
 91
        1
 92
        1
 93
        1
 72
         2
 10
56.465440000000001
 20
19.468225
 40
0.45
 50
0.0
 51
360.0
 73
         1
 97
        1
330
205
 75
         0
 76
         1
 98
        1
 10
0.0
 20
0.0
  0
CIRCLE
  5
207
100
AcDbEntity
  8
ASSEMBLY_OUTLINES_TOP
100
AcDbCircle
 10
56.46544
 20
22.008225
 30
0.0
 40
0.45
  0
HATCH
  5
208
100
AcDbEntity
  8
ASSEMBLY_OUTLINES_TOP
100
AcDbHatch
 10
0.0
 20
0.0
 30
0.0
210
0.0
220
0.0
230
1.0
  2
SOLID
 70
         1
 71
         1
 91
        1
 92
        1
 93
        1
 72
         2
 10
56.465440000000001
 20
22.008224999999999
 40
0.45
 50
0.0
 51
360.0
 73
         1
 97
        1
330
207
 75
         0
 76
         1
 98
        1
 10
0.0
 20
0.0
  0
CIRCLE
  5
209
100
AcDbEntity
  8
ASSEMBLY_OUTLINES_TOP
100
AcDbCircle
 10
56.46544
 20
24.548225
 30
0.0
 40
0.45
  0
HATCH
  5
20A
100
AcDbEntity
  8
ASSEMBLY_OUTLINES_TOP
100
AcDbHatch
 10
0.0
 20
0.0
 30
0.0
210
0.0
220
0.0
230
1.0
  2
SOLID
 70
         1
 71
         1
 91
        1
 92
        1
 93
        1
 72
         2
 10
56.465440000000001
 20
24.548224999999999
 40
0.45
 50
0.0
 51
360.0
 73
         1
 97
        1
330
209
 75
         0
 76
         1
 98
        1
 10
0.0
 20
0.0
  0
CIRCLE
  5
20B
100
AcDbEntity
  8
ASSEMBLY_OUTLINES_TOP
100
AcDbCircle
 10
56.46544
 20
27.088225
 30
0.0
 40
0.45
  0
HATCH
  5
20C
100
AcDbEntity
  8
ASSEMBLY_OUTLINES_TOP
100
AcDbHatch
 10
0.0
 20
0.0
 30
0.0
210
0.0
220
0.0
230
1.0
  2
SOLID
 70
         1
 71
         1
 91
        1
 92
        1
 93
        1
 72
         2
 10
56.465440000000001
 20
27.088225000000001
 40
0.45
 50
0.0
 51
360.0
 73
         1
 97
        1
330
20B
 75
         0
 76
         1
 98
        1
 10
0.0
 20
0.0
  0
CIRCLE
  5
20D
100
AcDbEntity
  8
ASSEMBLY_OUTLINES_TOP
100
AcDbCircle
 10
56.46544
 20
29.628225
 30
0.0
 40
0.45
  0
HATCH
  5
20E
100
AcDbEntity
  8
ASSEMBLY_OUTLINES_TOP
100
AcDbHatch
 10
0.0
 20
0.0
 30
0.0
210
0.0
220
0.0
230
1.0
  2
SOLID
 70
         1
 71
         1
 91
        1
 92
        1
 93
        1
 72
         2
 10
56.465440000000001
 20
29.628225
 40
0.45
 50
0.0
 51
360.0
 73
         1
 97
        1
330
20D
 75
         0
 76
         1
 98
        1
 10
0.0
 20
0.0
  0
CIRCLE
  5
20F
100
AcDbEntity
  8
ASSEMBLY_OUTLINES_TOP
100
AcDbCircle
 10
56.47456
 20
32.171774
 30
0.0
 40
0.45
  0
HATCH
  5
210
100
AcDbEntity
  8
ASSEMBLY_OUTLINES_TOP
100
AcDbHatch
 10
0.0
 20
0.0
 30
0.0
210
0.0
220
0.0
230
1.0
  2
SOLID
 70
         1
 71
         1
 91
        1
 92
        1
 93
        1
 72
         2
 10
56.474559999999997
 20
32.171773999999999
 40
0.45
 50
0.0
 51
360.0
 73
         1
 97
        1
330
20F
 75
         0
 76
         1
 98
        1
 10
0.0
 20
0.0
  0
CIRCLE
  5
211
100
AcDbEntity
  8
ASSEMBLY_OUTLINES_TOP
100
AcDbCircle
 10
56.47456
 20
34.711774
 30
0.0
 40
0.45
  0
HATCH
  5
212
100
AcDbEntity
  8
ASSEMBLY_OUTLINES_TOP
100
AcDbHatch
 10
0.0
 20
0.0
 30
0.0
210
0.0
220
0.0
230
1.0
  2
SOLID
 70
         1
 71
         1
 91
        1
 92
        1
 93
        1
 72
         2
 10
56.474559999999997
 20
34.711773999999998
 40
0.45
 50
0.0
 51
360.0
 73
         1
 97
        1
330
211
 75
         0
 76
         1
 98
        1
 10
0.0
 20
0.0
  0
CIRCLE
  5
213
100
AcDbEntity
  8
ASSEMBLY_OUTLINES_TOP
100
AcDbCircle
 10
56.47456
 20
37.251774
 30
0.0
 40
0.45
  0
HATCH
  5
214
100
AcDbEntity
  8
ASSEMBLY_OUTLINES_TOP
100
AcDbHatch
 10
0.0
 20
0.0
 30
0.0
210
0.0
220
0.0
230
1.0
  2
SOLID
 70
         1
 71
         1
 91
        1
 92
        1
 93
        1
 72
         2
 10
56.474559999999997
 20
37.251773999999997
 40
0.45
 50
0.0
 51
360.0
 73
         1
 97
        1
330
213
 75
         0
 76
         1
 98
        1
 10
0.0
 20
0.0
  0
CIRCLE
  5
215
100
AcDbEntity
  8
ASSEMBLY_OUTLINES_TOP
100
AcDbCircle
 10
56.47456
 20
39.791774
 30
0.0
 40
0.45
  0
HATCH
  5
216
100
AcDbEntity
  8
ASSEMBLY_OUTLINES_TOP
100
AcDbHatch
 10
0.0
 20
0.0
 30
0.0
210
0.0
220
0.0
230
1.0
  2
SOLID
 70
         1
 71
         1
 91
        1
 92
        1
 93
        1
 72
         2
 10
56.474559999999997
 20
39.791773999999997
 40
0.45
 50
0.0
 51
360.0
 73
         1
 97
        1
330
215
 75
         0
 76
         1
 98
        1
 10
0.0
 20
0.0
  0
CIRCLE
  5
217
100
AcDbEntity
  8
ASSEMBLY_OUTLINES_TOP
100
AcDbCircle
 10
56.47456
 20
42.331774
 30
0.0
 40
0.45
  0
HATCH
  5
218
100
AcDbEntity
  8
ASSEMBLY_OUTLINES_TOP
100
AcDbHatch
 10
0.0
 20
0.0
 30
0.0
210
0.0
220
0.0
230
1.0
  2
SOLID
 70
         1
 71
         1
 91
        1
 92
        1
 93
        1
 72
         2
 10
56.474559999999997
 20
42.331774000000003
 40
0.45
 50
0.0
 51
360.0
 73
         1
 97
        1
330
217
 75
         0
 76
         1
 98
        1
 10
0.0
 20
0.0
  0
CIRCLE
  5
219
100
AcDbEntity
  8
ASSEMBLY_OUTLINES_TOP
100
AcDbCircle
 10
56.47456
 20
44.871774
 30
0.0
 40
0.45
  0
HATCH
  5
21A
100
AcDbEntity
  8
ASSEMBLY_OUTLINES_TOP
100
AcDbHatch
 10
0.0
 20
0.0
 30
0.0
210
0.0
220
0.0
230
1.0
  2
SOLID
 70
         1
 71
         1
 91
        1
 92
        1
 93
        1
 72
         2
 10
56.474559999999997
 20
44.871774000000002
 40
0.45
 50
0.0
 51
360.0
 73
         1
 97
        1
330
219
 75
         0
 76
         1
 98
        1
 10
0.0
 20
0.0
  0
CIRCLE
  5
21B
100
AcDbEntity
  8
ASSEMBLY_OUTLINES_TOP
100
AcDbCircle
 10
56.47456
 20
47.411774
 30
0.0
 40
0.45
  0
HATCH
  5
21C
100
AcDbEntity
  8
ASSEMBLY_OUTLINES_TOP
100
AcDbHatch
 10
0.0
 20
0.0
 30
0.0
210
0.0
220
0.0
230
1.0
  2
SOLID
 70
         1
 71
         1
 91
        1
 92
        1
 93
        1
 72
         2
 10
56.474559999999997
 20
47.411774000000001
 40
0.45
 50
0.0
 51
360.0
 73
         1
 97
        1
330
21B
 75
         0
 76
         1
 98
        1
 10
0.0
 20
0.0
  0
CIRCLE
  5
21D
100
AcDbEntity
  8
ASSEMBLY_OUTLINES_TOP
100
AcDbCircle
 10
56.47456
 20
49.951774
 30
0.0
 40
0.45
  0
HATCH
  5
21E
100
AcDbEntity
  8
ASSEMBLY_OUTLINES_TOP
100
AcDbHatch
 10
0.0
 20
0.0
 30
0.0
210
0.0
220
0.0
230
1.0
  2
SOLID
 70
         1
 71
         1
 91
        1
 92
        1
 93
        1
 72
         2
 10
56.474559999999997
 20
49.951774
 40
0.45
 50
0.0
 51
360.0
 73
         1
 97
        1
330
21D
 75
         0
 76
         1
 98
        1
 10
0.0
 20
0.0
  0
CIRCLE
  5
21F
100
AcDbEntity
  8
ASSEMBLY_OUTLINES_TOP
100
AcDbCircle
 10
56.47456
 20
52.491774
 30
0.0
 40
0.45
  0
HATCH
  5
220
100
AcDbEntity
  8
ASSEMBLY_OUTLINES_TOP
100
AcDbHatch
 10
0.0
 20
0.0
 30
0.0
210
0.0
220
0.0
230
1.0
  2
SOLID
 70
         1
 71
         1
 91
        1
 92
        1
 93
        1
 72
         2
 10
56.474559999999997
 20
52.491773999999999
 40
0.45
 50
0.0
 51
360.0
 73
         1
 97
        1
330
21F
 75
         0
 76
         1
 98
        1
 10
0.0
 20
0.0
  0
CIRCLE
  5
221
100
AcDbEntity
  8
ASSEMBLY_OUTLINES_TOP
100
AcDbCircle
 10
56.47456
 20
55.031774
 30
0.0
 40
0.45
  0
HATCH
  5
222
100
AcDbEntity
  8
ASSEMBLY_OUTLINES_TOP
100
AcDbHatch
 10
0.0
 20
0.0
 30
0.0
210
0.0
220
0.0
230
1.0
  2
SOLID
 70
         1
 71
         1
 91
        1
 92
        1
 93
        1
 72
         2
 10
56.474559999999997
 20
55.031773999999999
 40
0.45
 50
0.0
 51
360.0
 73
         1
 97
        1
330
221
 75
         0
 76
         1
 98
        1
 10
0.0
 20
0.0
  0
CIRCLE
  5
223
100
AcDbEntity
  8
ASSEMBLY_OUTLINES_TOP
100
AcDbCircle
 10
53.93
 20
6.77
 30
0.0
 40
0.45
  0
HATCH
  5
224
100
AcDbEntity
  8
ASSEMBLY_OUTLINES_TOP
100
AcDbHatch
 10
0.0
 20
0.0
 30
0.0
210
0.0
220
0.0
230
1.0
  2
SOLID
 70
         1
 71
         1
 91
        1
 92
        1
 93
        1
 72
         2
 10
53.93
 20
6.7699999999999996
 40
0.45
 50
0.0
 51
360.0
 73
         1
 97
        1
330
223
 75
         0
 76
         1
 98
        1
 10
0.0
 20
0.0
  0
CIRCLE
  5
225
100
AcDbEntity
  8
ASSEMBLY_OUTLINES_TOP
100
AcDbCircle
 10
53.93
 20
9.31
 30
0.0
 40
0.45
  0
HATCH
  5
226
100
AcDbEntity
  8
ASSEMBLY_OUTLINES_TOP
100
AcDbHatch
 10
0.0
 20
0.0
 30
0.0
210
0.0
220
0.0
230
1.0
  2
SOLID
 70
         1
 71
         1
 91
        1
 92
        1
 93
        1
 72
         2
 10
53.93
 20
9.3100000000000005
 40
0.45
 50
0.0
 51
360.0
 73
         1
 97
        1
330
225
 75
         0
 76
         1
 98
        1
 10
0.0
 20
0.0
  0
CIRCLE
  5
227
100
AcDbEntity
  8
ASSEMBLY_OUTLINES_TOP
100
AcDbCircle
 10
53.93
 20
11.85
 30
0.0
 40
0.45
  0
HATCH
  5
228
100
AcDbEntity
  8
ASSEMBLY_OUTLINES_TOP
100
AcDbHatch
 10
0.0
 20
0.0
 30
0.0
210
0.0
220
0.0
230
1.0
  2
SOLID
 70
         1
 71
         1
 91
        1
 92
        1
 93
        1
 72
         2
 10
53.93
 20
11.85
 40
0.45
 50
0.0
 51
360.0
 73
         1
 97
        1
330
227
 75
         0
 76
         1
 98
        1
 10
0.0
 20
0.0
  0
CIRCLE
  5
229
100
AcDbEntity
  8
ASSEMBLY_OUTLINES_TOP
100
AcDbCircle
 10
53.93
 20
14.39
 30
0.0
 40
0.45
  0
HATCH
  5
22A
100
AcDbEntity
  8
ASSEMBLY_OUTLINES_TOP
100
AcDbHatch
 10
0.0
 20
0.0
 30
0.0
210
0.0
220
0.0
230
1.0
  2
SOLID
 70
         1
 71
         1
 91
        1
 92
        1
 93
        1
 72
         2
 10
53.93
 20
14.390000000000001
 40
0.45
 50
0.0
 51
360.0
 73
         1
 97
        1
330
229
 75
         0
 76
         1
 98
        1
 10
0.0
 20
0.0
  0
CIRCLE
  5
22B
100
AcDbEntity
  8
ASSEMBLY_OUTLINES_TOP
100
AcDbCircle
 10
53.93
 20
16.93
 30
0.0
 40
0.45
  0
HATCH
  5
22C
100
AcDbEntity
  8
ASSEMBLY_OUTLINES_TOP
100
AcDbHatch
 10
0.0
 20
0.0
 30
0.0
210
0.0
220
0.0
230
1.0
  2
SOLID
 70
         1
 71
         1
 91
        1
 92
        1
 93
        1
 72
         2
 10
53.93
 20
16.93
 40
0.45
 50
0.0
 51
360.0
 73
         1
 97
        1
330
22B
 75
         0
 76
         1
 98
        1
 10
0.0
 20
0.0
  0
CIRCLE
  5
22D
100
AcDbEntity
  8
ASSEMBLY_OUTLINES_TOP
100
AcDbCircle
 10
53.93
 20
19.47
 30
0.0
 40
0.45
  0
HATCH
  5
22E
100
AcDbEntity
  8
ASSEMBLY_OUTLINES_TOP
100
AcDbHatch
 10
0.0
 20
0.0
 30
0.0
210
0.0
220
0.0
230
1.0
  2
SOLID
 70
         1
 71
         1
 91
        1
 92
        1
 93
        1
 72
         2
 10
53.93
 20
19.469999999999999
 40
0.45
 50
0.0
 51
360.0
 73
         1
 97
        1
330
22D
 75
         0
 76
         1
 98
        1
 10
0.0
 20
0.0
  0
CIRCLE
  5
22F
100
AcDbEntity
  8
ASSEMBLY_OUTLINES_TOP
100
AcDbCircle
 10
53.93
 20
22.01
 30
0.0
 40
0.45
  0
HATCH
  5
230
100
AcDbEntity
  8
ASSEMBLY_OUTLINES_TOP
100
AcDbHatch
 10
0.0
 20
0.0
 30
0.0
210
0.0
220
0.0
230
1.0
  2
SOLID
 70
         1
 71
         1
 91
        1
 92
        1
 93
        1
 72
         2
 10
53.93
 20
22.010000000000002
 40
0.45
 50
0.0
 51
360.0
 73
         1
 97
        1
330
22F
 75
         0
 76
         1
 98
        1
 10
0.0
 20
0.0
  0
CIRCLE
  5
231
100
AcDbEntity
  8
ASSEMBLY_OUTLINES_TOP
100
AcDbCircle
 10
53.93
 20
24.55
 30
0.0
 40
0.45
  0
HATCH
  5
232
100
AcDbEntity
  8
ASSEMBLY_OUTLINES_TOP
100
AcDbHatch
 10
0.0
 20
0.0
 30
0.0
210
0.0
220
0.0
230
1.0
  2
SOLID
 70
         1
 71
         1
 91
        1
 92
        1
 93
        1
 72
         2
 10
53.93
 20
24.550000000000001
 40
0.45
 50
0.0
 51
360.0
 73
         1
 97
        1
330
231
 75
         0
 76
         1
 98
        1
 10
0.0
 20
0.0
  0
CIRCLE
  5
233
100
AcDbEntity
  8
ASSEMBLY_OUTLINES_TOP
100
AcDbCircle
 10
53.93
 20
27.09
 30
0.0
 40
0.45
  0
HATCH
  5
234
100
AcDbEntity
  8
ASSEMBLY_OUTLINES_TOP
100
AcDbHatch
 10
0.0
 20
0.0
 30
0.0
210
0.0
220
0.0
230
1.0
  2
SOLID
 70
         1
 71
         1
 91
        1
 92
        1
 93
        1
 72
         2
 10
53.93
 20
27.09
 40
0.45
 50
0.0
 51
360.0
 73
         1
 97
        1
330
233
 75
         0
 76
         1
 98
        1
 10
0.0
 20
0.0
  0
CIRCLE
  5
235
100
AcDbEntity
  8
ASSEMBLY_OUTLINES_TOP
100
AcDbCircle
 10
53.93
 20
29.63
 30
0.0
 40
0.45
  0
HATCH
  5
236
100
AcDbEntity
  8
ASSEMBLY_OUTLINES_TOP
100
AcDbHatch
 10
0.0
 20
0.0
 30
0.0
210
0.0
220
0.0
230
1.0
  2
SOLID
 70
         1
 71
         1
 91
        1
 92
        1
 93
        1
 72
         2
 10
53.93
 20
29.629999999999999
 40
0.45
 50
0.0
 51
360.0
 73
         1
 97
        1
330
235
 75
         0
 76
         1
 98
        1
 10
0.0
 20
0.0
  0
CIRCLE
  5
237
100
AcDbEntity
  8
ASSEMBLY_OUTLINES_TOP
100
AcDbCircle
 10
53.92912
 20
32.173549
 30
0.0
 40
0.45
  0
HATCH
  5
238
100
AcDbEntity
  8
ASSEMBLY_OUTLINES_TOP
100
AcDbHatch
 10
0.0
 20
0.0
 30
0.0
210
0.0
220
0.0
230
1.0
  2
SOLID
 70
         1
 71
         1
 91
        1
 92
        1
 93
        1
 72
         2
 10
53.929119999999998
 20
32.173549000000001
 40
0.45
 50
0.0
 51
360.0
 73
         1
 97
        1
330
237
 75
         0
 76
         1
 98
        1
 10
0.0
 20
0.0
  0
CIRCLE
  5
239
100
AcDbEntity
  8
ASSEMBLY_OUTLINES_TOP
100
AcDbCircle
 10
53.92912
 20
34.713549
 30
0.0
 40
0.45
  0
HATCH
  5
23A
100
AcDbEntity
  8
ASSEMBLY_OUTLINES_TOP
100
AcDbHatch
 10
0.0
 20
0.0
 30
0.0
210
0.0
220
0.0
230
1.0
  2
SOLID
 70
         1
 71
         1
 91
        1
 92
        1
 93
        1
 72
         2
 10
53.929119999999998
 20
34.713549
 40
0.45
 50
0.0
 51
360.0
 73
         1
 97
        1
330
239
 75
         0
 76
         1
 98
        1
 10
0.0
 20
0.0
  0
CIRCLE
  5
23B
100
AcDbEntity
  8
ASSEMBLY_OUTLINES_TOP
100
AcDbCircle
 10
53.92912
 20
37.253549
 30
0.0
 40
0.45
  0
HATCH
  5
23C
100
AcDbEntity
  8
ASSEMBLY_OUTLINES_TOP
100
AcDbHatch
 10
0.0
 20
0.0
 30
0.0
210
0.0
220
0.0
230
1.0
  2
SOLID
 70
         1
 71
         1
 91
        1
 92
        1
 93
        1
 72
         2
 10
53.929119999999998
 20
37.253549
 40
0.45
 50
0.0
 51
360.0
 73
         1
 97
        1
330
23B
 75
         0
 76
         1
 98
        1
 10
0.0
 20
0.0
  0
CIRCLE
  5
23D
100
AcDbEntity
  8
ASSEMBLY_OUTLINES_TOP
100
AcDbCircle
 10
53.92912
 20
39.793549
 30
0.0
 40
0.45
  0
HATCH
  5
23E
100
AcDbEntity
  8
ASSEMBLY_OUTLINES_TOP
100
AcDbHatch
 10
0.0
 20
0.0
 30
0.0
210
0.0
220
0.0
230
1.0
  2
SOLID
 70
         1
 71
         1
 91
        1
 92
        1
 93
        1
 72
         2
 10
53.929119999999998
 20
39.793548999999999
 40
0.45
 50
0.0
 51
360.0
 73
         1
 97
        1
330
23D
 75
         0
 76
         1
 98
        1
 10
0.0
 20
0.0
  0
CIRCLE
  5
23F
100
AcDbEntity
  8
ASSEMBLY_OUTLINES_TOP
100
AcDbCircle
 10
53.92912
 20
42.333549
 30
0.0
 40
0.45
  0
HATCH
  5
240
100
AcDbEntity
  8
ASSEMBLY_OUTLINES_TOP
100
AcDbHatch
 10
0.0
 20
0.0
 30
0.0
210
0.0
220
0.0
230
1.0
  2
SOLID
 70
         1
 71
         1
 91
        1
 92
        1
 93
        1
 72
         2
 10
53.929119999999998
 20
42.333548999999998
 40
0.45
 50
0.0
 51
360.0
 73
         1
 97
        1
330
23F
 75
         0
 76
         1
 98
        1
 10
0.0
 20
0.0
  0
CIRCLE
  5
241
100
AcDbEntity
  8
ASSEMBLY_OUTLINES_TOP
100
AcDbCircle
 10
53.92912
 20
44.873549
 30
0.0
 40
0.45
  0
HATCH
  5
242
100
AcDbEntity
  8
ASSEMBLY_OUTLINES_TOP
100
AcDbHatch
 10
0.0
 20
0.0
 30
0.0
210
0.0
220
0.0
230
1.0
  2
SOLID
 70
         1
 71
         1
 91
        1
 92
        1
 93
        1
 72
         2
 10
53.929119999999998
 20
44.873548999999997
 40
0.45
 50
0.0
 51
360.0
 73
         1
 97
        1
330
241
 75
         0
 76
         1
 98
        1
 10
0.0
 20
0.0
  0
CIRCLE
  5
243
100
AcDbEntity
  8
ASSEMBLY_OUTLINES_TOP
100
AcDbCircle
 10
53.92912
 20
47.413549
 30
0.0
 40
0.45
  0
HATCH
  5
244
100
AcDbEntity
  8
ASSEMBLY_OUTLINES_TOP
100
AcDbHatch
 10
0.0
 20
0.0
 30
0.0
210
0.0
220
0.0
230
1.0
  2
SOLID
 70
         1
 71
         1
 91
        1
 92
        1
 93
        1
 72
         2
 10
53.929119999999998
 20
47.413549000000003
 40
0.45
 50
0.0
 51
360.0
 73
         1
 97
        1
330
243
 75
         0
 76
         1
 98
        1
 10
0.0
 20
0.0
  0
CIRCLE
  5
245
100
AcDbEntity
  8
ASSEMBLY_OUTLINES_TOP
100
AcDbCircle
 10
53.92912
 20
49.953549
 30
0.0
 40
0.45
  0
HATCH
  5
246
100
AcDbEntity
  8
ASSEMBLY_OUTLINES_TOP
100
AcDbHatch
 10
0.0
 20
0.0
 30
0.0
210
0.0
220
0.0
230
1.0
  2
SOLID
 70
         1
 71
         1
 91
        1
 92
        1
 93
        1
 72
         2
 10
53.929119999999998
 20
49.953549000000002
 40
0.45
 50
0.0
 51
360.0
 73
         1
 97
        1
330
245
 75
         0
 76
         1
 98
        1
 10
0.0
 20
0.0
  0
CIRCLE
  5
247
100
AcDbEntity
  8
ASSEMBLY_OUTLINES_TOP
100
AcDbCircle
 10
53.92912
 20
52.493549
 30
0.0
 40
0.45
  0
HATCH
  5
248
100
AcDbEntity
  8
ASSEMBLY_OUTLINES_TOP
100
AcDbHatch
 10
0.0
 20
0.0
 30
0.0
210
0.0
220
0.0
230
1.0
  2
SOLID
 70
         1
 71
         1
 91
        1
 92
        1
 93
        1
 72
         2
 10
53.929119999999998
 20
52.493549000000002
 40
0.45
 50
0.0
 51
360.0
 73
         1
 97
        1
330
247
 75
         0
 76
         1
 98
        1
 10
0.0
 20
0.0
  0
CIRCLE
  5
249
100
AcDbEntity
  8
ASSEMBLY_OUTLINES_TOP
100
AcDbCircle
 10
53.92912
 20
55.033549
 30
0.0
 40
0.45
  0
HATCH
  5
24A
100
AcDbEntity
  8
ASSEMBLY_OUTLINES_TOP
100
AcDbHatch
 10
0.0
 20
0.0
 30
0.0
210
0.0
220
0.0
230
1.0
  2
SOLID
 70
         1
 71
         1
 91
        1
 92
        1
 93
        1
 72
         2
 10
53.929119999999998
 20
55.033549000000001
 40
0.45
 50
0.0
 51
360.0
 73
         1
 97
        1
330
249
 75
         0
 76
         1
 98
        1
 10
0.0
 20
0.0
  0
LWPOLYLINE
  5
24B
100
AcDbEntity
  8
ASSEMBLY_OUTLINES_TOP
100
AcDbPolyline
 90
        4
 70
         1
 10
125.148995
 20
90.551663
 10
125.148995
 20
103.951663
 10
137.248995
 20
103.951663
 10
137.248995
 20
90.551663
  0
LWPOLYLINE
  5
24C
100
AcDbEntity
  8
ASSEMBLY_OUTLINES_TOP
100
AcDbPolyline
 90
        4
 70
         1
 10
137.248995
 20
91.251663
 10
137.248995
 20
102.251663
 10
144.248995
 20
102.251663
 10
144.248995
 20
91.251663
  0
LWPOLYLINE
  5
24D
100
AcDbEntity
  8
ASSEMBLY_OUTLINES_TOP
100
AcDbPolyline
 90
        4
 70
         1
 43
0.1
 10
117.35
 20
82.55
 10
117.35
 20
85.45
 10
118.65
 20
85.45
 10
118.65
 20
82.55
  0
LWPOLYLINE
  5
24E
100
AcDbEntity
  8
ASSEMBLY_OUTLINES_TOP
100
AcDbPolyline
 90
        4
 70
         1
 43
0.1
 10
118.45
 20
97.55
 10
118.45
 20
98.85
 10
121.35
 20
98.85
 10
121.35
 20
97.55
  0
LWPOLYLINE
  5
24F
100
AcDbEntity
  8
ASSEMBLY_OUTLINES_TOP
100
AcDbPolyline
 90
        4
 70
         1
 10
112.03
 20
59.23
 10
112.03
 20
64.31
 10
114.57
 20
64.31
 10
114.57
 20
59.23
  0
LWPOLYLINE
  5
250
100
AcDbEntity
  8
ASSEMBLY_OUTLINES_TOP
100
AcDbPolyline
 90
        4
 70
         1
 43
0.1
 10
86.5
 20
24.25
 10
86.5
 20
27.55
 10
88.3
 20
27.55
 10
88.3
 20
24.25
  0
LWPOLYLINE
  5
251
100
AcDbEntity
  8
ASSEMBLY_OUTLINES_TOP
100
AcDbPolyline
 90
        4
 70
         1
 43
0.1
 10
121.65
 20
105.25
 10
121.65
 20
106.55
 10
124.55
 20
106.55
 10
124.55
 20
105.25
  0
LWPOLYLINE
  5
252
100
AcDbEntity
  8
ASSEMBLY_OUTLINES_TOP
100
AcDbPolyline
 90
        4
 70
         1
 43
0.1
 10
107.35
 20
7.25
 10
107.35
 20
10.15
 10
108.65
 20
10.15
 10
108.65
 20
7.25
  0
LWPOLYLINE
  5
253
100
AcDbEntity
  8
ASSEMBLY_OUTLINES_TOP
100
AcDbPolyline
 90
        4
 70
         1
 43
0.1
 10
67.6
 20
98.05
 10
67.6
 20
99.35
 10
70.4
 20
99.35
 10
70.4
 20
98.05
  0
LWPOLYLINE
  5
254
100
AcDbEntity
  8
ASSEMBLY_OUTLINES_TOP
100
AcDbPolyline
 90
        4
 70
         1
 10
105.33
 20
83.63
 10
105.33
 20
86.17
 10
110.41
 20
86.17
 10
110.41
 20
83.63
  0
LWPOLYLINE
  5
255
100
AcDbEntity
  8
ASSEMBLY_OUTLINES_TOP
100
AcDbPolyline
 90
        4
 70
         1
 43
0.1
 10
104.05
 20
43.5
 10
104.05
 20
46.3
 10
105.35
 20
46.3
 10
105.35
 20
43.5
  0
LWPOLYLINE
  5
256
100
AcDbEntity
  8
ASSEMBLY_OUTLINES_TOP
100
AcDbPolyline
 90
        4
 70
         1
 43
0.1
 10
118.45
 20
99.55
 10
118.45
 20
100.85
 10
121.35
 20
100.85
 10
121.35
 20
99.55
  0
TEXT
  5
258
100
AcDbEntity
  8
ASSEMBLY_REF_DES_TOP
100
AcDbText
 10
121.0
 20
84.43
 30
0.0
 40
1.0
  1
J2
 50
90.0
  7
GOST_TYPE_B
 72
         2
 11
121.0
 21
85.7
 31
0.0
100
AcDbText
 73
         1
  0
TEXT
  5
259
100
AcDbEntity
  8
ASSEMBLY_REF_DES_TOP
100
AcDbText
 10
116.4435
 20
61.115
 30
0.0
 40
1.0
  1
J5
 50
90.0
  7
GOST_TYPE_B
 72
         1
 11
115.95
 21
61.75
 31
0.0
100
AcDbText
 73
         2
  0
TEXT
  5
25A
100
AcDbEntity
  8
ASSEMBLY_REF_DES_TOP
100
AcDbText
 10
131.9
 20
36.227
 30
0.0
 40
1.0
  1
X7
 50
90.0
  7
GOST_TYPE_B
 72
         2
 11
131.9
 21
37.79
 31
0.0
100
AcDbText
 73
         1
  0
TEXT
  5
25B
100
AcDbEntity
  8
ASSEMBLY_REF_DES_TOP
100
AcDbText
 10
68.8435
 20
70.026
 30
0.0
 40
1.0
  1
R45
 50
90.0
  7
GOST_TYPE_B
 72
         1
 11
68.35
 21
71.15
 31
0.0
100
AcDbText
 73
         2
  0
TEXT
  5
25C
100
AcDbEntity
  8
ASSEMBLY_REF_DES_TOP
100
AcDbText
 10
111.2935
 20
73.816
 30
0.0
 40
1.0
  1
C5
 50
90.0
  7
GOST_TYPE_B
 72
         1
 11
110.8
 21
74.5
 31
0.0
100
AcDbText
 73
         2
  0
TEXT
  5
25D
100
AcDbEntity
  8
ASSEMBLY_REF_DES_TOP
100
AcDbText
 10
85.2935
 20
65.116
 30
0.0
 40
1.0
  1
C7
 50
90.0
  7
GOST_TYPE_B
 72
         1
 11
84.8
 21
65.8
 31
0.0
100
AcDbText
 73
         2
  0
TEXT
  5
25E
100
AcDbEntity
  8
ASSEMBLY_REF_DES_TOP
100
AcDbText
 10
65.964775
 20
39.451725
 30
0.0
 40
1.0
  1
R24
 50
180.0
  7
GOST_TYPE_B
 72
         1
 11
64.841775
 21
38.958225
 31
0.0
100
AcDbText
 73
         2
  0
TEXT
  5
25F
100
AcDbEntity
  8
ASSEMBLY_REF_DES_TOP
100
AcDbText
 10
113.3935
 20
94.5275
 30
0.0
 40
1.0
  1
VD3
 50
90.0
  7
GOST_TYPE_B
 72
         1
 11
112.9
 21
95.7
 31
0.0
100
AcDbText
 73
         2
  0
TEXT
  5
260
100
AcDbEntity
  8
ASSEMBLY_REF_DES_TOP
100
AcDbText
 10
61.5935
 20
58.474
 30
0.0
 40
1.0
  1
DD1
 50
90.0
  7
GOST_TYPE_B
 72
         1
 11
61.1
 21
59.5
 31
0.0
100
AcDbText
 73
         2
  0
TEXT
  5
261
100
AcDbEntity
  8
ASSEMBLY_REF_DES_TOP
100
AcDbText
 10
74.616275
 20
50.451725
 30
0.0
 40
1.0
  1
R23
 50
180.0
  7
GOST_TYPE_B
 72
         1
 11
73.541775
 21
49.958225
 31
0.0
100
AcDbText
 73
         2
  0
TEXT
  5
262
100
AcDbEntity
  8
ASSEMBLY_REF_DES_TOP
100
AcDbText
 10
86.9635
 20
111.6415
 30
0.0
 40
1.0
  1
X1
 50
90.0
  7
GOST_TYPE_B
 72
         1
 11
86.47
 21
112.325
 31
0.0
100
AcDbText
 73
         2
  0
TEXT
  5
263
100
AcDbEntity
  8
ASSEMBLY_REF_DES_TOP
100
AcDbText
 10
111.3935
 20
17.925
 30
0.0
 40
1.0
  1
R35
 50
90.0
  7
GOST_TYPE_B
 72
         1
 11
110.9
 21
19.0
 31
0.0
100
AcDbText
 73
         2
  0
TEXT
  5
264
100
AcDbEntity
  8
ASSEMBLY_REF_DES_TOP
100
AcDbText
 10
73.9935
 20
56.423
 30
0.0
 40
1.0
  1
C14
 50
90.0
  7
GOST_TYPE_B
 72
         1
 11
73.5
 21
57.4
 31
0.0
100
AcDbText
 73
         2
  0
TEXT
  5
265
100
AcDbEntity
  8
ASSEMBLY_REF_DES_TOP
100
AcDbText
 10
78.2935
 20
61.772
 30
0.0
 40
1.0
  1
C10
 50
90.0
  7
GOST_TYPE_B
 72
         1
 11
77.8
 21
62.7
 31
0.0
100
AcDbText
 73
         2
  0
TEXT
  5
266
100
AcDbEntity
  8
ASSEMBLY_REF_DES_TOP
100
AcDbText
 10
116.564775
 20
30.351725
 30
0.0
 40
1.0
  1
R28
 50
180.0
  7
GOST_TYPE_B
 72
         1
 11
115.441775
 21
29.858225
 31
0.0
100
AcDbText
 73
         2
  0
TEXT
  5
267
100
AcDbEntity
  8
ASSEMBLY_REF_DES_TOP
100
AcDbText
 10
121.7935
 20
94.867
 30
0.0
 40
1.0
  1
C4
 50
90.0
  7
GOST_TYPE_B
 72
         1
 11
121.3
 21
95.6
 31
0.0
100
AcDbText
 73
         2
  0
TEXT
  5
268
100
AcDbEntity
  8
ASSEMBLY_REF_DES_TOP
100
AcDbText
 10
121.3935
 20
54.872
 30
0.0
 40
1.0
  1
C15
 50
90.0
  7
GOST_TYPE_B
 72
         1
 11
120.9
 21
55.8
 31
0.0
100
AcDbText
 73
         2
  0
TEXT
  5
269
100
AcDbEntity
  8
ASSEMBLY_REF_DES_TOP
100
AcDbText
 10
112.567775
 20
12.751725
 30
0.0
 40
1.0
  1
C39
 50
180.0
  7
GOST_TYPE_B
 72
         1
 11
111.541775
 21
12.258225
 31
0.0
100
AcDbText
 73
         2
  0
TEXT
  5
26A
100
AcDbEntity
  8
ASSEMBLY_REF_DES_TOP
100
AcDbText
 10
72.3935
 20
52.225
 30
0.0
 40
1.0
  1
R22
 50
90.0
  7
GOST_TYPE_B
 72
         1
 11
71.9
 21
53.3
 31
0.0
100
AcDbText
 73
         2
  0
TEXT
  5
26B
100
AcDbEntity
  8
ASSEMBLY_REF_DES_TOP
100
AcDbText
 10
65.916275
 20
32.951725
 30
0.0
 40
1.0
  1
R27
 50
180.0
  7
GOST_TYPE_B
 72
         1
 11
64.841775
 21
32.458225
 31
0.0
100
AcDbText
 73
         2
  0
TEXT
  5
26C
100
AcDbEntity
  8
ASSEMBLY_REF_DES_TOP
100
AcDbText
 10
122.9935
 20
62.523
 30
0.0
 40
1.0
  1
R16
 50
90.0
  7
GOST_TYPE_B
 72
         1
 11
122.5
 21
63.5
 31
0.0
100
AcDbText
 73
         2
  0
TEXT
  5
26D
100
AcDbEntity
  8
ASSEMBLY_REF_DES_TOP
100
AcDbText
 10
122.3935
 20
89.518
 30
0.0
 40
1.0
  1
R8
 50
90.0
  7
GOST_TYPE_B
 72
         1
 11
121.9
 21
90.3
 31
0.0
100
AcDbText
 73
         2
  0
TEXT
  5
26E
100
AcDbEntity
  8
ASSEMBLY_REF_DES_TOP
100
AcDbText
 10
107.5935
 20
14.525
 30
0.0
 40
1.0
  1
R39
 50
90.0
  7
GOST_TYPE_B
 72
         1
 11
107.1
 21
15.6
 31
0.0
100
AcDbText
 73
         2
  0
TEXT
  5
26F
100
AcDbEntity
  8
ASSEMBLY_REF_DES_TOP
100
AcDbText
 10
124.6935
 20
11.515
 30
0.0
 40
1.0
  1
T1
 50
90.0
  7
GOST_TYPE_B
 72
         1
 11
124.2
 21
12.15
 31
0.0
100
AcDbText
 73
         2
  0
TEXT
  5
270
100
AcDbEntity
  8
ASSEMBLY_REF_DES_TOP
100
AcDbText
 10
132.04
 20
61.947
 30
0.0
 40
1.0
  1
X6
 50
90.0
  7
GOST_TYPE_B
 72
         2
 11
132.04
 21
63.51
 31
0.0
100
AcDbText
 73
         1
  0
TEXT
  5
271
100
AcDbEntity
  8
ASSEMBLY_REF_DES_TOP
100
AcDbText
 10
116.418275
 20
26.951725
 30
0.0
 40
1.0
  1
R31
 50
180.0
  7
GOST_TYPE_B
 72
         1
 11
115.441775
 21
26.458225
 31
0.0
100
AcDbText
 73
         2
  0
TEXT
  5
272
100
AcDbEntity
  8
ASSEMBLY_REF_DES_TOP
100
AcDbText
 10
121.2935
 20
39.925
 30
0.0
 40
1.0
  1
C24
 50
90.0
  7
GOST_TYPE_B
 72
         1
 11
120.8
 21
41.0
 31
0.0
100
AcDbText
 73
         2
  0
TEXT
  5
273
100
AcDbEntity
  8
ASSEMBLY_REF_DES_TOP
100
AcDbText
 10
85.4935
 20
20.427
 30
0.0
 40
1.0
  1
DD4
 50
90.0
  7
GOST_TYPE_B
 72
         1
 11
85.0
 21
21.6
 31
0.0
100
AcDbText
 73
         2
  0
TEXT
  5
274
100
AcDbEntity
  8
ASSEMBLY_REF_DES_TOP
100
AcDbText
 10
99.5935
 20
21.725
 30
0.0
 40
1.0
  1
C34
 50
90.0
  7
GOST_TYPE_B
 72
         1
 11
99.1
 21
22.8
 31
0.0
100
AcDbText
 73
         2
  0
TEXT
  5
275
100
AcDbEntity
  8
ASSEMBLY_REF_DES_TOP
100
AcDbText
 10
96.3935
 20
17.676
 30
0.0
 40
1.0
  1
R34
 50
90.0
  7
GOST_TYPE_B
 72
         1
 11
95.9
 21
18.8
 31
0.0
100
AcDbText
 73
         2
  0
TEXT
  5
276
100
AcDbEntity
  8
ASSEMBLY_REF_DES_TOP
100
AcDbText
 10
111.7935
 20
78.3275
 30
0.0
 40
1.0
  1
DA2
 50
90.0
  7
GOST_TYPE_B
 72
         1
 11
111.3
 21
79.5
 31
0.0
100
AcDbText
 73
         2
  0
TEXT
  5
277
100
AcDbEntity
  8
ASSEMBLY_REF_DES_TOP
100
AcDbText
 10
100.967775
 20
43.851725
 30
0.0
 40
1.0
  1
C20
 50
180.0
  7
GOST_TYPE_B
 72
         1
 11
99.941775
 21
43.358225
 31
0.0
100
AcDbText
 73
         2
  0
TEXT
  5
278
100
AcDbEntity
  8
ASSEMBLY_REF_DES_TOP
100
AcDbText
 10
106.2935
 20
59.123
 30
0.0
 40
1.0
  1
R17
 50
90.0
  7
GOST_TYPE_B
 72
         1
 11
105.8
 21
60.1
 31
0.0
100
AcDbText
 73
         2
  0
TEXT
  5
279
100
AcDbEntity
  8
ASSEMBLY_REF_DES_TOP
100
AcDbText
 10
94.3935
 20
21.774
 30
0.0
 40
1.0
  1
C33
 50
90.0
  7
GOST_TYPE_B
 72
         1
 11
93.9
 21
22.8
 31
0.0
100
AcDbText
 73
         2
  0
TEXT
  5
27A
100
AcDbEntity
  8
ASSEMBLY_REF_DES_TOP
100
AcDbText
 10
97.6935
 20
61.77
 30
0.0
 40
1.0
  1
C11
 50
90.0
  7
GOST_TYPE_B
 72
         1
 11
97.2
 21
62.6
 31
0.0
100
AcDbText
 73
         2
  0
TEXT
  5
27B
100
AcDbEntity
  8
ASSEMBLY_REF_DES_TOP
100
AcDbText
 10
65.916275
 20
35.351725
 30
0.0
 40
1.0
  1
R26
 50
180.0
  7
GOST_TYPE_B
 72
         1
 11
64.841775
 21
34.858225
 31
0.0
100
AcDbText
 73
         2
  0
TEXT
  5
27C
100
AcDbEntity
  8
ASSEMBLY_REF_DES_TOP
100
AcDbText
 10
81.416075
 20
6.285275
 30
0.0
 40
1.0
  1
HL1
 50
90.0
  7
GOST_TYPE_B
 72
         1
 11
80.922575
 21
7.262275
 31
0.0
100
AcDbText
 73
         2
  0
TEXT
  5
27D
100
AcDbEntity
  8
ASSEMBLY_REF_DES_TOP
100
AcDbText
 10
108.1935
 20
62.774
 30
0.0
 40
1.0
  1
R14
 50
90.0
  7
GOST_TYPE_B
 72
         1
 11
107.7
 21
63.8
 31
0.0
100
AcDbText
 73
         2
  0
TEXT
  5
27E
100
AcDbEntity
  8
ASSEMBLY_REF_DES_TOP
100
AcDbText
 10
121.2935
 20
62.523
 30
0.0
 40
1.0
  1
R15
 50
90.0
  7
GOST_TYPE_B
 72
         1
 11
120.8
 21
63.5
 31
0.0
100
AcDbText
 73
         2
  0
TEXT
  5
27F
100
AcDbEntity
  8
ASSEMBLY_REF_DES_TOP
100
AcDbText
 10
68.1935
 20
54.023
 30
0.0
 40
1.0
  1
R21
 50
90.0
  7
GOST_TYPE_B
 72
         1
 11
67.7
 21
55.0
 31
0.0
100
AcDbText
 73
         2
  0
TEXT
  5
280
100
AcDbEntity
  8
ASSEMBLY_REF_DES_TOP
100
AcDbText
 10
79.1935
 20
40.874
 30
0.0
 40
1.0
  1
C22
 50
90.0
  7
GOST_TYPE_B
 72
         1
 11
78.7
 21
41.9
 31
0.0
100
AcDbText
 73
         2
  0
TEXT
  5
281
100
AcDbEntity
  8
ASSEMBLY_REF_DES_TOP
100
AcDbText
 10
71.764775
 20
8.501725
 30
0.0
 40
1.0
  1
R43
 50
180.0
  7
GOST_TYPE_B
 72
         1
 11
70.641775
 21
8.008225
 31
0.0
100
AcDbText
 73
         2
  0
TEXT
  5
282
100
AcDbEntity
  8
ASSEMBLY_REF_DES_TOP
100
AcDbText
 10
82.612625
 20
18.946575
 30
0.0
 40
1.0
  1
C36
 50
180.0
  7
GOST_TYPE_B
 72
         1
 11
81.586625
 21
18.453075
 31
0.0
100
AcDbText
 73
         2
  0
TEXT
  5
283
100
AcDbEntity
  8
ASSEMBLY_REF_DES_TOP
100
AcDbText
 10
119.0435
 20
61.115
 30
0.0
 40
1.0
  1
J6
 50
90.0
  7
GOST_TYPE_B
 72
         1
 11
118.55
 21
61.75
 31
0.0
100
AcDbText
 73
         2
  0
TEXT
  5
284
100
AcDbEntity
  8
ASSEMBLY_REF_DES_TOP
100
AcDbText
 10
104.7935
 20
21.6275
 30
0.0
 40
1.0
  1
DA3
 50
90.0
  7
GOST_TYPE_B
 72
         1
 11
104.3
 21
22.8
 31
0.0
100
AcDbText
 73
         2
  0
TEXT
  5
285
100
AcDbEntity
  8
ASSEMBLY_REF_DES_TOP
100
AcDbText
 10
65.916275
 20
37.551725
 30
0.0
 40
1.0
  1
R25
 50
180.0
  7
GOST_TYPE_B
 72
         1
 11
64.841775
 21
37.058225
 31
0.0
100
AcDbText
 73
         2
  0
TEXT
  5
286
100
AcDbEntity
  8
ASSEMBLY_REF_DES_TOP
100
AcDbText
 10
84.364775
 20
10.151725
 30
0.0
 40
1.0
  1
R40
 50
180.0
  7
GOST_TYPE_B
 72
         1
 11
83.241775
 21
9.658225
 31
0.0
100
AcDbText
 73
         2
  0
TEXT
  5
287
100
AcDbEntity
  8
ASSEMBLY_REF_DES_TOP
100
AcDbText
 10
110.45
 20
69.109
 30
0.0
 40
1.0
  1
SW2
 50
90.0
  7
GOST_TYPE_B
 72
         2
 11
110.45
 21
71.65
 31
0.0
100
AcDbText
 73
         1
  0
TEXT
  5
288
100
AcDbEntity
  8
ASSEMBLY_REF_DES_TOP
100
AcDbText
 10
77.2435
 20
54.279
 30
0.0
 40
1.0
  1
ZQ2
 50
90.0
  7
GOST_TYPE_B
 72
         1
 11
76.75
 21
55.5
 31
0.0
100
AcDbText
 73
         2
  0
TEXT
  5
289
100
AcDbEntity
  8
ASSEMBLY_REF_DES_TOP
100
AcDbText
 10
90.3935
 20
15.525
 30
0.0
 40
1.0
  1
R36
 50
90.0
  7
GOST_TYPE_B
 72
         1
 11
89.9
 21
16.6
 31
0.0
100
AcDbText
 73
         2
  0
TEXT
  5
28A
100
AcDbEntity
  8
ASSEMBLY_REF_DES_TOP
100
AcDbText
 10
88.6935
 20
17.074
 30
0.0
 40
1.0
  1
C37
 50
90.0
  7
GOST_TYPE_B
 72
         1
 11
88.2
 21
18.1
 31
0.0
100
AcDbText
 73
         2
  0
TEXT
  5
28B
100
AcDbEntity
  8
ASSEMBLY_REF_DES_TOP
100
AcDbText
 10
55.2935
 20
59.272
 30
0.0
 40
1.0
  1
C13
 50
90.0
  7
GOST_TYPE_B
 72
         1
 11
54.8
 21
60.2
 31
0.0
100
AcDbText
 73
         2
  0
TEXT
  5
28C
100
AcDbEntity
  8
ASSEMBLY_REF_DES_TOP
100
AcDbText
 10
113.3935
 20
99.0275
 30
0.0
 40
1.0
  1
VD2
 50
90.0
  7
GOST_TYPE_B
 72
         1
 11
112.9
 21
100.2
 31
0.0
100
AcDbText
 73
         2
  0
TEXT
  5
28D
100
AcDbEntity
  8
ASSEMBLY_REF_DES_TOP
100
AcDbText
 10
131.54
 20
108.387
 30
0.0
 40
1.0
  1
X2
 50
90.0
  7
GOST_TYPE_B
 72
         2
 11
131.54
 21
109.95
 31
0.0
100
AcDbText
 73
         1
  0
TEXT
  5
28E
100
AcDbEntity
  8
ASSEMBLY_REF_DES_TOP
100
AcDbText
 10
81.0935
 20
14.225
 30
0.0
 40
1.0
  1
C38
 50
90.0
  7
GOST_TYPE_B
 72
         1
 11
80.6
 21
15.3
 31
0.0
100
AcDbText
 73
         2
  0
TEXT
  5
28F
100
AcDbEntity
  8
ASSEMBLY_REF_DES_TOP
100
AcDbText
 10
99.54865
 20
18.51885
 30
0.0
 40
1.0
  1
C35
 50
90.0
  7
GOST_TYPE_B
 72
         1
 11
99.05515
 21
19.54485
 31
0.0
100
AcDbText
 73
         2
  0
TEXT
  5
290
100
AcDbEntity
  8
ASSEMBLY_REF_DES_TOP
100
AcDbText
 10
88.65
 20
63.354
 30
0.0
 40
1.0
  1
ZQ1
 50
90.0
  7
GOST_TYPE_B
 72
         2
 11
88.65
 21
65.6
 31
0.0
100
AcDbText
 73
         1
  0
TEXT
  5
291
100
AcDbEntity
  8
ASSEMBLY_REF_DES_TOP
100
AcDbText
 10
91.5435
 20
23.079
 30
0.0
 40
1.0
  1
ZQ3
 50
90.0
  7
GOST_TYPE_B
 72
         1
 11
91.05
 21
24.3
 31
0.0
100
AcDbText
 73
         2
  0
TEXT
  5
292
100
AcDbEntity
  8
ASSEMBLY_REF_DES_TOP
100
AcDbText
 10
99.0935
 20
40.574
 30
0.0
 40
1.0
  1
C23
 50
90.0
  7
GOST_TYPE_B
 72
         1
 11
98.6
 21
41.6
 31
0.0
100
AcDbText
 73
         2
  0
TEXT
  5
293
100
AcDbEntity
  8
ASSEMBLY_REF_DES_TOP
100
AcDbText
 10
109.8935
 20
25.674
 30
0.0
 40
1.0
  1
C32
 50
90.0
  7
GOST_TYPE_B
 72
         1
 11
109.4
 21
26.7
 31
0.0
100
AcDbText
 73
         2
  0
TEXT
  5
294
100
AcDbEntity
  8
ASSEMBLY_REF_DES_TOP
100
AcDbText
 10
96.974275
 20
99.051725
 30
0.0
 40
1.0
  1
R5
 50
180.0
  7
GOST_TYPE_B
 72
         1
 11
96.241775
 21
98.558225
 31
0.0
100
AcDbText
 73
         2
  0
TEXT
  5
295
100
AcDbEntity
  8
ASSEMBLY_REF_DES_TOP
100
AcDbText
 10
120.574275
 20
102.351725
 30
0.0
 40
1.0
  1
R3
 50
180.0
  7
GOST_TYPE_B
 72
         1
 11
119.841775
 21
101.858225
 31
0.0
100
AcDbText
 73
         2
  0
TEXT
  5
296
100
AcDbEntity
  8
ASSEMBLY_REF_DES_TOP
100
AcDbText
 10
116.4935
 20
109.3255
 30
0.0
 40
1.0
  1
DA1
 50
90.0
  7
GOST_TYPE_B
 72
         1
 11
116.0
 21
110.4
 31
0.0
100
AcDbText
 73
         2
  0
TEXT
  5
297
100
AcDbEntity
  8
ASSEMBLY_REF_DES_TOP
100
AcDbText
 10
105.571425
 20
29.506875
 30
0.0
 40
1.0
  1
C28
 50
180.0
  7
GOST_TYPE_B
 72
         1
 11
104.496925
 21
29.013375
 31
0.0
100
AcDbText
 73
         2
  0
TEXT
  5
298
100
AcDbEntity
  8
ASSEMBLY_REF_DES_TOP
100
AcDbText
 10
98.3935
 20
71.616
 30
0.0
 40
1.0
  1
C6
 50
90.0
  7
GOST_TYPE_B
 72
         1
 11
97.9
 21
72.3
 31
0.0
100
AcDbText
 73
         2
  0
TEXT
  5
299
100
AcDbEntity
  8
ASSEMBLY_REF_DES_TOP
100
AcDbText
 10
108.1935
 20
59.074
 30
0.0
 40
1.0
  1
R18
 50
90.0
  7
GOST_TYPE_B
 72
         1
 11
107.7
 21
60.1
 31
0.0
100
AcDbText
 73
         2
  0
TEXT
  5
29A
100
AcDbEntity
  8
ASSEMBLY_REF_DES_TOP
100
AcDbText
 10
121.2935
 20
44.072
 30
0.0
 40
1.0
  1
C19
 50
90.0
  7
GOST_TYPE_B
 72
         1
 11
120.8
 21
45.0
 31
0.0
100
AcDbText
 73
         2
  0
TEXT
  5
29B
100
AcDbEntity
  8
ASSEMBLY_REF_DES_TOP
100
AcDbText
 10
95.9935
 20
23.225
 30
0.0
 40
1.0
  1
R33
 50
90.0
  7
GOST_TYPE_B
 72
         1
 11
95.5
 21
24.3
 31
0.0
100
AcDbText
 73
         2
  0
TEXT
  5
29C
100
AcDbEntity
  8
ASSEMBLY_REF_DES_TOP
100
AcDbText
 10
73.9935
 20
53.272
 30
0.0
 40
1.0
  1
C16
 50
90.0
  7
GOST_TYPE_B
 72
         1
 11
73.5
 21
54.2
 31
0.0
100
AcDbText
 73
         2
  0
TEXT
  5
29D
100
AcDbEntity
  8
ASSEMBLY_REF_DES_TOP
100
AcDbText
 10
72.0
 20
25.087
 30
0.0
 40
1.0
  1
X9
 50
90.0
  7
GOST_TYPE_B
 72
         2
 11
72.0
 21
26.65
 31
0.0
100
AcDbText
 73
         1
  0
TEXT
  5
29E
100
AcDbEntity
  8
ASSEMBLY_REF_DES_TOP
100
AcDbText
 10
111.2435
 20
61.115
 30
0.0
 40
1.0
  1
J3
 50
90.0
  7
GOST_TYPE_B
 72
         1
 11
110.75
 21
61.75
 31
0.0
100
AcDbText
 73
         2
  0
TEXT
  5
29F
100
AcDbEntity
  8
ASSEMBLY_REF_DES_TOP
100
AcDbText
 10
98.25
 20
90.155
 30
0.0
 40
1.0
  1
SW1
 50
90.0
  7
GOST_TYPE_B
 72
         2
 11
98.25
 21
92.5
 31
0.0
100
AcDbText
 73
         1
  0
TEXT
  5
2A0
100
AcDbEntity
  8
ASSEMBLY_REF_DES_TOP
100
AcDbText
 10
105.1935
 20
39.074
 30
0.0
 40
1.0
  1
C25
 50
90.0
  7
GOST_TYPE_B
 72
         1
 11
104.7
 21
40.1
 31
0.0
100
AcDbText
 73
         2
  0
TEXT
  5
2A1
100
AcDbEntity
  8
ASSEMBLY_REF_DES_TOP
100
AcDbText
 10
80.9935
 20
92.23
 30
0.0
 40
1.0
  1
Bat1
 50
90.0
  7
GOST_TYPE_B
 72
         1
 11
80.5
 21
93.5
 31
0.0
100
AcDbText
 73
         2
  0
TEXT
  5
2A2
100
AcDbEntity
  8
ASSEMBLY_REF_DES_TOP
100
AcDbText
 10
106.9935
 20
8.474
 30
0.0
 40
1.0
  1
R41
 50
90.0
  7
GOST_TYPE_B
 72
         1
 11
106.5
 21
9.5
 31
0.0
100
AcDbText
 73
         2
  0
TEXT
  5
2A3
100
AcDbEntity
  8
ASSEMBLY_REF_DES_TOP
100
AcDbText
 10
121.2935
 20
35.374
 30
0.0
 40
1.0
  1
C26
 50
90.0
  7
GOST_TYPE_B
 72
         1
 11
120.8
 21
36.4
 31
0.0
100
AcDbText
 73
         2
  0
TEXT
  5
2A4
100
AcDbEntity
  8
ASSEMBLY_REF_DES_TOP
100
AcDbText
 10
99.4935
 20
61.472
 30
0.0
 40
1.0
  1
C12
 50
90.0
  7
GOST_TYPE_B
 72
         1
 11
99.0
 21
62.4
 31
0.0
100
AcDbText
 73
         2
  0
TEXT
  5
2A5
100
AcDbEntity
  8
ASSEMBLY_REF_DES_TOP
100
AcDbText
 10
116.516275
 20
25.351725
 30
0.0
 40
1.0
  1
R32
 50
180.0
  7
GOST_TYPE_B
 72
         1
 11
115.441775
 21
24.858225
 31
0.0
100
AcDbText
 73
         2
  0
TEXT
  5
2A6
100
AcDbEntity
  8
ASSEMBLY_REF_DES_TOP
100
AcDbText
 10
89.172428
 20
50.063104
 30
0.0
 40
1.0
  1
DD2
 50
90.0
  7
GOST_TYPE_B
 72
         1
 11
88.678928
 21
51.187104
 31
0.0
100
AcDbText
 73
         2
  0
TEXT
  5
2A7
100
AcDbEntity
  8
ASSEMBLY_REF_DES_TOP
100
AcDbText
 10
127.2935
 20
53.072
 30
0.0
 40
1.0
  1
C17
 50
90.0
  7
GOST_TYPE_B
 72
         1
 11
126.8
 21
54.0
 31
0.0
100
AcDbText
 73
         2
  0
TEXT
  5
2A8
100
AcDbEntity
  8
ASSEMBLY_REF_DES_TOP
100
AcDbText
 10
55.0685
 20
87.7395
 30
0.0
 40
1.0
  1
X4
 50
90.0
  7
GOST_TYPE_B
 72
         1
 11
54.575
 21
88.57
 31
0.0
100
AcDbText
 73
         2
  0
TEXT
  5
2A9
100
AcDbEntity
  8
ASSEMBLY_REF_DES_TOP
100
AcDbText
 10
123.774275
 20
104.751725
 30
0.0
 40
1.0
  1
R2
 50
180.0
  7
GOST_TYPE_B
 72
         1
 11
123.041775
 21
104.258225
 31
0.0
100
AcDbText
 73
         2
  0
TEXT
  5
2AA
100
AcDbEntity
  8
ASSEMBLY_REF_DES_TOP
100
AcDbText
 10
121.2935
 20
58.923
 30
0.0
 40
1.0
  1
R19
 50
90.0
  7
GOST_TYPE_B
 72
         1
 11
120.8
 21
59.9
 31
0.0
100
AcDbText
 73
         2
  0
TEXT
  5
2AB
100
AcDbEntity
  8
ASSEMBLY_REF_DES_TOP
100
AcDbText
 10
104.6935
 20
83.767
 30
0.0
 40
1.0
  1
R9
 50
90.0
  7
GOST_TYPE_B
 72
         1
 11
104.2
 21
84.5
 31
0.0
100
AcDbText
 73
         2
  0
TEXT
  5
2AC
100
AcDbEntity
  8
ASSEMBLY_REF_DES_TOP
100
AcDbText
 10
107.5935
 20
98.616
 30
0.0
 40
1.0
  1
C2
 50
90.0
  7
GOST_TYPE_B
 72
         1
 11
107.1
 21
99.3
 31
0.0
100
AcDbText
 73
         2
  0
TEXT
  5
2AD
100
AcDbEntity
  8
ASSEMBLY_REF_DES_TOP
100
AcDbText
 10
99.54865
 20
24.91685
 30
0.0
 40
1.0
  1
C31
 50
90.0
  7
GOST_TYPE_B
 72
         1
 11
99.05515
 21
25.84485
 31
0.0
100
AcDbText
 73
         2
  0
TEXT
  5
2AE
100
AcDbEntity
  8
ASSEMBLY_REF_DES_TOP
100
AcDbText
 10
77.4935
 20
41.172
 30
0.0
 40
1.0
  1
C21
 50
90.0
  7
GOST_TYPE_B
 72
         1
 11
77.0
 21
42.1
 31
0.0
100
AcDbText
 73
         2
  0
TEXT
  5
2AF
100
AcDbEntity
  8
ASSEMBLY_REF_DES_TOP
100
AcDbText
 10
106.2935
 20
62.823
 30
0.0
 40
1.0
  1
R13
 50
90.0
  7
GOST_TYPE_B
 72
         1
 11
105.8
 21
63.8
 31
0.0
100
AcDbText
 73
         2
  0
TEXT
  5
2B0
100
AcDbEntity
  8
ASSEMBLY_REF_DES_TOP
100
AcDbText
 10
92.0935
 20
100.3255
 30
0.0
 40
1.0
  1
VD1
 50
90.0
  7
GOST_TYPE_B
 72
         1
 11
91.6
 21
101.4
 31
0.0
100
AcDbText
 73
         2
  0
TEXT
  5
2B1
100
AcDbEntity
  8
ASSEMBLY_REF_DES_TOP
100
AcDbText
 10
104.418275
 20
77.751725
 30
0.0
 40
1.0
  1
R12
 50
180.0
  7
GOST_TYPE_B
 72
         1
 11
103.441775
 21
77.258225
 31
0.0
100
AcDbText
 73
         2
  0
TEXT
  5
2B2
100
AcDbEntity
  8
ASSEMBLY_REF_DES_TOP
100
AcDbText
 10
67.1435
 20
51.215
 30
0.0
 40
1.0
  1
J7
 50
90.0
  7
GOST_TYPE_B
 72
         1
 11
66.65
 21
51.85
 31
0.0
100
AcDbText
 73
         2
  0
TEXT
  5
2B3
100
AcDbEntity
  8
ASSEMBLY_REF_DES_TOP
100
AcDbText
 10
122.9935
 20
58.825
 30
0.0
 40
1.0
  1
R20
 50
90.0
  7
GOST_TYPE_B
 72
         1
 11
122.5
 21
59.9
 31
0.0
100
AcDbText
 73
         2
  0
TEXT
  5
2B4
100
AcDbEntity
  8
ASSEMBLY_REF_DES_TOP
100
AcDbText
 10
116.671425
 20
28.706875
 30
0.0
 40
1.0
  1
R29
 50
180.0
  7
GOST_TYPE_B
 72
         1
 11
115.596925
 21
28.213375
 31
0.0
100
AcDbText
 73
         2
  0
TEXT
  5
2B5
100
AcDbEntity
  8
ASSEMBLY_REF_DES_TOP
100
AcDbText
 10
78.0935
 20
63.667
 30
0.0
 40
1.0
  1
C8
 50
90.0
  7
GOST_TYPE_B
 72
         1
 11
77.6
 21
64.4
 31
0.0
100
AcDbText
 73
         2
  0
TEXT
  5
2B6
100
AcDbEntity
  8
ASSEMBLY_REF_DES_TOP
100
AcDbText
 10
105.8935
 20
13.676
 30
0.0
 40
1.0
  1
R38
 50
90.0
  7
GOST_TYPE_B
 72
         1
 11
105.4
 21
14.8
 31
0.0
100
AcDbText
 73
         2
  0
TEXT
  5
2B7
100
AcDbEntity
  8
ASSEMBLY_REF_DES_TOP
100
AcDbText
 10
91.8935
 20
15.525
 30
0.0
 40
1.0
  1
R37
 50
90.0
  7
GOST_TYPE_B
 72
         1
 11
91.4
 21
16.6
 31
0.0
100
AcDbText
 73
         2
  0
TEXT
  5
2B8
100
AcDbEntity
  8
ASSEMBLY_REF_DES_TOP
100
AcDbText
 10
83.8935
 20
25.625
 30
0.0
 40
1.0
  1
R30
 50
90.0
  7
GOST_TYPE_B
 72
         1
 11
83.4
 21
26.7
 31
0.0
100
AcDbText
 73
         2
  0
TEXT
  5
2B9
100
AcDbEntity
  8
ASSEMBLY_REF_DES_TOP
100
AcDbText
 10
131.5
 20
81.287
 30
0.0
 40
1.0
  1
X5
 50
90.0
  7
GOST_TYPE_B
 72
         2
 11
131.5
 21
82.85
 31
0.0
100
AcDbText
 73
         1
  0
TEXT
  5
2BA
100
AcDbEntity
  8
ASSEMBLY_REF_DES_TOP
100
AcDbText
 10
109.1935
 20
104.514
 30
0.0
 40
1.0
  1
C1
 50
90.0
  7
GOST_TYPE_B
 72
         1
 11
108.7
 21
105.1
 31
0.0
100
AcDbText
 73
         2
  0
TEXT
  5
2BB
100
AcDbEntity
  8
ASSEMBLY_REF_DES_TOP
100
AcDbText
 10
113.2935
 20
44.676
 30
0.0
 40
1.0
  1
DD3
 50
90.0
  7
GOST_TYPE_B
 72
         1
 11
112.8
 21
45.8
 31
0.0
100
AcDbText
 73
         2
  0
TEXT
  5
2BC
100
AcDbEntity
  8
ASSEMBLY_REF_DES_TOP
100
AcDbText
 10
107.820275
 20
83.251725
 30
0.0
 40
1.0
  1
R11
 50
180.0
  7
GOST_TYPE_B
 72
         1
 11
106.941775
 21
82.758225
 31
0.0
100
AcDbText
 73
         2
  0
TEXT
  5
2BD
100
AcDbEntity
  8
ASSEMBLY_REF_DES_TOP
100
AcDbText
 10
119.8935
 20
92.267
 30
0.0
 40
1.0
  1
R7
 50
90.0
  7
GOST_TYPE_B
 72
         1
 11
119.4
 21
93.0
 31
0.0
100
AcDbText
 73
         2
  0
TEXT
  5
2BE
100
AcDbEntity
  8
ASSEMBLY_REF_DES_TOP
100
AcDbText
 10
94.3935
 20
24.874
 30
0.0
 40
1.0
  1
C30
 50
90.0
  7
GOST_TYPE_B
 72
         1
 11
93.9
 21
25.9
 31
0.0
100
AcDbText
 73
         2
  0
TEXT
  5
2BF
100
AcDbEntity
  8
ASSEMBLY_REF_DES_TOP
100
AcDbText
 10
99.1935
 20
28.974
 30
0.0
 40
1.0
  1
C27
 50
90.0
  7
GOST_TYPE_B
 72
         1
 11
98.7
 21
30.0
 31
0.0
100
AcDbText
 73
         2
  0
TEXT
  5
2C0
100
AcDbEntity
  8
ASSEMBLY_REF_DES_TOP
100
AcDbText
 10
85.2935
 20
63.616
 30
0.0
 40
1.0
  1
C9
 50
90.0
  7
GOST_TYPE_B
 72
         1
 11
84.8
 21
64.3
 31
0.0
100
AcDbText
 73
         2
  0
TEXT
  5
2C1
100
AcDbEntity
  8
ASSEMBLY_REF_DES_TOP
100
AcDbText
 10
112.414775
 20
9.801725
 30
0.0
 40
1.0
  1
R42
 50
180.0
  7
GOST_TYPE_B
 72
         1
 11
111.291775
 21
9.308225
 31
0.0
100
AcDbText
 73
         2
  0
TEXT
  5
2C2
100
AcDbEntity
  8
ASSEMBLY_REF_DES_TOP
100
AcDbText
 10
55.4685
 20
30.0395
 30
0.0
 40
1.0
  1
X8
 50
90.0
  7
GOST_TYPE_B
 72
         1
 11
54.975
 21
30.87
 31
0.0
100
AcDbText
 73
         2
  0
TEXT
  5
2C3
100
AcDbEntity
  8
ASSEMBLY_REF_DES_TOP
100
AcDbText
 10
130.39967
 20
96.493788
 30
0.0
 40
1.0
  1
X3
 50
90.0
  7
GOST_TYPE_B
 72
         1
 11
129.90617
 21
97.275288
 31
0.0
100
AcDbText
 73
         2
  0
TEXT
  5
2C4
100
AcDbEntity
  8
ASSEMBLY_REF_DES_TOP
100
AcDbText
 10
118.4935
 20
83.023
 30
0.0
 40
1.0
  1
R10
 50
90.0
  7
GOST_TYPE_B
 72
         1
 11
118.0
 21
84.0
 31
0.0
100
AcDbText
 73
         2
  0
TEXT
  5
2C5
100
AcDbEntity
  8
ASSEMBLY_REF_DES_TOP
100
AcDbText
 10
120.574275
 20
98.751725
 30
0.0
 40
1.0
  1
R6
 50
180.0
  7
GOST_TYPE_B
 72
         1
 11
119.841775
 21
98.258225
 31
0.0
100
AcDbText
 73
         2
  0
TEXT
  5
2C6
100
AcDbEntity
  8
ASSEMBLY_REF_DES_TOP
100
AcDbText
 10
113.8435
 20
61.066
 30
0.0
 40
1.0
  1
J4
 50
90.0
  7
GOST_TYPE_B
 72
         1
 11
113.35
 21
61.75
 31
0.0
100
AcDbText
 73
         2
  0
TEXT
  5
2C7
100
AcDbEntity
  8
ASSEMBLY_REF_DES_TOP
100
AcDbText
 10
87.8935
 20
24.874
 30
0.0
 40
1.0
  1
C29
 50
90.0
  7
GOST_TYPE_B
 72
         1
 11
87.4
 21
25.9
 31
0.0
100
AcDbText
 73
         2
  0
TEXT
  5
2C8
100
AcDbEntity
  8
ASSEMBLY_REF_DES_TOP
100
AcDbText
 10
123.676275
 20
106.451725
 30
0.0
 40
1.0
  1
R1
 50
180.0
  7
GOST_TYPE_B
 72
         1
 11
123.041775
 21
105.958225
 31
0.0
100
AcDbText
 73
         2
  0
TEXT
  5
2C9
100
AcDbEntity
  8
ASSEMBLY_REF_DES_TOP
100
AcDbText
 10
108.4935
 20
7.527
 30
0.0
 40
1.0
  1
R44
 50
90.0
  7
GOST_TYPE_B
 72
         1
 11
108.0
 21
8.7
 31
0.0
100
AcDbText
 73
         2
  0
TEXT
  5
2CA
100
AcDbEntity
  8
ASSEMBLY_REF_DES_TOP
100
AcDbText
 10
69.4935
 20
98.016
 30
0.0
 40
1.0
  1
C3
 50
90.0
  7
GOST_TYPE_B
 72
         1
 11
69.0
 21
98.7
 31
0.0
100
AcDbText
 73
         2
  0
TEXT
  5
2CB
100
AcDbEntity
  8
ASSEMBLY_REF_DES_TOP
100
AcDbText
 10
108.4
 20
84.326
 30
0.0
 40
1.0
  1
J1
 50
90.0
  7
GOST_TYPE_B
 72
         2
 11
108.4
 21
85.4
 31
0.0
100
AcDbText
 73
         1
  0
TEXT
  5
2CC
100
AcDbEntity
  8
ASSEMBLY_REF_DES_TOP
100
AcDbText
 10
105.1935
 20
43.923
 30
0.0
 40
1.0
  1
C18
 50
90.0
  7
GOST_TYPE_B
 72
         1
 11
104.7
 21
44.9
 31
0.0
100
AcDbText
 73
         2
  0
TEXT
  5
2CD
100
AcDbEntity
  8
ASSEMBLY_REF_DES_TOP
100
AcDbText
 10
120.622775
 20
100.751725
 30
0.0
 40
1.0
  1
R4
 50
180.0
  7
GOST_TYPE_B
 72
         1
 11
119.841775
 21
100.258225
 31
0.0
100
AcDbText
 73
         2
  0
LWPOLYLINE
  5
2CE
100
AcDbEntity
  8
BOARD_OUTLINE
100
AcDbPolyline
 90
        4
 70
         1
 43
0.25
 10
50.3
 20
2.7
 10
50.3
 20
116.7
 10
137.3
 20
116.7
 10
137.3
 20
2.7
  0
CIRCLE
  5
2CF
100
AcDbEntity
  8
MOUNTING_HOLES_LAYER_TOP
100
AcDbCircle
 10
62.8
 20
7.2
 30
0.0
 40
2.25
  0
HATCH
  5
2D0
100
AcDbEntity
  8
MOUNTING_HOLES_LAYER_TOP
100
AcDbHatch
 10
0.0
 20
0.0
 30
0.0
210
0.0
220
0.0
230
1.0
  2
SOLID
 70
         1
 71
         1
 91
        1
 92
        1
 93
        1
 72
         2
 10
62.799999999999997
 20
7.2000000000000002
 40
2.25
 50
0.0
 51
360.0
 73
         1
 97
        1
330
2CF
 75
         0
 76
         1
 98
        1
 10
0.0
 20
0.0
  0
CIRCLE
  5
2D1
100
AcDbEntity
  8
MOUNTING_HOLES_LAYER_TOP
100
AcDbCircle
 10
62.3
 20
104.7
 30
0.0
 40
2.25
  0
HATCH
  5
2D2
100
AcDbEntity
  8
MOUNTING_HOLES_LAYER_TOP
100
AcDbHatch
 10
0.0
 20
0.0
 30
0.0
210
0.0
220
0.0
230
1.0
  2
SOLID
 70
         1
 71
         1
 91
        1
 92
        1
 93
        1
 72
         2
 10
62.299999999999997
 20
104.7
 40
2.25
 50
0.0
 51
360.0
 73
         1
 97
        1
330
2D1
 75
         0
 76
         1
 98
        1
 10
0.0
 20
0.0
  0
CIRCLE
  5
2D3
100
AcDbEntity
  8
MOUNTING_HOLES_LAYER_TOP
100
AcDbCircle
 10
122.0
 20
113.2
 30
0.0
 40
2.25
  0
HATCH
  5
2D4
100
AcDbEntity
  8
MOUNTING_HOLES_LAYER_TOP
100
AcDbHatch
 10
0.0
 20
0.0
 30
0.0
210
0.0
220
0.0
230
1.0
  2
SOLID
 70
         1
 71
         1
 91
        1
 92
        1
 93
        1
 72
         2
 10
122.0
 20
113.2
 40
2.25
 50
0.0
 51
360.0
 73
         1
 97
        1
330
2D3
 75
         0
 76
         1
 98
        1
 10
0.0
 20
0.0
  0
CIRCLE
  5
2D5
100
AcDbEntity
  8
MOUNTING_HOLES_LAYER_TOP
100
AcDbCircle
 10
121.3
 20
23.7
 30
0.0
 40
2.25
  0
HATCH
  5
2D6
100
AcDbEntity
  8
MOUNTING_HOLES_LAYER_TOP
100
AcDbHatch
 10
0.0
 20
0.0
 30
0.0
210
0.0
220
0.0
230
1.0
  2
SOLID
 70
         1
 71
         1
 91
        1
 92
        1
 93
        1
 72
         2
 10
121.3
 20
23.699999999999999
 40
2.25
 50
0.0
 51
360.0
 73
         1
 97
        1
330
2D5
 75
         0
 76
         1
 98
        1
 10
0.0
 20
0.0
  0
CIRCLE
  5
2D7
100
AcDbEntity
  8
MOUNTING_HOLES_LAYER_TOP
100
AcDbCircle
 10
109.36
 20
111.9
 30
0.0
 40
0.9
  0
HATCH
  5
2D8
100
AcDbEntity
  8
MOUNTING_HOLES_LAYER_TOP
100
AcDbHatch
 10
0.0
 20
0.0
 30
0.0
210
0.0
220
0.0
230
1.0
  2
SOLID
 70
         1
 71
         1
 91
        1
 92
        1
 93
        1
 72
         2
 10
109.36
 20
111.90000000000001
 40
0.9
 50
0.0
 51
360.0
 73
         1
 97
        1
330
2D7
 75
         0
 76
         1
 98
        1
 10
0.0
 20
0.0
  0
CIRCLE
  5
2D9
100
AcDbEntity
  8
MOUNTING_HOLES_LAYER_TOP
100
AcDbCircle
 10
63.64
 20
111.9
 30
0.0
 40
0.9
  0
HATCH
  5
2DA
100
AcDbEntity
  8
MOUNTING_HOLES_LAYER_TOP
100
AcDbHatch
 10
0.0
 20
0.0
 30
0.0
210
0.0
220
0.0
230
1.0
  2
SOLID
 70
         1
 71
         1
 91
        1
 92
        1
 93
        1
 72
         2
 10
63.640000000000001
 20
111.90000000000001
 40
0.9
 50
0.0
 51
360.0
 73
         1
 97
        1
330
2D9
 75
         0
 76
         1
 98
        1
 10
0.0
 20
0.0
  0
CIRCLE
  5
2DB
100
AcDbEntity
  8
MOUNTING_HOLES_LAYER_TOP
100
AcDbCircle
 10
128.05
 20
6.69
 30
0.0
 40
1.625
  0
HATCH
  5
2DC
100
AcDbEntity
  8
MOUNTING_HOLES_LAYER_TOP
100
AcDbHatch
 10
0.0
 20
0.0
 30
0.0
210
0.0
220
0.0
230
1.0
  2
SOLID
 70
         1
 71
         1
 91
        1
 92
        1
 93
        1
 72
         2
 10
128.05000000000001
 20
6.6900000000000004
 40
1.625
 50
0.0
 51
360.0
 73
         1
 97
        1
330
2DB
 75
         0
 76
         1
 98
        1
 10
0.0
 20
0.0
  0
CIRCLE
  5
2DD
100
AcDbEntity
  8
MOUNTING_HOLES_LAYER_TOP
100
AcDbCircle
 10
128.05
 20
18.11
 30
0.0
 40
1.625
  0
HATCH
  5
2DE
100
AcDbEntity
  8
MOUNTING_HOLES_LAYER_TOP
100
AcDbHatch
 10
0.0
 20
0.0
 30
0.0
210
0.0
220
0.0
230
1.0
  2
SOLID
 70
         1
 71
         1
 91
        1
 92
        1
 93
        1
 72
         2
 10
128.05000000000001
 20
18.109999999999999
 40
1.625
 50
0.0
 51
360.0
 73
         1
 97
        1
330
2DD
 75
         0
 76
         1
 98
        1
 10
0.0
 20
0.0
  0
CIRCLE
  5
2DF
100
AcDbEntity
  8
MOUNTING_HOLES_LAYER_TOP
100
AcDbCircle
 10
84.75
 20
93.5
 30
0.0
 40
0.75
  0
HATCH
  5
2E0
100
AcDbEntity
  8
MOUNTING_HOLES_LAYER_TOP
100
AcDbHatch
 10
0.0
 20
0.0
 30
0.0
210
0.0
220
0.0
230
1.0
  2
SOLID
 70
         1
 71
         1
 91
        1
 92
        1
 93
        1
 72
         2
 10
84.75
 20
93.5
 40
0.75
 50
0.0
 51
360.0
 73
         1
 97
        1
330
2DF
 75
         0
 76
         1
 98
        1
 10
0.0
 20
0.0
  0
CIRCLE
  5
2E1
100
AcDbEntity
  8
MOUNTING_HOLES_LAYER_TOP
100
AcDbCircle
 10
77.25
 20
93.5
 30
0.0
 40
0.75
  0
HATCH
  5
2E2
100
AcDbEntity
  8
MOUNTING_HOLES_LAYER_TOP
100
AcDbHatch
 10
0.0
 20
0.0
 30
0.0
210
0.0
220
0.0
230
1.0
  2
SOLID
 70
         1
 71
         1
 91
        1
 92
        1
 93
        1
 72
         2
 10
77.25
 20
93.5
 40
0.75
 50
0.0
 51
360.0
 73
         1
 97
        1
330
2E1
 75
         0
 76
         1
 98
        1
 10
0.0
 20
0.0
  0
CIRCLE
  5
2E3
100
AcDbEntity
  8
MOUNTING_HOLES_LAYER_TOP
100
AcDbCircle
 10
55.0
 20
111.46
 30
0.0
 40
0.9
  0
HATCH
  5
2E4
100
AcDbEntity
  8
MOUNTING_HOLES_LAYER_TOP
100
AcDbHatch
 10
0.0
 20
0.0
 30
0.0
210
0.0
220
0.0
230
1.0
  2
SOLID
 70
         1
 71
         1
 91
        1
 92
        1
 93
        1
 72
         2
 10
55.0
 20
111.45999999999999
 40
0.9
 50
0.0
 51
360.0
 73
         1
 97
        1
330
2E3
 75
         0
 76
         1
 98
        1
 10
0.0
 20
0.0
  0
CIRCLE
  5
2E5
100
AcDbEntity
  8
MOUNTING_HOLES_LAYER_TOP
100
AcDbCircle
 10
55.0
 20
65.74
 30
0.0
 40
0.9
  0
HATCH
  5
2E6
100
AcDbEntity
  8
MOUNTING_HOLES_LAYER_TOP
100
AcDbHatch
 10
0.0
 20
0.0
 30
0.0
210
0.0
220
0.0
230
1.0
  2
SOLID
 70
         1
 71
         1
 91
        1
 92
        1
 93
        1
 72
         2
 10
55.0
 20
65.739999999999995
 40
0.9
 50
0.0
 51
360.0
 73
         1
 97
        1
330
2E5
 75
         0
 76
         1
 98
        1
 10
0.0
 20
0.0
  0
CIRCLE
  5
2E7
100
AcDbEntity
  8
MOUNTING_HOLES_LAYER_TOP
100
AcDbCircle
 10
55.2
 20
53.76
 30
0.0
 40
0.9
  0
HATCH
  5
2E8
100
AcDbEntity
  8
MOUNTING_HOLES_LAYER_TOP
100
AcDbHatch
 10
0.0
 20
0.0
 30
0.0
210
0.0
220
0.0
230
1.0
  2
SOLID
 70
         1
 71
         1
 91
        1
 92
        1
 93
        1
 72
         2
 10
55.200000000000003
 20
53.759999999999998
 40
0.9
 50
0.0
 51
360.0
 73
         1
 97
        1
330
2E7
 75
         0
 76
         1
 98
        1
 10
0.0
 20
0.0
  0
CIRCLE
  5
2E9
100
AcDbEntity
  8
MOUNTING_HOLES_LAYER_TOP
100
AcDbCircle
 10
55.2
 20
8.04
 30
0.0
 40
0.9
  0
HATCH
  5
2EA
100
AcDbEntity
  8
MOUNTING_HOLES_LAYER_TOP
100
AcDbHatch
 10
0.0
 20
0.0
 30
0.0
210
0.0
220
0.0
230
1.0
  2
SOLID
 70
         1
 71
         1
 91
        1
 92
        1
 93
        1
 72
         2
 10
55.200000000000003
 20
8.0399999999999991
 40
0.9
 50
0.0
 51
360.0
 73
         1
 97
        1
330
2E9
 75
         0
 76
         1
 98
        1
 10
0.0
 20
0.0
  0
CIRCLE
  5
2EB
100
AcDbEntity
  8
MOUNTING_HOLES_LAYER_TOP
100
AcDbCircle
 10
127.748995
 20
92.251663
 30
0.0
 40
0.75
  0
HATCH
  5
2EC
100
AcDbEntity
  8
MOUNTING_HOLES_LAYER_TOP
100
AcDbHatch
 10
0.0
 20
0.0
 30
0.0
210
0.0
220
0.0
230
1.0
  2
SOLID
 70
         1
 71
         1
 91
        1
 92
        1
 93
        1
 72
         2
 10
127.74899499999999
 20
92.251662999999994
 40
0.75
 50
0.0
 51
360.0
 73
         1
 97
        1
330
2EB
 75
         0
 76
         1
 98
        1
 10
0.0
 20
0.0
  0
CIRCLE
  5
2ED
100
AcDbEntity
  8
MOUNTING_HOLES_LAYER_TOP
100
AcDbCircle
 10
127.748995
 20
102.251663
 30
0.0
 40
0.75
  0
HATCH
  5
2EE
100
AcDbEntity
  8
MOUNTING_HOLES_LAYER_TOP
100
AcDbHatch
 10
0.0
 20
0.0
 30
0.0
210
0.0
220
0.0
230
1.0
  2
SOLID
 70
         1
 71
         1
 91
        1
 92
        1
 93
        1
 72
         2
 10
127.74899499999999
 20
102.25166299999999
 40
0.75
 50
0.0
 51
360.0
 73
         1
 97
        1
330
2ED
 75
         0
 76
         1
 98
        1
 10
0.0
 20
0.0
  0
CIRCLE
  5
2EF
100
AcDbEntity
  8
PART_HOLES_LAYER_TOP
100
AcDbCircle
 10
120.6
 20
85.0
 30
0.0
 40
0.45
  0
HATCH
  5
2F0
100
AcDbEntity
  8
PART_HOLES_LAYER_TOP
100
AcDbHatch
 10
0.0
 20
0.0
 30
0.0
210
0.0
220
0.0
230
1.0
  2
SOLID
 70
         1
 71
         1
 91
        1
 92
        1
 93
        1
 72
         2
 10
120.59999999999999
 20
85.0
 40
0.45
 50
0.0
 51
360.0
 73
         1
 97
        1
330
2EF
 75
         0
 76
         1
 98
        1
 10
0.0
 20
0.0
  0
CIRCLE
  5
2F1
100
AcDbEntity
  8
PART_HOLES_LAYER_TOP
100
AcDbCircle
 10
120.6
 20
87.54
 30
0.0
 40
0.45
  0
HATCH
  5
2F2
100
AcDbEntity
  8
PART_HOLES_LAYER_TOP
100
AcDbHatch
 10
0.0
 20
0.0
 30
0.0
210
0.0
220
0.0
230
1.0
  2
SOLID
 70
         1
 71
         1
 91
        1
 92
        1
 93
        1
 72
         2
 10
120.59999999999999
 20
87.540000000000006
 40
0.45
 50
0.0
 51
360.0
 73
         1
 97
        1
330
2F1
 75
         0
 76
         1
 98
        1
 10
0.0
 20
0.0
  0
CIRCLE
  5
2F3
100
AcDbEntity
  8
PART_HOLES_LAYER_TOP
100
AcDbCircle
 10
115.9
 20
60.5
 30
0.0
 40
0.45
  0
HATCH
  5
2F4
100
AcDbEntity
  8
PART_HOLES_LAYER_TOP
100
AcDbHatch
 10
0.0
 20
0.0
 30
0.0
210
0.0
220
0.0
230
1.0
  2
SOLID
 70
         1
 71
         1
 91
        1
 92
        1
 93
        1
 72
         2
 10
115.90000000000001
 20
60.5
 40
0.45
 50
0.0
 51
360.0
 73
         1
 97
        1
330
2F3
 75
         0
 76
         1
 98
        1
 10
0.0
 20
0.0
  0
CIRCLE
  5
2F5
100
AcDbEntity
  8
PART_HOLES_LAYER_TOP
100
AcDbCircle
 10
115.9
 20
63.04
 30
0.0
 40
0.45
  0
HATCH
  5
2F6
100
AcDbEntity
  8
PART_HOLES_LAYER_TOP
100
AcDbHatch
 10
0.0
 20
0.0
 30
0.0
210
0.0
220
0.0
230
1.0
  2
SOLID
 70
         1
 71
         1
 91
        1
 92
        1
 93
        1
 72
         2
 10
115.90000000000001
 20
63.039999999999999
 40
0.45
 50
0.0
 51
360.0
 73
         1
 97
        1
330
2F5
 75
         0
 76
         1
 98
        1
 10
0.0
 20
0.0
  0
CIRCLE
  5
2F7
100
AcDbEntity
  8
PART_HOLES_LAYER_TOP
100
AcDbCircle
 10
129.24
 20
40.605
 30
0.0
 40
0.6
  0
HATCH
  5
2F8
100
AcDbEntity
  8
PART_HOLES_LAYER_TOP
100
AcDbHatch
 10
0.0
 20
0.0
 30
0.0
210
0.0
220
0.0
230
1.0
  2
SOLID
 70
         1
 71
         1
 91
        1
 92
        1
 93
        1
 72
         2
 10
129.24000000000001
 20
40.604999999999997
 40
0.6
 50
0.0
 51
360.0
 73
         1
 97
        1
330
2F7
 75
         0
 76
         1
 98
        1
 10
0.0
 20
0.0
  0
CIRCLE
  5
2F9
100
AcDbEntity
  8
PART_HOLES_LAYER_TOP
100
AcDbCircle
 10
127.82
 20
48.95
 30
0.0
 40
1.5
  0
HATCH
  5
2FA
100
AcDbEntity
  8
PART_HOLES_LAYER_TOP
100
AcDbHatch
 10
0.0
 20
0.0
 30
0.0
210
0.0
220
0.0
230
1.0
  2
SOLID
 70
         1
 71
         1
 91
        1
 92
        1
 93
        1
 72
         2
 10
127.81999999999999
 20
48.950000000000003
 40
1.5
 50
0.0
 51
360.0
 73
         1
 97
        1
330
2F9
 75
         0
 76
         1
 98
        1
 10
0.0
 20
0.0
  0
CIRCLE
  5
2FB
100
AcDbEntity
  8
PART_HOLES_LAYER_TOP
100
AcDbCircle
 10
127.82
 20
23.95
 30
0.0
 40
1.5
  0
HATCH
  5
2FC
100
AcDbEntity
  8
PART_HOLES_LAYER_TOP
100
AcDbHatch
 10
0.0
 20
0.0
 30
0.0
210
0.0
220
0.0
230
1.0
  2
SOLID
 70
         1
 71
         1
 91
        1
 92
        1
 93
        1
 72
         2
 10
127.81999999999999
 20
23.949999999999999
 40
1.5
 50
0.0
 51
360.0
 73
         1
 97
        1
330
2FB
 75
         0
 76
         1
 98
        1
 10
0.0
 20
0.0
  0
CIRCLE
  5
2FD
100
AcDbEntity
  8
PART_HOLES_LAYER_TOP
100
AcDbCircle
 10
126.4
 20
41.99
 30
0.0
 40
0.6
  0
HATCH
  5
2FE
100
AcDbEntity
  8
PART_HOLES_LAYER_TOP
100
AcDbHatch
 10
0.0
 20
0.0
 30
0.0
210
0.0
220
0.0
230
1.0
  2
SOLID
 70
         1
 71
         1
 91
        1
 92
        1
 93
        1
 72
         2
 10
126.40000000000001
 20
41.990000000000002
 40
0.6
 50
0.0
 51
360.0
 73
         1
 97
        1
330
2FD
 75
         0
 76
         1
 98
        1
 10
0.0
 20
0.0
  0
CIRCLE
  5
2FF
100
AcDbEntity
  8
PART_HOLES_LAYER_TOP
100
AcDbCircle
 10
129.24
 20
32.295
 30
0.0
 40
0.6
  0
HATCH
  5
300
100
AcDbEntity
  8
PART_HOLES_LAYER_TOP
100
AcDbHatch
 10
0.0
 20
0.0
 30
0.0
210
0.0
220
0.0
230
1.0
  2
SOLID
 70
         1
 71
         1
 91
        1
 92
        1
 93
        1
 72
         2
 10
129.24000000000001
 20
32.295000000000002
 40
0.6
 50
0.0
 51
360.0
 73
         1
 97
        1
330
2FF
 75
         0
 76
         1
 98
        1
 10
0.0
 20
0.0
  0
CIRCLE
  5
301
100
AcDbEntity
  8
PART_HOLES_LAYER_TOP
100
AcDbCircle
 10
126.4
 20
39.22
 30
0.0
 40
0.6
  0
HATCH
  5
302
100
AcDbEntity
  8
PART_HOLES_LAYER_TOP
100
AcDbHatch
 10
0.0
 20
0.0
 30
0.0
210
0.0
220
0.0
230
1.0
  2
SOLID
 70
         1
 71
         1
 91
        1
 92
        1
 93
        1
 72
         2
 10
126.40000000000001
 20
39.219999999999999
 40
0.6
 50
0.0
 51
360.0
 73
         1
 97
        1
330
301
 75
         0
 76
         1
 98
        1
 10
0.0
 20
0.0
  0
CIRCLE
  5
303
100
AcDbEntity
  8
PART_HOLES_LAYER_TOP
100
AcDbCircle
 10
126.4
 20
30.91
 30
0.0
 40
0.6
  0
HATCH
  5
304
100
AcDbEntity
  8
PART_HOLES_LAYER_TOP
100
AcDbHatch
 10
0.0
 20
0.0
 30
0.0
210
0.0
220
0.0
230
1.0
  2
SOLID
 70
         1
 71
         1
 91
        1
 92
        1
 93
        1
 72
         2
 10
126.40000000000001
 20
30.91
 40
0.6
 50
0.0
 51
360.0
 73
         1
 97
        1
330
303
 75
         0
 76
         1
 98
        1
 10
0.0
 20
0.0
  0
CIRCLE
  5
305
100
AcDbEntity
  8
PART_HOLES_LAYER_TOP
100
AcDbCircle
 10
129.24
 20
35.065
 30
0.0
 40
0.6
  0
HATCH
  5
306
100
AcDbEntity
  8
PART_HOLES_LAYER_TOP
100
AcDbHatch
 10
0.0
 20
0.0
 30
0.0
210
0.0
220
0.0
230
1.0
  2
SOLID
 70
         1
 71
         1
 91
        1
 92
        1
 93
        1
 72
         2
 10
129.24000000000001
 20
35.064999999999998
 40
0.6
 50
0.0
 51
360.0
 73
         1
 97
        1
330
305
 75
         0
 76
         1
 98
        1
 10
0.0
 20
0.0
  0
CIRCLE
  5
307
100
AcDbEntity
  8
PART_HOLES_LAYER_TOP
100
AcDbCircle
 10
129.24
 20
37.835
 30
0.0
 40
0.6
  0
HATCH
  5
308
100
AcDbEntity
  8
PART_HOLES_LAYER_TOP
100
AcDbHatch
 10
0.0
 20
0.0
 30
0.0
210
0.0
220
0.0
230
1.0
  2
SOLID
 70
         1
 71
         1
 91
        1
 92
        1
 93
        1
 72
         2
 10
129.24000000000001
 20
37.835000000000001
 40
0.6
 50
0.0
 51
360.0
 73
         1
 97
        1
330
307
 75
         0
 76
         1
 98
        1
 10
0.0
 20
0.0
  0
CIRCLE
  5
309
100
AcDbEntity
  8
PART_HOLES_LAYER_TOP
100
AcDbCircle
 10
126.4
 20
33.68
 30
0.0
 40
0.6
  0
HATCH
  5
30A
100
AcDbEntity
  8
PART_HOLES_LAYER_TOP
100
AcDbHatch
 10
0.0
 20
0.0
 30
0.0
210
0.0
220
0.0
230
1.0
  2
SOLID
 70
         1
 71
         1
 91
        1
 92
        1
 93
        1
 72
         2
 10
126.40000000000001
 20
33.68
 40
0.6
 50
0.0
 51
360.0
 73
         1
 97
        1
330
309
 75
         0
 76
         1
 98
        1
 10
0.0
 20
0.0
  0
CIRCLE
  5
30B
100
AcDbEntity
  8
PART_HOLES_LAYER_TOP
100
AcDbCircle
 10
126.4
 20
36.45
 30
0.0
 40
0.6
  0
HATCH
  5
30C
100
AcDbEntity
  8
PART_HOLES_LAYER_TOP
100
AcDbHatch
 10
0.0
 20
0.0
 30
0.0
210
0.0
220
0.0
230
1.0
  2
SOLID
 70
         1
 71
         1
 91
        1
 92
        1
 93
        1
 72
         2
 10
126.40000000000001
 20
36.450000000000003
 40
0.6
 50
0.0
 51
360.0
 73
         1
 97
        1
330
30B
 75
         0
 76
         1
 98
        1
 10
0.0
 20
0.0
  0
CIRCLE
  5
30D
100
AcDbEntity
  8
PART_HOLES_LAYER_TOP
100
AcDbCircle
 10
121.7
 20
7.955
 30
0.0
 40
0.45
  0
HATCH
  5
30E
100
AcDbEntity
  8
PART_HOLES_LAYER_TOP
100
AcDbHatch
 10
0.0
 20
0.0
 30
0.0
210
0.0
220
0.0
230
1.0
  2
SOLID
 70
         1
 71
         1
 91
        1
 92
        1
 93
        1
 72
         2
 10
121.7
 20
7.9550000000000001
 40
0.45
 50
0.0
 51
360.0
 73
         1
 97
        1
330
30D
 75
         0
 76
         1
 98
        1
 10
0.0
 20
0.0
  0
CIRCLE
  5
30F
100
AcDbEntity
  8
PART_HOLES_LAYER_TOP
100
AcDbCircle
 10
121.7
 20
10.495
 30
0.0
 40
0.45
  0
HATCH
  5
310
100
AcDbEntity
  8
PART_HOLES_LAYER_TOP
100
AcDbHatch
 10
0.0
 20
0.0
 30
0.0
210
0.0
220
0.0
230
1.0
  2
SOLID
 70
         1
 71
         1
 91
        1
 92
        1
 93
        1
 72
         2
 10
121.7
 20
10.494999999999999
 40
0.45
 50
0.0
 51
360.0
 73
         1
 97
        1
330
30F
 75
         0
 76
         1
 98
        1
 10
0.0
 20
0.0
  0
CIRCLE
  5
311
100
AcDbEntity
  8
PART_HOLES_LAYER_TOP
100
AcDbCircle
 10
121.7
 20
13.035
 30
0.0
 40
0.45
  0
HATCH
  5
312
100
AcDbEntity
  8
PART_HOLES_LAYER_TOP
100
AcDbHatch
 10
0.0
 20
0.0
 30
0.0
210
0.0
220
0.0
230
1.0
  2
SOLID
 70
         1
 71
         1
 91
        1
 92
        1
 93
        1
 72
         2
 10
121.7
 20
13.035
 40
0.45
 50
0.0
 51
360.0
 73
         1
 97
        1
330
311
 75
         0
 76
         1
 98
        1
 10
0.0
 20
0.0
  0
CIRCLE
  5
313
100
AcDbEntity
  8
PART_HOLES_LAYER_TOP
100
AcDbCircle
 10
119.16
 20
11.765
 30
0.0
 40
0.45
  0
HATCH
  5
314
100
AcDbEntity
  8
PART_HOLES_LAYER_TOP
100
AcDbHatch
 10
0.0
 20
0.0
 30
0.0
210
0.0
220
0.0
230
1.0
  2
SOLID
 70
         1
 71
         1
 91
        1
 92
        1
 93
        1
 72
         2
 10
119.16
 20
11.765000000000001
 40
0.45
 50
0.0
 51
360.0
 73
         1
 97
        1
330
313
 75
         0
 76
         1
 98
        1
 10
0.0
 20
0.0
  0
CIRCLE
  5
315
100
AcDbEntity
  8
PART_HOLES_LAYER_TOP
100
AcDbCircle
 10
125.0
 20
20.27
 30
0.0
 40
0.95
  0
HATCH
  5
316
100
AcDbEntity
  8
PART_HOLES_LAYER_TOP
100
AcDbHatch
 10
0.0
 20
0.0
 30
0.0
210
0.0
220
0.0
230
1.0
  2
SOLID
 70
         1
 71
         1
 91
        1
 92
        1
 93
        1
 72
         2
 10
125.0
 20
20.27
 40
0.95
 50
0.0
 51
360.0
 73
         1
 97
        1
330
315
 75
         0
 76
         1
 98
        1
 10
0.0
 20
0.0
  0
CIRCLE
  5
317
100
AcDbEntity
  8
PART_HOLES_LAYER_TOP
100
AcDbCircle
 10
119.16
 20
14.305
 30
0.0
 40
0.45
  0
HATCH
  5
318
100
AcDbEntity
  8
PART_HOLES_LAYER_TOP
100
AcDbHatch
 10
0.0
 20
0.0
 30
0.0
210
0.0
220
0.0
230
1.0
  2
SOLID
 70
         1
 71
         1
 91
        1
 92
        1
 93
        1
 72
         2
 10
119.16
 20
14.305
 40
0.45
 50
0.0
 51
360.0
 73
         1
 97
        1
330
317
 75
         0
 76
         1
 98
        1
 10
0.0
 20
0.0
  0
CIRCLE
  5
319
100
AcDbEntity
  8
PART_HOLES_LAYER_TOP
100
AcDbCircle
 10
133.13
 20
6.07
 30
0.0
 40
0.6
  0
HATCH
  5
31A
100
AcDbEntity
  8
PART_HOLES_LAYER_TOP
100
AcDbHatch
 10
0.0
 20
0.0
 30
0.0
210
0.0
220
0.0
230
1.0
  2
SOLID
 70
         1
 71
         1
 91
        1
 92
        1
 93
        1
 72
         2
 10
133.13
 20
6.0700000000000003
 40
0.6
 50
0.0
 51
360.0
 73
         1
 97
        1
330
319
 75
         0
 76
         1
 98
        1
 10
0.0
 20
0.0
  0
CIRCLE
  5
31B
100
AcDbEntity
  8
PART_HOLES_LAYER_TOP
100
AcDbCircle
 10
114.33
 20
6.94
 30
0.0
 40
0.75
  0
HATCH
  5
31C
100
AcDbEntity
  8
PART_HOLES_LAYER_TOP
100
AcDbHatch
 10
0.0
 20
0.0
 30
0.0
210
0.0
220
0.0
230
1.0
  2
SOLID
 70
         1
 71
         1
 91
        1
 92
        1
 93
        1
 72
         2
 10
114.33
 20
6.9400000000000004
 40
0.75
 50
0.0
 51
360.0
 73
         1
 97
        1
330
31B
 75
         0
 76
         1
 98
        1
 10
0.0
 20
0.0
  0
CIRCLE
  5
31D
100
AcDbEntity
  8
PART_HOLES_LAYER_TOP
100
AcDbCircle
 10
131.43
 20
8.61
 30
0.0
 40
0.6
  0
HATCH
  5
31E
100
AcDbEntity
  8
PART_HOLES_LAYER_TOP
100
AcDbHatch
 10
0.0
 20
0.0
 30
0.0
210
0.0
220
0.0
230
1.0
  2
SOLID
 70
         1
 71
         1
 91
        1
 92
        1
 93
        1
 72
         2
 10
131.43000000000001
 20
8.6099999999999994
 40
0.6
 50
0.0
 51
360.0
 73
         1
 97
        1
330
31D
 75
         0
 76
         1
 98
        1
 10
0.0
 20
0.0
  0
CIRCLE
  5
31F
100
AcDbEntity
  8
PART_HOLES_LAYER_TOP
100
AcDbCircle
 10
114.33
 20
9.48
 30
0.0
 40
0.75
  0
HATCH
  5
320
100
AcDbEntity
  8
PART_HOLES_LAYER_TOP
100
AcDbHatch
 10
0.0
 20
0.0
 30
0.0
210
0.0
220
0.0
230
1.0
  2
SOLID
 70
         1
 71
         1
 91
        1
 92
        1
 93
        1
 72
         2
 10
114.33
 20
9.4800000000000004
 40
0.75
 50
0.0
 51
360.0
 73
         1
 97
        1
330
31F
 75
         0
 76
         1
 98
        1
 10
0.0
 20
0.0
  0
CIRCLE
  5
321
100
AcDbEntity
  8
PART_HOLES_LAYER_TOP
100
AcDbCircle
 10
133.13
 20
16.19
 30
0.0
 40
0.6
  0
HATCH
  5
322
100
AcDbEntity
  8
PART_HOLES_LAYER_TOP
100
AcDbHatch
 10
0.0
 20
0.0
 30
0.0
210
0.0
220
0.0
230
1.0
  2
SOLID
 70
         1
 71
         1
 91
        1
 92
        1
 93
        1
 72
         2
 10
133.13
 20
16.190000000000001
 40
0.6
 50
0.0
 51
360.0
 73
         1
 97
        1
330
321
 75
         0
 76
         1
 98
        1
 10
0.0
 20
0.0
  0
CIRCLE
  5
323
100
AcDbEntity
  8
PART_HOLES_LAYER_TOP
100
AcDbCircle
 10
114.33
 20
15.32
 30
0.0
 40
0.75
  0
HATCH
  5
324
100
AcDbEntity
  8
PART_HOLES_LAYER_TOP
100
AcDbHatch
 10
0.0
 20
0.0
 30
0.0
210
0.0
220
0.0
230
1.0
  2
SOLID
 70
         1
 71
         1
 91
        1
 92
        1
 93
        1
 72
         2
 10
114.33
 20
15.32
 40
0.75
 50
0.0
 51
360.0
 73
         1
 97
        1
330
323
 75
         0
 76
         1
 98
        1
 10
0.0
 20
0.0
  0
CIRCLE
  5
325
100
AcDbEntity
  8
PART_HOLES_LAYER_TOP
100
AcDbCircle
 10
125.0
 20
4.53
 30
0.0
 40
0.95
  0
HATCH
  5
326
100
AcDbEntity
  8
PART_HOLES_LAYER_TOP
100
AcDbHatch
 10
0.0
 20
0.0
 30
0.0
210
0.0
220
0.0
230
1.0
  2
SOLID
 70
         1
 71
         1
 91
        1
 92
        1
 93
        1
 72
         2
 10
125.0
 20
4.5300000000000002
 40
0.95
 50
0.0
 51
360.0
 73
         1
 97
        1
330
325
 75
         0
 76
         1
 98
        1
 10
0.0
 20
0.0
  0
CIRCLE
  5
327
100
AcDbEntity
  8
PART_HOLES_LAYER_TOP
100
AcDbCircle
 10
131.43
 20
18.73
 30
0.0
 40
0.6
  0
HATCH
  5
328
100
AcDbEntity
  8
PART_HOLES_LAYER_TOP
100
AcDbHatch
 10
0.0
 20
0.0
 30
0.0
210
0.0
220
0.0
230
1.0
  2
SOLID
 70
         1
 71
         1
 91
        1
 92
        1
 93
        1
 72
         2
 10
131.43000000000001
 20
18.73
 40
0.6
 50
0.0
 51
360.0
 73
         1
 97
        1
330
327
 75
         0
 76
         1
 98
        1
 10
0.0
 20
0.0
  0
CIRCLE
  5
329
100
AcDbEntity
  8
PART_HOLES_LAYER_TOP
100
AcDbCircle
 10
114.33
 20
17.86
 30
0.0
 40
0.75
  0
HATCH
  5
32A
100
AcDbEntity
  8
PART_HOLES_LAYER_TOP
100
AcDbHatch
 10
0.0
 20
0.0
 30
0.0
210
0.0
220
0.0
230
1.0
  2
SOLID
 70
         1
 71
         1
 91
        1
 92
        1
 93
        1
 72
         2
 10
114.33
 20
17.859999999999999
 40
0.75
 50
0.0
 51
360.0
 73
         1
 97
        1
330
329
 75
         0
 76
         1
 98
        1
 10
0.0
 20
0.0
  0
CIRCLE
  5
32B
100
AcDbEntity
  8
PART_HOLES_LAYER_TOP
100
AcDbCircle
 10
121.7
 20
15.575
 30
0.0
 40
0.45
  0
HATCH
  5
32C
100
AcDbEntity
  8
PART_HOLES_LAYER_TOP
100
AcDbHatch
 10
0.0
 20
0.0
 30
0.0
210
0.0
220
0.0
230
1.0
  2
SOLID
 70
         1
 71
         1
 91
        1
 92
        1
 93
        1
 72
         2
 10
121.7
 20
15.574999999999999
 40
0.45
 50
0.0
 51
360.0
 73
         1
 97
        1
330
32B
 75
         0
 76
         1
 98
        1
 10
0.0
 20
0.0
  0
CIRCLE
  5
32D
100
AcDbEntity
  8
PART_HOLES_LAYER_TOP
100
AcDbCircle
 10
119.16
 20
16.845
 30
0.0
 40
0.45
  0
HATCH
  5
32E
100
AcDbEntity
  8
PART_HOLES_LAYER_TOP
100
AcDbHatch
 10
0.0
 20
0.0
 30
0.0
210
0.0
220
0.0
230
1.0
  2
SOLID
 70
         1
 71
         1
 91
        1
 92
        1
 93
        1
 72
         2
 10
119.16
 20
16.844999999999999
 40
0.45
 50
0.0
 51
360.0
 73
         1
 97
        1
330
32D
 75
         0
 76
         1
 98
        1
 10
0.0
 20
0.0
  0
CIRCLE
  5
32F
100
AcDbEntity
  8
PART_HOLES_LAYER_TOP
100
AcDbCircle
 10
119.16
 20
9.225
 30
0.0
 40
0.45
  0
HATCH
  5
330
100
AcDbEntity
  8
PART_HOLES_LAYER_TOP
100
AcDbHatch
 10
0.0
 20
0.0
 30
0.0
210
0.0
220
0.0
230
1.0
  2
SOLID
 70
         1
 71
         1
 91
        1
 92
        1
 93
        1
 72
         2
 10
119.16
 20
9.2249999999999996
 40
0.45
 50
0.0
 51
360.0
 73
         1
 97
        1
330
32F
 75
         0
 76
         1
 98
        1
 10
0.0
 20
0.0
  0
CIRCLE
  5
331
100
AcDbEntity
  8
PART_HOLES_LAYER_TOP
100
AcDbCircle
 10
125.84
 20
67.46
 30
0.0
 40
0.45
  0
HATCH
  5
332
100
AcDbEntity
  8
PART_HOLES_LAYER_TOP
100
AcDbHatch
 10
0.0
 20
0.0
 30
0.0
210
0.0
220
0.0
230
1.0
  2
SOLID
 70
         1
 71
         1
 91
        1
 92
        1
 93
        1
 72
         2
 10
125.84
 20
67.459999999999994
 40
0.45
 50
0.0
 51
360.0
 73
         1
 97
        1
330
331
 75
         0
 76
         1
 98
        1
 10
0.0
 20
0.0
  0
CIRCLE
  5
333
100
AcDbEntity
  8
PART_HOLES_LAYER_TOP
100
AcDbCircle
 10
125.84
 20
60.46
 30
0.0
 40
0.45
  0
HATCH
  5
334
100
AcDbEntity
  8
PART_HOLES_LAYER_TOP
100
AcDbHatch
 10
0.0
 20
0.0
 30
0.0
210
0.0
220
0.0
230
1.0
  2
SOLID
 70
         1
 71
         1
 91
        1
 92
        1
 93
        1
 72
         2
 10
125.84
 20
60.460000000000001
 40
0.45
 50
0.0
 51
360.0
 73
         1
 97
        1
330
333
 75
         0
 76
         1
 98
        1
 10
0.0
 20
0.0
  0
CIRCLE
  5
335
100
AcDbEntity
  8
PART_HOLES_LAYER_TOP
100
AcDbCircle
 10
128.56
 20
70.56
 30
0.0
 40
1.25
  0
HATCH
  5
336
100
AcDbEntity
  8
PART_HOLES_LAYER_TOP
100
AcDbHatch
 10
0.0
 20
0.0
 30
0.0
210
0.0
220
0.0
230
1.0
  2
SOLID
 70
         1
 71
         1
 91
        1
 92
        1
 93
        1
 72
         2
 10
128.56
 20
70.560000000000002
 40
1.25
 50
0.0
 51
360.0
 73
         1
 97
        1
330
335
 75
         0
 76
         1
 98
        1
 10
0.0
 20
0.0
  0
CIRCLE
  5
337
100
AcDbEntity
  8
PART_HOLES_LAYER_TOP
100
AcDbCircle
 10
128.56
 20
57.36
 30
0.0
 40
1.25
  0
HATCH
  5
338
100
AcDbEntity
  8
PART_HOLES_LAYER_TOP
100
AcDbHatch
 10
0.0
 20
0.0
 30
0.0
210
0.0
220
0.0
230
1.0
  2
SOLID
 70
         1
 71
         1
 91
        1
 92
        1
 93
        1
 72
         2
 10
128.56
 20
57.359999999999999
 40
1.25
 50
0.0
 51
360.0
 73
         1
 97
        1
330
337
 75
         0
 76
         1
 98
        1
 10
0.0
 20
0.0
  0
CIRCLE
  5
339
100
AcDbEntity
  8
PART_HOLES_LAYER_TOP
100
AcDbCircle
 10
125.84
 20
62.96
 30
0.0
 40
0.45
  0
HATCH
  5
33A
100
AcDbEntity
  8
PART_HOLES_LAYER_TOP
100
AcDbHatch
 10
0.0
 20
0.0
 30
0.0
210
0.0
220
0.0
230
1.0
  2
SOLID
 70
         1
 71
         1
 91
        1
 92
        1
 93
        1
 72
         2
 10
125.84
 20
62.960000000000001
 40
0.45
 50
0.0
 51
360.0
 73
         1
 97
        1
330
339
 75
         0
 76
         1
 98
        1
 10
0.0
 20
0.0
  0
CIRCLE
  5
33B
100
AcDbEntity
  8
PART_HOLES_LAYER_TOP
100
AcDbCircle
 10
125.84
 20
64.96
 30
0.0
 40
0.45
  0
HATCH
  5
33C
100
AcDbEntity
  8
PART_HOLES_LAYER_TOP
100
AcDbHatch
 10
0.0
 20
0.0
 30
0.0
210
0.0
220
0.0
230
1.0
  2
SOLID
 70
         1
 71
         1
 91
        1
 92
        1
 93
        1
 72
         2
 10
125.84
 20
64.959999999999994
 40
0.45
 50
0.0
 51
360.0
 73
         1
 97
        1
330
33B
 75
         0
 76
         1
 98
        1
 10
0.0
 20
0.0
  0
CIRCLE
  5
33D
100
AcDbEntity
  8
PART_HOLES_LAYER_TOP
100
AcDbCircle
 10
118.5
 20
60.5
 30
0.0
 40
0.45
  0
HATCH
  5
33E
100
AcDbEntity
  8
PART_HOLES_LAYER_TOP
100
AcDbHatch
 10
0.0
 20
0.0
 30
0.0
210
0.0
220
0.0
230
1.0
  2
SOLID
 70
         1
 71
         1
 91
        1
 92
        1
 93
        1
 72
         2
 10
118.5
 20
60.5
 40
0.45
 50
0.0
 51
360.0
 73
         1
 97
        1
330
33D
 75
         0
 76
         1
 98
        1
 10
0.0
 20
0.0
  0
CIRCLE
  5
33F
100
AcDbEntity
  8
PART_HOLES_LAYER_TOP
100
AcDbCircle
 10
118.5
 20
63.04
 30
0.0
 40
0.45
  0
HATCH
  5
340
100
AcDbEntity
  8
PART_HOLES_LAYER_TOP
100
AcDbHatch
 10
0.0
 20
0.0
 30
0.0
210
0.0
220
0.0
230
1.0
  2
SOLID
 70
         1
 71
         1
 91
        1
 92
        1
 93
        1
 72
         2
 10
118.5
 20
63.039999999999999
 40
0.45
 50
0.0
 51
360.0
 73
         1
 97
        1
330
33F
 75
         0
 76
         1
 98
        1
 10
0.0
 20
0.0
  0
CIRCLE
  5
341
100
AcDbEntity
  8
PART_HOLES_LAYER_TOP
100
AcDbCircle
 10
76.8
 20
58.24
 30
0.0
 40
0.45
  0
HATCH
  5
342
100
AcDbEntity
  8
PART_HOLES_LAYER_TOP
100
AcDbHatch
 10
0.0
 20
0.0
 30
0.0
210
0.0
220
0.0
230
1.0
  2
SOLID
 70
         1
 71
         1
 91
        1
 92
        1
 93
        1
 72
         2
 10
76.799999999999997
 20
58.240000000000002
 40
0.45
 50
0.0
 51
360.0
 73
         1
 97
        1
330
341
 75
         0
 76
         1
 98
        1
 10
0.0
 20
0.0
  0
CIRCLE
  5
343
100
AcDbEntity
  8
PART_HOLES_LAYER_TOP
100
AcDbCircle
 10
76.8
 20
53.36
 30
0.0
 40
0.45
  0
HATCH
  5
344
100
AcDbEntity
  8
PART_HOLES_LAYER_TOP
100
AcDbHatch
 10
0.0
 20
0.0
 30
0.0
210
0.0
220
0.0
230
1.0
  2
SOLID
 70
         1
 71
         1
 91
        1
 92
        1
 93
        1
 72
         2
 10
76.799999999999997
 20
53.359999999999999
 40
0.45
 50
0.0
 51
360.0
 73
         1
 97
        1
330
343
 75
         0
 76
         1
 98
        1
 10
0.0
 20
0.0
  0
CIRCLE
  5
345
100
AcDbEntity
  8
PART_HOLES_LAYER_TOP
100
AcDbCircle
 10
128.14
 20
114.2
 30
0.0
 40
1.4
  0
HATCH
  5
346
100
AcDbEntity
  8
PART_HOLES_LAYER_TOP
100
AcDbHatch
 10
0.0
 20
0.0
 30
0.0
210
0.0
220
0.0
230
1.0
  2
SOLID
 70
         1
 71
         1
 91
        1
 92
        1
 93
        1
 72
         2
 10
128.13999999999999
 20
114.2
 40
1.3999999999999999
 50
0.0
 51
360.0
 73
         1
 97
        1
330
345
 75
         0
 76
         1
 98
        1
 10
0.0
 20
0.0
  0
CIRCLE
  5
347
100
AcDbEntity
  8
PART_HOLES_LAYER_TOP
100
AcDbCircle
 10
131.139998
 20
109.5
 30
0.0
 40
1.4
  0
HATCH
  5
348
100
AcDbEntity
  8
PART_HOLES_LAYER_TOP
100
AcDbHatch
 10
0.0
 20
0.0
 30
0.0
210
0.0
220
0.0
230
1.0
  2
SOLID
 70
         1
 71
         1
 91
        1
 92
        1
 93
        1
 72
         2
 10
131.13999799999999
 20
109.5
 40
1.3999999999999999
 50
0.0
 51
360.0
 73
         1
 97
        1
330
347
 75
         0
 76
         1
 98
        1
 10
0.0
 20
0.0
  0
CIRCLE
  5
349
100
AcDbEntity
  8
PART_HOLES_LAYER_TOP
100
AcDbCircle
 10
124.939998
 20
109.5
 30
0.0
 40
1.4
  0
HATCH
  5
34A
100
AcDbEntity
  8
PART_HOLES_LAYER_TOP
100
AcDbHatch
 10
0.0
 20
0.0
 30
0.0
210
0.0
220
0.0
230
1.0
  2
SOLID
 70
         1
 71
         1
 91
        1
 92
        1
 93
        1
 72
         2
 10
124.939998
 20
109.5
 40
1.3999999999999999
 50
0.0
 51
360.0
 73
         1
 97
        1
330
349
 75
         0
 76
         1
 98
        1
 10
0.0
 20
0.0
  0
CIRCLE
  5
34B
100
AcDbEntity
  8
PART_HOLES_LAYER_TOP
100
AcDbCircle
 10
88.0
 20
63.23
 30
0.0
 40
0.45
  0
HATCH
  5
34C
100
AcDbEntity
  8
PART_HOLES_LAYER_TOP
100
AcDbHatch
 10
0.0
 20
0.0
 30
0.0
210
0.0
220
0.0
230
1.0
  2
SOLID
 70
         1
 71
         1
 91
        1
 92
        1
 93
        1
 72
         2
 10
88.0
 20
63.229999999999997
 40
0.45
 50
0.0
 51
360.0
 73
         1
 97
        1
330
34B
 75
         0
 76
         1
 98
        1
 10
0.0
 20
0.0
  0
CIRCLE
  5
34D
100
AcDbEntity
  8
PART_HOLES_LAYER_TOP
100
AcDbCircle
 10
88.0
 20
65.770002
 30
0.0
 40
0.45
  0
HATCH
  5
34E
100
AcDbEntity
  8
PART_HOLES_LAYER_TOP
100
AcDbHatch
 10
0.0
 20
0.0
 30
0.0
210
0.0
220
0.0
230
1.0
  2
SOLID
 70
         1
 71
         1
 91
        1
 92
        1
 93
        1
 72
         2
 10
88.0
 20
65.770002000000005
 40
0.45
 50
0.0
 51
360.0
 73
         1
 97
        1
330
34D
 75
         0
 76
         1
 98
        1
 10
0.0
 20
0.0
  0
CIRCLE
  5
34F
100
AcDbEntity
  8
PART_HOLES_LAYER_TOP
100
AcDbCircle
 10
90.8
 20
26.74
 30
0.0
 40
0.45
  0
HATCH
  5
350
100
AcDbEntity
  8
PART_HOLES_LAYER_TOP
100
AcDbHatch
 10
0.0
 20
0.0
 30
0.0
210
0.0
220
0.0
230
1.0
  2
SOLID
 70
         1
 71
         1
 91
        1
 92
        1
 93
        1
 72
         2
 10
90.799999999999997
 20
26.739999999999998
 40
0.45
 50
0.0
 51
360.0
 73
         1
 97
        1
330
34F
 75
         0
 76
         1
 98
        1
 10
0.0
 20
0.0
  0
CIRCLE
  5
351
100
AcDbEntity
  8
PART_HOLES_LAYER_TOP
100
AcDbCircle
 10
90.8
 20
21.86
 30
0.0
 40
0.45
  0
HATCH
  5
352
100
AcDbEntity
  8
PART_HOLES_LAYER_TOP
100
AcDbHatch
 10
0.0
 20
0.0
 30
0.0
210
0.0
220
0.0
230
1.0
  2
SOLID
 70
         1
 71
         1
 91
        1
 92
        1
 93
        1
 72
         2
 10
90.799999999999997
 20
21.859999999999999
 40
0.45
 50
0.0
 51
360.0
 73
         1
 97
        1
330
351
 75
         0
 76
         1
 98
        1
 10
0.0
 20
0.0
  0
CIRCLE
  5
353
100
AcDbEntity
  8
PART_HOLES_LAYER_TOP
100
AcDbCircle
 10
69.9
 20
38.6
 30
0.0
 40
0.45
  0
HATCH
  5
354
100
AcDbEntity
  8
PART_HOLES_LAYER_TOP
100
AcDbHatch
 10
0.0
 20
0.0
 30
0.0
210
0.0
220
0.0
230
1.0
  2
SOLID
 70
         1
 71
         1
 91
        1
 92
        1
 93
        1
 72
         2
 10
69.900000000000006
 20
38.600000000000001
 40
0.45
 50
0.0
 51
360.0
 73
         1
 97
        1
330
353
 75
         0
 76
         1
 98
        1
 10
0.0
 20
0.0
  0
CIRCLE
  5
355
100
AcDbEntity
  8
PART_HOLES_LAYER_TOP
100
AcDbCircle
 10
72.44
 20
15.74
 30
0.0
 40
0.45
  0
HATCH
  5
356
100
AcDbEntity
  8
PART_HOLES_LAYER_TOP
100
AcDbHatch
 10
0.0
 20
0.0
 30
0.0
210
0.0
220
0.0
230
1.0
  2
SOLID
 70
         1
 71
         1
 91
        1
 92
        1
 93
        1
 72
         2
 10
72.439999999999998
 20
15.74
 40
0.45
 50
0.0
 51
360.0
 73
         1
 97
        1
330
355
 75
         0
 76
         1
 98
        1
 10
0.0
 20
0.0
  0
CIRCLE
  5
357
100
AcDbEntity
  8
PART_HOLES_LAYER_TOP
100
AcDbCircle
 10
72.44
 20
18.28
 30
0.0
 40
0.45
  0
HATCH
  5
358
100
AcDbEntity
  8
PART_HOLES_LAYER_TOP
100
AcDbHatch
 10
0.0
 20
0.0
 30
0.0
210
0.0
220
0.0
230
1.0
  2
SOLID
 70
         1
 71
         1
 91
        1
 92
        1
 93
        1
 72
         2
 10
72.439999999999998
 20
18.280000000000001
 40
0.45
 50
0.0
 51
360.0
 73
         1
 97
        1
330
357
 75
         0
 76
         1
 98
        1
 10
0.0
 20
0.0
  0
CIRCLE
  5
359
100
AcDbEntity
  8
PART_HOLES_LAYER_TOP
100
AcDbCircle
 10
72.44
 20
20.82
 30
0.0
 40
0.45
  0
HATCH
  5
35A
100
AcDbEntity
  8
PART_HOLES_LAYER_TOP
100
AcDbHatch
 10
0.0
 20
0.0
 30
0.0
210
0.0
220
0.0
230
1.0
  2
SOLID
 70
         1
 71
         1
 91
        1
 92
        1
 93
        1
 72
         2
 10
72.439999999999998
 20
20.82
 40
0.45
 50
0.0
 51
360.0
 73
         1
 97
        1
330
359
 75
         0
 76
         1
 98
        1
 10
0.0
 20
0.0
  0
CIRCLE
  5
35B
100
AcDbEntity
  8
PART_HOLES_LAYER_TOP
100
AcDbCircle
 10
72.44
 20
23.36
 30
0.0
 40
0.45
  0
HATCH
  5
35C
100
AcDbEntity
  8
PART_HOLES_LAYER_TOP
100
AcDbHatch
 10
0.0
 20
0.0
 30
0.0
210
0.0
220
0.0
230
1.0
  2
SOLID
 70
         1
 71
         1
 91
        1
 92
        1
 93
        1
 72
         2
 10
72.439999999999998
 20
23.359999999999999
 40
0.45
 50
0.0
 51
360.0
 73
         1
 97
        1
330
35B
 75
         0
 76
         1
 98
        1
 10
0.0
 20
0.0
  0
CIRCLE
  5
35D
100
AcDbEntity
  8
PART_HOLES_LAYER_TOP
100
AcDbCircle
 10
72.44
 20
36.06
 30
0.0
 40
0.45
  0
HATCH
  5
35E
100
AcDbEntity
  8
PART_HOLES_LAYER_TOP
100
AcDbHatch
 10
0.0
 20
0.0
 30
0.0
210
0.0
220
0.0
230
1.0
  2
SOLID
 70
         1
 71
         1
 91
        1
 92
        1
 93
        1
 72
         2
 10
72.439999999999998
 20
36.060000000000002
 40
0.45
 50
0.0
 51
360.0
 73
         1
 97
        1
330
35D
 75
         0
 76
         1
 98
        1
 10
0.0
 20
0.0
  0
CIRCLE
  5
35F
100
AcDbEntity
  8
PART_HOLES_LAYER_TOP
100
AcDbCircle
 10
72.44
 20
33.52
 30
0.0
 40
0.45
  0
HATCH
  5
360
100
AcDbEntity
  8
PART_HOLES_LAYER_TOP
100
AcDbHatch
 10
0.0
 20
0.0
 30
0.0
210
0.0
220
0.0
230
1.0
  2
SOLID
 70
         1
 71
         1
 91
        1
 92
        1
 93
        1
 72
         2
 10
72.439999999999998
 20
33.520000000000003
 40
0.45
 50
0.0
 51
360.0
 73
         1
 97
        1
330
35F
 75
         0
 76
         1
 98
        1
 10
0.0
 20
0.0
  0
CIRCLE
  5
361
100
AcDbEntity
  8
PART_HOLES_LAYER_TOP
100
AcDbCircle
 10
72.44
 20
30.98
 30
0.0
 40
0.45
  0
HATCH
  5
362
100
AcDbEntity
  8
PART_HOLES_LAYER_TOP
100
AcDbHatch
 10
0.0
 20
0.0
 30
0.0
210
0.0
220
0.0
230
1.0
  2
SOLID
 70
         1
 71
         1
 91
        1
 92
        1
 93
        1
 72
         2
 10
72.439999999999998
 20
30.98
 40
0.45
 50
0.0
 51
360.0
 73
         1
 97
        1
330
361
 75
         0
 76
         1
 98
        1
 10
0.0
 20
0.0
  0
CIRCLE
  5
363
100
AcDbEntity
  8
PART_HOLES_LAYER_TOP
100
AcDbCircle
 10
72.44
 20
28.44
 30
0.0
 40
0.45
  0
HATCH
  5
364
100
AcDbEntity
  8
PART_HOLES_LAYER_TOP
100
AcDbHatch
 10
0.0
 20
0.0
 30
0.0
210
0.0
220
0.0
230
1.0
  2
SOLID
 70
         1
 71
         1
 91
        1
 92
        1
 93
        1
 72
         2
 10
72.439999999999998
 20
28.440000000000001
 40
0.45
 50
0.0
 51
360.0
 73
         1
 97
        1
330
363
 75
         0
 76
         1
 98
        1
 10
0.0
 20
0.0
  0
CIRCLE
  5
365
100
AcDbEntity
  8
PART_HOLES_LAYER_TOP
100
AcDbCircle
 10
72.44
 20
25.9
 30
0.0
 40
0.45
  0
HATCH
  5
366
100
AcDbEntity
  8
PART_HOLES_LAYER_TOP
100
AcDbHatch
 10
0.0
 20
0.0
 30
0.0
210
0.0
220
0.0
230
1.0
  2
SOLID
 70
         1
 71
         1
 91
        1
 92
        1
 93
        1
 72
         2
 10
72.439999999999998
 20
25.899999999999999
 40
0.45
 50
0.0
 51
360.0
 73
         1
 97
        1
330
365
 75
         0
 76
         1
 98
        1
 10
0.0
 20
0.0
  0
CIRCLE
  5
367
100
AcDbEntity
  8
PART_HOLES_LAYER_TOP
100
AcDbCircle
 10
69.9
 20
25.9
 30
0.0
 40
0.45
  0
HATCH
  5
368
100
AcDbEntity
  8
PART_HOLES_LAYER_TOP
100
AcDbHatch
 10
0.0
 20
0.0
 30
0.0
210
0.0
220
0.0
230
1.0
  2
SOLID
 70
         1
 71
         1
 91
        1
 92
        1
 93
        1
 72
         2
 10
69.900000000000006
 20
25.899999999999999
 40
0.45
 50
0.0
 51
360.0
 73
         1
 97
        1
330
367
 75
         0
 76
         1
 98
        1
 10
0.0
 20
0.0
  0
CIRCLE
  5
369
100
AcDbEntity
  8
PART_HOLES_LAYER_TOP
100
AcDbCircle
 10
72.44
 20
38.6
 30
0.0
 40
0.45
  0
HATCH
  5
36A
100
AcDbEntity
  8
PART_HOLES_LAYER_TOP
100
AcDbHatch
 10
0.0
 20
0.0
 30
0.0
210
0.0
220
0.0
230
1.0
  2
SOLID
 70
         1
 71
         1
 91
        1
 92
        1
 93
        1
 72
         2
 10
72.439999999999998
 20
38.600000000000001
 40
0.45
 50
0.0
 51
360.0
 73
         1
 97
        1
330
369
 75
         0
 76
         1
 98
        1
 10
0.0
 20
0.0
  0
CIRCLE
  5
36B
100
AcDbEntity
  8
PART_HOLES_LAYER_TOP
100
AcDbCircle
 10
69.9
 20
28.44
 30
0.0
 40
0.45
  0
HATCH
  5
36C
100
AcDbEntity
  8
PART_HOLES_LAYER_TOP
100
AcDbHatch
 10
0.0
 20
0.0
 30
0.0
210
0.0
220
0.0
230
1.0
  2
SOLID
 70
         1
 71
         1
 91
        1
 92
        1
 93
        1
 72
         2
 10
69.900000000000006
 20
28.440000000000001
 40
0.45
 50
0.0
 51
360.0
 73
         1
 97
        1
330
36B
 75
         0
 76
         1
 98
        1
 10
0.0
 20
0.0
  0
CIRCLE
  5
36D
100
AcDbEntity
  8
PART_HOLES_LAYER_TOP
100
AcDbCircle
 10
69.9
 20
33.52
 30
0.0
 40
0.45
  0
HATCH
  5
36E
100
AcDbEntity
  8
PART_HOLES_LAYER_TOP
100
AcDbHatch
 10
0.0
 20
0.0
 30
0.0
210
0.0
220
0.0
230
1.0
  2
SOLID
 70
         1
 71
         1
 91
        1
 92
        1
 93
        1
 72
         2
 10
69.900000000000006
 20
33.520000000000003
 40
0.45
 50
0.0
 51
360.0
 73
         1
 97
        1
330
36D
 75
         0
 76
         1
 98
        1
 10
0.0
 20
0.0
  0
CIRCLE
  5
36F
100
AcDbEntity
  8
PART_HOLES_LAYER_TOP
100
AcDbCircle
 10
69.9
 20
23.36
 30
0.0
 40
0.45
  0
HATCH
  5
370
100
AcDbEntity
  8
PART_HOLES_LAYER_TOP
100
AcDbHatch
 10
0.0
 20
0.0
 30
0.0
210
0.0
220
0.0
230
1.0
  2
SOLID
 70
         1
 71
         1
 91
        1
 92
        1
 93
        1
 72
         2
 10
69.900000000000006
 20
23.359999999999999
 40
0.45
 50
0.0
 51
360.0
 73
         1
 97
        1
330
36F
 75
         0
 76
         1
 98
        1
 10
0.0
 20
0.0
  0
CIRCLE
  5
371
100
AcDbEntity
  8
PART_HOLES_LAYER_TOP
100
AcDbCircle
 10
69.9
 20
30.98
 30
0.0
 40
0.45
  0
HATCH
  5
372
100
AcDbEntity
  8
PART_HOLES_LAYER_TOP
100
AcDbHatch
 10
0.0
 20
0.0
 30
0.0
210
0.0
220
0.0
230
1.0
  2
SOLID
 70
         1
 71
         1
 91
        1
 92
        1
 93
        1
 72
         2
 10
69.900000000000006
 20
30.98
 40
0.45
 50
0.0
 51
360.0
 73
         1
 97
        1
330
371
 75
         0
 76
         1
 98
        1
 10
0.0
 20
0.0
  0
CIRCLE
  5
373
100
AcDbEntity
  8
PART_HOLES_LAYER_TOP
100
AcDbCircle
 10
69.9
 20
36.06
 30
0.0
 40
0.45
  0
HATCH
  5
374
100
AcDbEntity
  8
PART_HOLES_LAYER_TOP
100
AcDbHatch
 10
0.0
 20
0.0
 30
0.0
210
0.0
220
0.0
230
1.0
  2
SOLID
 70
         1
 71
         1
 91
        1
 92
        1
 93
        1
 72
         2
 10
69.900000000000006
 20
36.060000000000002
 40
0.45
 50
0.0
 51
360.0
 73
         1
 97
        1
330
373
 75
         0
 76
         1
 98
        1
 10
0.0
 20
0.0
  0
CIRCLE
  5
375
100
AcDbEntity
  8
PART_HOLES_LAYER_TOP
100
AcDbCircle
 10
69.9
 20
20.82
 30
0.0
 40
0.45
  0
HATCH
  5
376
100
AcDbEntity
  8
PART_HOLES_LAYER_TOP
100
AcDbHatch
 10
0.0
 20
0.0
 30
0.0
210
0.0
220
0.0
230
1.0
  2
SOLID
 70
         1
 71
         1
 91
        1
 92
        1
 93
        1
 72
         2
 10
69.900000000000006
 20
20.82
 40
0.45
 50
0.0
 51
360.0
 73
         1
 97
        1
330
375
 75
         0
 76
         1
 98
        1
 10
0.0
 20
0.0
  0
CIRCLE
  5
377
100
AcDbEntity
  8
PART_HOLES_LAYER_TOP
100
AcDbCircle
 10
69.9
 20
15.74
 30
0.0
 40
0.45
  0
HATCH
  5
378
100
AcDbEntity
  8
PART_HOLES_LAYER_TOP
100
AcDbHatch
 10
0.0
 20
0.0
 30
0.0
210
0.0
220
0.0
230
1.0
  2
SOLID
 70
         1
 71
         1
 91
        1
 92
        1
 93
        1
 72
         2
 10
69.900000000000006
 20
15.74
 40
0.45
 50
0.0
 51
360.0
 73
         1
 97
        1
330
377
 75
         0
 76
         1
 98
        1
 10
0.0
 20
0.0
  0
CIRCLE
  5
379
100
AcDbEntity
  8
PART_HOLES_LAYER_TOP
100
AcDbCircle
 10
69.9
 20
18.28
 30
0.0
 40
0.45
  0
HATCH
  5
37A
100
AcDbEntity
  8
PART_HOLES_LAYER_TOP
100
AcDbHatch
 10
0.0
 20
0.0
 30
0.0
210
0.0
220
0.0
230
1.0
  2
SOLID
 70
         1
 71
         1
 91
        1
 92
        1
 93
        1
 72
         2
 10
69.900000000000006
 20
18.280000000000001
 40
0.45
 50
0.0
 51
360.0
 73
         1
 97
        1
330
379
 75
         0
 76
         1
 98
        1
 10
0.0
 20
0.0
  0
CIRCLE
  5
37B
100
AcDbEntity
  8
PART_HOLES_LAYER_TOP
100
AcDbCircle
 10
110.7
 20
60.5
 30
0.0
 40
0.45
  0
HATCH
  5
37C
100
AcDbEntity
  8
PART_HOLES_LAYER_TOP
100
AcDbHatch
 10
0.0
 20
0.0
 30
0.0
210
0.0
220
0.0
230
1.0
  2
SOLID
 70
         1
 71
         1
 91
        1
 92
        1
 93
        1
 72
         2
 10
110.7
 20
60.5
 40
0.45
 50
0.0
 51
360.0
 73
         1
 97
        1
330
37B
 75
         0
 76
         1
 98
        1
 10
0.0
 20
0.0
  0
CIRCLE
  5
37D
100
AcDbEntity
  8
PART_HOLES_LAYER_TOP
100
AcDbCircle
 10
110.7
 20
63.04
 30
0.0
 40
0.45
  0
HATCH
  5
37E
100
AcDbEntity
  8
PART_HOLES_LAYER_TOP
100
AcDbHatch
 10
0.0
 20
0.0
 30
0.0
210
0.0
220
0.0
230
1.0
  2
SOLID
 70
         1
 71
         1
 91
        1
 92
        1
 93
        1
 72
         2
 10
110.7
 20
63.039999999999999
 40
0.45
 50
0.0
 51
360.0
 73
         1
 97
        1
330
37D
 75
         0
 76
         1
 98
        1
 10
0.0
 20
0.0
  0
CIRCLE
  5
37F
100
AcDbEntity
  8
PART_HOLES_LAYER_TOP
100
AcDbCircle
 10
65.4
 20
51.9
 30
0.0
 40
0.45
  0
HATCH
  5
380
100
AcDbEntity
  8
PART_HOLES_LAYER_TOP
100
AcDbHatch
 10
0.0
 20
0.0
 30
0.0
210
0.0
220
0.0
230
1.0
  2
SOLID
 70
         1
 71
         1
 91
        1
 92
        1
 93
        1
 72
         2
 10
65.400000000000006
 20
51.899999999999999
 40
0.45
 50
0.0
 51
360.0
 73
         1
 97
        1
330
37F
 75
         0
 76
         1
 98
        1
 10
0.0
 20
0.0
  0
CIRCLE
  5
381
100
AcDbEntity
  8
PART_HOLES_LAYER_TOP
100
AcDbCircle
 10
67.94
 20
51.9
 30
0.0
 40
0.45
  0
HATCH
  5
382
100
AcDbEntity
  8
PART_HOLES_LAYER_TOP
100
AcDbHatch
 10
0.0
 20
0.0
 30
0.0
210
0.0
220
0.0
230
1.0
  2
SOLID
 70
         1
 71
         1
 91
        1
 92
        1
 93
        1
 72
         2
 10
67.939999999999998
 20
51.899999999999999
 40
0.45
 50
0.0
 51
360.0
 73
         1
 97
        1
330
381
 75
         0
 76
         1
 98
        1
 10
0.0
 20
0.0
  0
CIRCLE
  5
383
100
AcDbEntity
  8
PART_HOLES_LAYER_TOP
100
AcDbCircle
 10
123.6
 20
83.2
 30
0.0
 40
0.45
  0
HATCH
  5
384
100
AcDbEntity
  8
PART_HOLES_LAYER_TOP
100
AcDbHatch
 10
0.0
 20
0.0
 30
0.0
210
0.0
220
0.0
230
1.0
  2
SOLID
 70
         1
 71
         1
 91
        1
 92
        1
 93
        1
 72
         2
 10
123.59999999999999
 20
83.200000000000003
 40
0.45
 50
0.0
 51
360.0
 73
         1
 97
        1
330
383
 75
         0
 76
         1
 98
        1
 10
0.0
 20
0.0
  0
CIRCLE
  5
385
100
AcDbEntity
  8
PART_HOLES_LAYER_TOP
100
AcDbCircle
 10
126.14
 20
83.2
 30
0.0
 40
0.45
  0
HATCH
  5
386
100
AcDbEntity
  8
PART_HOLES_LAYER_TOP
100
AcDbHatch
 10
0.0
 20
0.0
 30
0.0
210
0.0
220
0.0
230
1.0
  2
SOLID
 70
         1
 71
         1
 91
        1
 92
        1
 93
        1
 72
         2
 10
126.14
 20
83.200000000000003
 40
0.45
 50
0.0
 51
360.0
 73
         1
 97
        1
330
385
 75
         0
 76
         1
 98
        1
 10
0.0
 20
0.0
  0
CIRCLE
  5
387
100
AcDbEntity
  8
PART_HOLES_LAYER_TOP
100
AcDbCircle
 10
123.6
 20
80.66
 30
0.0
 40
0.45
  0
HATCH
  5
388
100
AcDbEntity
  8
PART_HOLES_LAYER_TOP
100
AcDbHatch
 10
0.0
 20
0.0
 30
0.0
210
0.0
220
0.0
230
1.0
  2
SOLID
 70
         1
 71
         1
 91
        1
 92
        1
 93
        1
 72
         2
 10
123.59999999999999
 20
80.659999999999997
 40
0.45
 50
0.0
 51
360.0
 73
         1
 97
        1
330
387
 75
         0
 76
         1
 98
        1
 10
0.0
 20
0.0
  0
CIRCLE
  5
389
100
AcDbEntity
  8
PART_HOLES_LAYER_TOP
100
AcDbCircle
 10
126.14
 20
80.66
 30
0.0
 40
0.45
  0
HATCH
  5
38A
100
AcDbEntity
  8
PART_HOLES_LAYER_TOP
100
AcDbHatch
 10
0.0
 20
0.0
 30
0.0
210
0.0
220
0.0
230
1.0
  2
SOLID
 70
         1
 71
         1
 91
        1
 92
        1
 93
        1
 72
         2
 10
126.14
 20
80.659999999999997
 40
0.45
 50
0.0
 51
360.0
 73
         1
 97
        1
330
389
 75
         0
 76
         1
 98
        1
 10
0.0
 20
0.0
  0
CIRCLE
  5
38B
100
AcDbEntity
  8
PART_HOLES_LAYER_TOP
100
AcDbCircle
 10
128.4
 20
76.0
 30
0.0
 40
1.25
  0
HATCH
  5
38C
100
AcDbEntity
  8
PART_HOLES_LAYER_TOP
100
AcDbHatch
 10
0.0
 20
0.0
 30
0.0
210
0.0
220
0.0
230
1.0
  2
SOLID
 70
         1
 71
         1
 91
        1
 92
        1
 93
        1
 72
         2
 10
128.40000000000001
 20
76.0
 40
1.25
 50
0.0
 51
360.0
 73
         1
 97
        1
330
38B
 75
         0
 76
         1
 98
        1
 10
0.0
 20
0.0
  0
CIRCLE
  5
38D
100
AcDbEntity
  8
PART_HOLES_LAYER_TOP
100
AcDbCircle
 10
128.4
 20
88.0
 30
0.0
 40
1.25
  0
HATCH
  5
38E
100
AcDbEntity
  8
PART_HOLES_LAYER_TOP
100
AcDbHatch
 10
0.0
 20
0.0
 30
0.0
210
0.0
220
0.0
230
1.0
  2
SOLID
 70
         1
 71
         1
 91
        1
 92
        1
 93
        1
 72
         2
 10
128.40000000000001
 20
88.0
 40
1.25
 50
0.0
 51
360.0
 73
         1
 97
        1
330
38D
 75
         0
 76
         1
 98
        1
 10
0.0
 20
0.0
  0
CIRCLE
  5
38F
100
AcDbEntity
  8
PART_HOLES_LAYER_TOP
100
AcDbCircle
 10
113.3
 20
60.5
 30
0.0
 40
0.45
  0
HATCH
  5
390
100
AcDbEntity
  8
PART_HOLES_LAYER_TOP
100
AcDbHatch
 10
0.0
 20
0.0
 30
0.0
210
0.0
220
0.0
230
1.0
  2
SOLID
 70
         1
 71
         1
 91
        1
 92
        1
 93
        1
 72
         2
 10
113.3
 20
60.5
 40
0.45
 50
0.0
 51
360.0
 73
         1
 97
        1
330
38F
 75
         0
 76
         1
 98
        1
 10
0.0
 20
0.0
  0
CIRCLE
  5
391
100
AcDbEntity
  8
PART_HOLES_LAYER_TOP
100
AcDbCircle
 10
113.3
 20
63.04
 30
0.0
 40
0.45
  0
HATCH
  5
392
100
AcDbEntity
  8
PART_HOLES_LAYER_TOP
100
AcDbHatch
 10
0.0
 20
0.0
 30
0.0
210
0.0
220
0.0
230
1.0
  2
SOLID
 70
         1
 71
         1
 91
        1
 92
        1
 93
        1
 72
         2
 10
113.3
 20
63.039999999999999
 40
0.45
 50
0.0
 51
360.0
 73
         1
 97
        1
330
391
 75
         0
 76
         1
 98
        1
 10
0.0
 20
0.0
  0
CIRCLE
  5
393
100
AcDbEntity
  8
PART_HOLES_LAYER_TOP
100
AcDbCircle
 10
106.6
 20
84.9
 30
0.0
 40
0.45
  0
HATCH
  5
394
100
AcDbEntity
  8
PART_HOLES_LAYER_TOP
100
AcDbHatch
 10
0.0
 20
0.0
 30
0.0
210
0.0
220
0.0
230
1.0
  2
SOLID
 70
         1
 71
         1
 91
        1
 92
        1
 93
        1
 72
         2
 10
106.59999999999999
 20
84.900000000000006
 40
0.45
 50
0.0
 51
360.0
 73
         1
 97
        1
330
393
 75
         0
 76
         1
 98
        1
 10
0.0
 20
0.0
  0
CIRCLE
  5
395
100
AcDbEntity
  8
PART_HOLES_LAYER_TOP
100
AcDbCircle
 10
109.14
 20
84.9
 30
0.0
 40
0.45
  0
HATCH
  5
396
100
AcDbEntity
  8
PART_HOLES_LAYER_TOP
100
AcDbHatch
 10
0.0
 20
0.0
 30
0.0
210
0.0
220
0.0
230
1.0
  2
SOLID
 70
         1
 71
         1
 91
        1
 92
        1
 93
        1
 72
         2
 10
109.14
 20
84.900000000000006
 40
0.45
 50
0.0
 51
360.0
 73
         1
 97
        1
330
395
 75
         0
 76
         1
 98
        1
 10
0.0
 20
0.0
  0
ENDSEC
  0
SECTION
  2
OBJECTS
  0
DICTIONARY
  5
19
100
AcDbDictionary
  3
ACAD_GROUP
350
1A
  3
ACAD_MLINESTYLE
350
1B
  0
DICTIONARY
  5
1A
102
{ACAD_REACTORS
330
19
102
}
100
AcDbDictionary
  0
DICTIONARY
  5
1B
102
{ACAD_REACTORS
330
19
102
}
100
AcDbDictionary
  3
STANDARD
350
1C
  0
MLINESTYLE
  5
1C
102
{ACAD_REACTORS
330
1B
102
}
100
AcDbMlineStyle
  2
STANDARD
 70
         0
  3

 62
         0
 51
90.0
 52
90.0
 71
         2
 49
0.5
 62
       256
  6
BYLAYER
 49
-0.5
 62
       256
  6
BYLAYER
  0
DICTIONARY
  5
22
102
{ACAD_REACTORS
330
19
102
}
100
AcDbDictionary
  0
ENDSEC
  0
EOF
