  0
SECTION
  2
HEADER
  9
$ACADVER
  1
AC1014
  9
$ACADMAINTVER
 70
         0
  9
$DWGCODEPAGE
  3
ANSI_1252
  9
$INSBASE
 10
0.0
 20
0.0
 30
0.0
  9
$EXTMIN
 10
-14.666254
 20
-12.618563
 30
0.0
  9
$EXTMAX
 10
127.968723
 20
69.314837
 30
0.0
  9
$LIMMIN
 10
0.0
 20
0.0
  9
$LIMMAX
 10
0.0
 20
0.0
  9
$ORTHOMODE
 70
         0
  9
$REGENMODE
 70
         1
  9
$FILLMODE
 70
         1
  9
$QTEXTMODE
 70
         0
  9
$MIRRTEXT
 70
         1
  9
$DRAGMODE
 70
         2
  9
$LTSCALE
 40
1.0
  9
$OSMODE
 70
         0
  9
$ATTMODE
 70
         1
  9
$TEXTSIZE
 40
0.2
  9
$TRACEWID
 40
0.05
  9
$TEXTSTYLE
  7
STANDARD
  9
$CLAYER
  8
0
  9
$CELTYPE
  6
CONTINUOUS
  9
$CECOLOR
 62
       256
  9
$CELTSCALE
 40
1.0
  9
$DELOBJ
 70
         1
  9
$DISPSILH
 70
         0
  9
$DIMSCALE
 40
1.0
  9
$DIMASZ
 40
0.18
  9
$DIMEXO
 40
0.0625
  9
$DIMDLI
 40
0.38
  9
$DIMRND
 40
0.0
  9
$DIMDLE
 40
0.0
  9
$DIMEXE
 40
0.18
  9
$DIMTP
 40
0.0
  9
$DIMTM
 40
0.0
  9
$DIMTXT
 40
0.18
  9
$DIMCEN
 40
0.09
  9
$DIMTSZ
 40
0.0
  9
$DIMTOL
 70
         0
  9
$DIMLIM
 70
         0
  9
$DIMTIH
 70
         1
  9
$DIMTOH
 70
         1
  9
$DIMSE1
 70
         0
  9
$DIMSE2
 70
         0
  9
$DIMTAD
 70
         0
  9
$DIMZIN
 70
         0
  9
$DIMBLK
  1

  9
$DIMASO
 70
         1
  9
$DIMSHO
 70
         1
  9
$DIMPOST
  1

  9
$DIMAPOST
  1

  9
$DIMALT
 70
         0
  9
$DIMALTD
 70
         2
  9
$DIMALTF
 40
25.4
  9
$DIMLFAC
 40
1.0
  9
$DIMTOFL
 70
         0
  9
$DIMTVP
 40
0.0
  9
$DIMTIX
 70
         0
  9
$DIMSOXD
 70
         0
  9
$DIMSAH
 70
         0
  9
$DIMBLK1
  1

  9
$DIMBLK2
  1

  9
$DIMSTYLE
  2
STANDARD
  9
$DIMCLRD
 70
         0
  9
$DIMCLRE
 70
         0
  9
$DIMCLRT
 70
         0
  9
$DIMTFAC
 40
1.0
  9
$DIMGAP
 40
0.09
  9
$DIMJUST
 70
         0
  9
$DIMSD1
 70
         0
  9
$DIMSD2
 70
         0
  9
$DIMTOLJ
 70
         1
  9
$DIMTZIN
 70
         0
  9
$DIMALTZ
 70
         0
  9
$DIMALTTZ
 70
         0
  9
$DIMFIT
 70
         3
  9
$DIMUPT
 70
         0
  9
$DIMUNIT
 70
         2
  9
$DIMDEC
 70
         4
  9
$DIMTDEC
 70
         4
  9
$DIMALTU
 70
         2
  9
$DIMALTTD
 70
         2
  9
$DIMTXSTY
  7
STANDARD
  9
$DIMAUNIT
 70
         0
  9
$LUNITS
 70
         2
  9
$LUPREC
 70
         4
  9
$SKETCHINC
 40
0.1
  9
$FILLETRAD
 40
0.0
  9
$AUNITS
 70
         0
  9
$AUPREC
 70
         0
  9
$MENU
  1
acad
  9
$ELEVATION
 40
0.0
  9
$PELEVATION
 40
0.0
  9
$THICKNESS
 40
0.0
  9
$LIMCHECK
 70
         0
  9
$BLIPMODE
 70
         1
  9
$CHAMFERA
 40
0.0
  9
$CHAMFERB
 40
0.0
  9
$CHAMFERC
 40
0.0
  9
$CHAMFERD
 40
0.0
  9
$SKPOLY
 70
         0
  9
$TDCREATE
 40
2455905.557986111
  9
$TDUPDATE
 40
0.000000000
  9
$TDINDWG
 40
0.0000000000
  9
$TDUSRTIMER
 40
0.0000000000
  9
$USRTIMER
 70
         1
  9
$ANGBASE
 50
0.0
  9
$ANGDIR
 70
         0
  9
$PDMODE
 70
         0
  9
$PDSIZE
 40
0.0
  9
$PLINEWID
 40
0.0
  9
$COORDS
 70
         0
  9
$SPLFRAME
 70
         0
  9
$SPLINETYPE
 70
         6
  9
$SPLINESEGS
 70
         8
  9
$ATTDIA
 70
         0
  9
$ATTREQ
 70
         1
  9
$HANDLING
 70
         1
  9
$HANDSEED
  5
1E0
  9
$SURFTAB1
 70
         6
  9
$SURFTAB2
 70
         6
  9
$SURFTYPE
 70
         6
  9
$SURFU
 70
         6
  9
$SURFV
 70
         6
  9
$UCSNAME
  2

  9
$UCSORG
 10
0.0
 20
0.0
 30
0.0
  9
$UCSXDIR
 10
1.0
 20
0.0
 30
0.0
  9
$UCSYDIR
 10
0.0
 20
1.0
 30
0.0
  9
$PUCSNAME
  2

  9
$PUCSORG
 10
0.0
 20
0.0
 30
0.0
  9
$PUCSXDIR
 10
1.0
 20
0.0
 30
0.0
  9
$PUCSYDIR
 10
0.0
 20
1.0
 30
0.0
  9
$USERI1
 70
        -3
  9
$USERI2
 70
         0
  9
$USERI3
 70
         0
  9
$USERI4
 70
         0
  9
$USERI5
 70
         0
  9
$USERR1
 40
0.0
  9
$USERR2
 40
0.0
  9
$USERR3
 40
0.0
  9
$USERR4
 40
0.0
  9
$USERR5
 40
0.0
  9
$WORLDVIEW
 70
         1
  9
$SHADEDGE
 70
         3
  9
$SHADEDIF
 70
        70
  9
$TILEMODE
 70
         1
  9
$MAXACTVP
 70
        16
  9
$PINSBASE
 10
0.0
 20
0.0
 30
0.0
  9
$PLIMCHECK
 70
         0
  9
$PEXTMIN
 10
1.0000000000E+20
 20
1.0000000000E+20
 30
1.0000000000E+20
  9
$PEXTMAX
 10
-1.0000000000E+20
 20
-1.0000000000E+20
 30
-1.0000000000E+20
  9
$PLIMMIN
 10
0.0
 20
0.0
  9
$PLIMMAX
 10
12.0
 20
9.0
  9
$UNITMODE
 70
         0
  9
$VISRETAIN
 70
         0
  9
$PLINEGEN
 70
         1
  9
$PSLTSCALE
 70
         0
  9
$TREEDEPTH
 70
      3020
  9
$PICKSTYLE
 70
         1
  9
$CMLSTYLE
  2
STANDARD
  9
$CMLJUST
 70
         0
  9
$CMLSCALE
 40
1.0
  9
$PROXYGRAPHICS
 70
         0
  9
$MEASUREMENT
 70
         0
  0
ENDSEC
  0
SECTION
  2
CLASSES
  0
CLASS
  1
LWPOLYLINE
  2
AcDbPolyline
  3
"AutoCAD"
 90
        0
280
         0
281
         1
  0
CLASS
  1
IMAGE
  2
AcDbRasterImage
  3
ISM
 90
      127
280
         0
281
         1
  0
CLASS
  1
OLE2FRAME
  2
AcDbOle2Frame
  3
""
 90
        0
280
         0
281
         1
  0
CLASS
  1
HATCH
  2
AcDbHatch
  3
"ACAD_SEDONA"
 90
        0
280
         0
281
         1
  0
CLASS
  1
DICTIONARYVAR
  2
AcDbDictionaryVar
  3
"AutoCAD"
 90
        0
280
         0
281
         0
  0
CLASS
  1
RASTERVARIABLES
  2
AcDbRasterVariables
  3
ISM
 90
        0
280
         0
281
         0
  0
CLASS
  1
IMAGEDEF
  2
AcDbRasterImageDef
  3
ISM
 90
        0
280
         0
281
         0
  0
CLASS
  1
IMAGEDEF_REACTOR
  2
AcDbRasterImageDefReactor
  3
ISM
 90
        1
280
         0
281
         0
  0
CLASS
  1
IDBUFFER
  2
AcDbIdBuffer
  3
"Acad"
 90
        0
280
         0
281
         0
  0
CLASS
  1
SPATIAL_FILTER
  2
AcDbSpatialFilter
  3
"Acad"
 90
        0
280
         0
281
         0
  0
CLASS
  1
XRECORD
  2
AcDbXrecord
  3
"<Built In>"
 90
        0
280
         0
281
         0
  0
CLASS
  1
SORTENTSTABLE
  2
AcDbSortentsTable
  3
"AutoCAD"
 90
        0
280
         0
281
         0
  0
CLASS
  1
LAYER_INDEX
  2
AcDbLayerIndex
  3
"Acad"
 90
        0
280
         0
281
         0
  0
CLASS
  1
SPATIAL_INDEX
  2
AcDbSpatialIndex
  3
"Acad"
 90
        0
280
         0
281
         0
  0
CLASS
  1
OBJECT_PTR
  2
CAseDLPNTableRecord
  3
"ASE-LPNTableRecord"
 90
        1
280
         0
281
         0
  0
CLASS
  1
LAYOUT
  2
AcDbLayout
  3
"AutoCAD 2000"
 90
        0
280
         0
281
         0
  0
CLASS
  1
PLOTSETTINGS
  2
AcDbPlotSettings
  3
"AutoCAD 2000"
 90
        0
280
         0
281
         0
  0
CLASS
  1
ACDBDICTIONARYWDFLT
  2
AcDbDictionaryWithDefault
  3
"AutoCAD 2000"
 90
        0
280
         0
281
         0
  0
CLASS
  1
ACDBPLACEHOLDER
  2
AcDbPlaceHolder
  3
"AutoCAD 2000"
 90
        0
280
         0
281
         0
  0
CLASS
  1
VBA_PROJECT
  2
AcDbVbaProject
  3
"acadvba"
 90
        0
280
         0
281
         0
  0
CLASS
  1
WIPEOUT
  2
AcDbWipeout
  3
WipeOut|AutoCAD Express Tool|expresstools@autodesk.com
 90
      127
280
         0
281
         1
  0
CLASS
  1
WIPEOUTVARIABLES
  2
AcDbWipeoutVariables
  3
WipeOut|AutoCAD Express Tool|expresstools@autodesk.com
 90
        0
280
         0
281
         0
  0
CLASS
  1
RTEXT
  2
RText
  3
RText|AutoCAD Express Tool|expresstools@autodesk.com
 90
        0
280
         0
281
         1
  0
CLASS
  1
ARCALIGNEDTEXT
  2
AcDbArcAlignedText
  3
ATEXT|AutoCAD Express Tool|expresstools@autodesk.com
 90
        0
280
         0
281
         1
  0
ENDSEC
  0
SECTION
  2
TABLES
  0
TABLE
  2
VPORT
  5
7
100
AcDbSymbolTable
 70
         1
  0
VPORT
  5
15
100
AcDbSymbolTableRecord
100
AcDbViewportTableRecord
  2
*ACTIVE
 70
         0
 10
0.0
 20
0.0
 11
1.0
 21
1.0
 12
6.591288
 22
4.579184
 13
0.0
 23
0.0
 14
1.0
 24
1.0
 15
0.0
 25
0.0
 16
0.0
 26
0.0
 36
1.0
 17
0.0
 27
0.0
 37
0.0
 40
9.158369
 41
0.688564
 42
50.0
 43
0.0
 44
0.0
 50
0.0
 51
0.0
 71
         0
 72
       100
 73
         1
 74
         1
 75
         0
 76
         0
 77
         0
 78
         0
  0
ENDTAB
  0
TABLE
  2
LTYPE
  5
4
100
AcDbSymbolTable
 70
         3
  0
LTYPE
  5
11
100
AcDbSymbolTableRecord
100
AcDbLinetypeTableRecord
  2
BYBLOCK
 70
        64
  3

 72
        65
 73
         0
 40
0.0
  0
LTYPE
  5
12
100
AcDbSymbolTableRecord
100
AcDbLinetypeTableRecord
  2
BYLAYER
 70
        64
  3

 72
        65
 73
         0
 40
0.0
  0
LTYPE
  5
13
100
AcDbSymbolTableRecord
100
AcDbLinetypeTableRecord
  2
CONTINUOUS
 70
        64
  3
Solid line
 72
        65
 73
         0
 40
0.0
  0
ENDTAB
  0
TABLE
  2
LAYER
  5
2
100
AcDbSymbolTable
 70
         8
  0
LAYER
  5
14
100
AcDbSymbolTableRecord
100
AcDbLayerTableRecord
  2
0
 70
         0
 62
         7
  6
CONTINUOUS
  0
LAYER
  5
24
100
AcDbSymbolTableRecord
100
AcDbLayerTableRecord
  2
ASSEMBLY_OUTLINES_TOP
 70
         0
 62
       102
  6
CONTINUOUS
  0
LAYER
  5
25
100
AcDbSymbolTableRecord
100
AcDbLayerTableRecord
  2
BOARD_OUTLINE
 70
         0
 62
        10
  6
CONTINUOUS
  0
LAYER
  5
26
100
AcDbSymbolTableRecord
100
AcDbLayerTableRecord
  2
GENERATED_SILKSCREEN_TOP
 70
         0
 62
       140
  6
CONTINUOUS
  0
LAYER
  5
27
100
AcDbSymbolTableRecord
100
AcDbLayerTableRecord
  2
MOUNTING_HOLES_LAYER_TOP
 70
         0
 62
        42
  6
CONTINUOUS
  0
LAYER
  5
28
100
AcDbSymbolTableRecord
100
AcDbLayerTableRecord
  2
PART_HOLES_LAYER_TOP
 70
         0
 62
        30
  6
CONTINUOUS
  0
LAYER
  5
29
100
AcDbSymbolTableRecord
100
AcDbLayerTableRecord
  2
PART_PADS_LAYER_TOP
 70
         0
 62
       150
  6
CONTINUOUS
  0
LAYER
  5
2A
100
AcDbSymbolTableRecord
100
AcDbLayerTableRecord
  2
SOLDERMASK_PADS_TOP
 70
         0
 62
       180
  6
CONTINUOUS
  0
ENDTAB
  0
TABLE
  2
STYLE
  5
3
100
AcDbSymbolTable
 70
         2
  0
STYLE
  5
17
100
AcDbSymbolTableRecord
100
AcDbTextStyleTableRecord
  2
STANDARD
 70
         0
 40
0.0
 41
1.0
 50
0.0
 71
         0
 42
0.0
  3
txt
  4

  0
STYLE
  5
74
100
AcDbSymbolTableRecord
100
AcDbTextStyleTableRecord
  2
VERIBEST_GERBER_1
 70
         0
 40
0.0
 41
1.0
 50
0.0
 71
         0
 42
0.0
  3
C:\Windows\Fonts\VBest1.ttf
  4

  0
ENDTAB
  0
TABLE
  2
VIEW
  5
5
100
AcDbSymbolTable
 70
         0
  0
ENDTAB
  0
TABLE
  2
UCS
  5
6
100
AcDbSymbolTable
 70
         0
  0
ENDTAB
  0
TABLE
  2
APPID
  5
8
100
AcDbSymbolTable
 70
         1
  0
APPID
  5
16
100
AcDbSymbolTableRecord
100
AcDbRegAppTableRecord
  2
ACAD
 70
         0
  0
ENDTAB
  0
TABLE
  2
DIMSTYLE
  5
9
100
AcDbSymbolTable
 70
         1
  0
DIMSTYLE
105
18
100
AcDbSymbolTableRecord
100
AcDbDimStyleTableRecord
  2
STANDARD
 70
         0
  3

  4

  5

  6

  7

 40
1.0
 41
0.18
 42
0.0625
 43
0.38
 44
0.18
 45
0.0
 46
0.0
 47
0.0
 48
0.0
 71
         0
 72
         0
 73
         1
 74
         1
 75
         0
 76
         0
 77
         0
 78
         0
140
0.18
141
0.09
142
0.0
143
25.4
144
1.0
145
0.0
146
1.0
147
0.09
170
         0
171
         2
172
         0
173
         0
174
         0
175
         0
176
         0
177
         0
178
         0
270
         2
271
         4
272
         4
273
         2
274
         2
275
         0
280
         0
281
         0
282
         0
283
         1
284
         0
285
         0
286
         0
287
         3
288
         0
340
17
  0
ENDTAB
  0
TABLE
  2
BLOCK_RECORD
  5
1
100
AcDbSymbolTable
 70
         0
  0
BLOCK_RECORD
  5
A
100
AcDbSymbolTableRecord
100
AcDbBlockTableRecord
  2
*MODEL_SPACE
  0
BLOCK_RECORD
  5
B
100
AcDbSymbolTableRecord
100
AcDbBlockTableRecord
  2
*PAPER_SPACE
  0
ENDTAB
  0
ENDSEC
  0
SECTION
  2
BLOCKS
  0
BLOCK
  5
D
100
AcDbEntity
  8
0
100
AcDbBlockBegin
  2
*MODEL_SPACE
 70
         0
 10
0.0
 20
0.0
 30
0.0
  3
*MODEL_SPACE
  1

  0
ENDBLK
  5
E
100
AcDbEntity
  8
0
100
AcDbBlockEnd
  0
BLOCK
  5
F
100
AcDbEntity
 67
         1
  8
0
100
AcDbBlockBegin
  2
*PAPER_SPACE
 70
         0
 10
0.0
 20
0.0
 30
0.0
  3
*PAPER_SPACE
  1

  0
ENDBLK
  5
10
100
AcDbEntity
 67
         1
  8
0
100
AcDbBlockEnd
  0
ENDSEC
  0
SECTION
  2
ENTITIES
  0
LWPOLYLINE
  5
2B
100
AcDbEntity
  8
ASSEMBLY_OUTLINES_TOP
100
AcDbPolyline
 90
        3
 70
         1
 10
127.359123
 20
-2.5
 10
127.930622
 20
-3.643
 10
126.787623
 20
-3.642999
  0
HATCH
  5
2C
100
AcDbEntity
  8
ASSEMBLY_OUTLINES_TOP
100
AcDbHatch
 10
0.0
 20
0.0
 30
0.0
210
0.0
220
0.0
230
1.0
  2
SOLID
 70
         1
 71
         1
 91
        1
 92
        2
 72
         0
 73
         1
 93
        3
 10
127.359123
 20
-2.5
 10
127.930622
 20
-3.6429999999999998
 10
126.787623
 20
-3.6429990000000001
 97
        1
330
2B
 75
         0
 76
         1
 98
        1
 10
0.0
 20
0.0
  0
LWPOLYLINE
  5
2D
100
AcDbEntity
  8
ASSEMBLY_OUTLINES_TOP
100
AcDbPolyline
 90
        3
 70
         1
 10
127.359123
 20
1.5
 10
126.787623
 20
2.643
 10
127.930623
 20
2.643
  0
HATCH
  5
2E
100
AcDbEntity
  8
ASSEMBLY_OUTLINES_TOP
100
AcDbHatch
 10
0.0
 20
0.0
 30
0.0
210
0.0
220
0.0
230
1.0
  2
SOLID
 70
         1
 71
         1
 91
        1
 92
        2
 72
         0
 73
         1
 93
        3
 10
127.359123
 20
1.5
 10
126.787623
 20
2.6429999999999998
 10
127.930623
 20
2.6429999999999998
 97
        1
330
2D
 75
         0
 76
         1
 98
        1
 10
0.0
 20
0.0
  0
LWPOLYLINE
  5
2F
100
AcDbEntity
  8
ASSEMBLY_OUTLINES_TOP
100
AcDbPolyline
 90
        2
 70
         0
 43
0.2032
 10
127.359123
 20
-3.0715
 10
127.359123
 20
-5.3575
  0
LWPOLYLINE
  5
30
100
AcDbEntity
  8
ASSEMBLY_OUTLINES_TOP
100
AcDbPolyline
 90
        2
 70
         0
 43
0.2032
 10
127.359123
 20
2.0715
 10
127.359123
 20
4.3575
  0
LWPOLYLINE
  5
31
100
AcDbEntity
  8
ASSEMBLY_OUTLINES_TOP
100
AcDbPolyline
 90
        2
 70
         0
 43
0.2032
 10
123.508
 20
-2.5
 10
127.867123
 20
-2.5
  0
LWPOLYLINE
  5
32
100
AcDbEntity
  8
ASSEMBLY_OUTLINES_TOP
100
AcDbPolyline
 90
        2
 70
         0
 43
0.2032
 10
119.508
 20
1.5
 10
127.867123
 20
1.5
  0
LWPOLYLINE
  5
33
100
AcDbEntity
  8
ASSEMBLY_OUTLINES_TOP
100
AcDbPolyline
 90
        3
 70
         1
 10
123.0
 20
-9.308621
 10
124.143
 20
-8.737121
 10
124.143
 20
-9.880121
  0
HATCH
  5
34
100
AcDbEntity
  8
ASSEMBLY_OUTLINES_TOP
100
AcDbHatch
 10
0.0
 20
0.0
 30
0.0
210
0.0
220
0.0
230
1.0
  2
SOLID
 70
         1
 71
         1
 91
        1
 92
        2
 72
         0
 73
         1
 93
        3
 10
123.0
 20
-9.3086210000000005
 10
124.143
 20
-8.7371210000000001
 10
124.143
 20
-9.8801210000000008
 97
        1
330
33
 75
         0
 76
         1
 98
        1
 10
0.0
 20
0.0
  0
LWPOLYLINE
  5
35
100
AcDbEntity
  8
ASSEMBLY_OUTLINES_TOP
100
AcDbPolyline
 90
        3
 70
         1
 10
119.0
 20
-9.308621
 10
117.857
 20
-9.88012
 10
117.857001
 20
-8.737121
  0
HATCH
  5
36
100
AcDbEntity
  8
ASSEMBLY_OUTLINES_TOP
100
AcDbHatch
 10
0.0
 20
0.0
 30
0.0
210
0.0
220
0.0
230
1.0
  2
SOLID
 70
         1
 71
         1
 91
        1
 92
        2
 72
         0
 73
         1
 93
        3
 10
119.0
 20
-9.3086210000000005
 10
117.857
 20
-9.8801199999999998
 10
117.857001
 20
-8.7371210000000001
 97
        1
330
35
 75
         0
 76
         1
 98
        1
 10
0.0
 20
0.0
  0
LWPOLYLINE
  5
37
100
AcDbEntity
  8
ASSEMBLY_OUTLINES_TOP
100
AcDbPolyline
 90
        2
 70
         0
 43
0.2032
 10
123.5715
 20
-9.308621
 10
125.8575
 20
-9.308621
  0
LWPOLYLINE
  5
38
100
AcDbEntity
  8
ASSEMBLY_OUTLINES_TOP
100
AcDbPolyline
 90
        2
 70
         0
 43
0.2032
 10
118.4285
 20
-9.308621
 10
116.1425
 20
-9.308621
  0
LWPOLYLINE
  5
39
100
AcDbEntity
  8
ASSEMBLY_OUTLINES_TOP
100
AcDbPolyline
 90
        2
 70
         0
 43
0.2032
 10
123.0
 20
-3.008
 10
123.0
 20
-9.816621
  0
LWPOLYLINE
  5
3A
100
AcDbEntity
  8
ASSEMBLY_OUTLINES_TOP
100
AcDbPolyline
 90
        2
 70
         0
 43
0.2032
 10
119.0
 20
0.992
 10
119.0
 20
-9.816621
  0
LWPOLYLINE
  5
3B
100
AcDbEntity
  8
ASSEMBLY_OUTLINES_TOP
100
AcDbPolyline
 90
        3
 70
         1
 10
2.0
 20
-5.743837
 10
3.143
 20
-5.172337
 10
3.143
 20
-6.315337
  0
HATCH
  5
3C
100
AcDbEntity
  8
ASSEMBLY_OUTLINES_TOP
100
AcDbHatch
 10
0.0
 20
0.0
 30
0.0
210
0.0
220
0.0
230
1.0
  2
SOLID
 70
         1
 71
         1
 91
        1
 92
        2
 72
         0
 73
         1
 93
        3
 10
2.0
 20
-5.7438370000000001
 10
3.1429999999999998
 20
-5.1723369999999997
 10
3.1429999999999998
 20
-6.3153370000000004
 97
        1
330
3B
 75
         0
 76
         1
 98
        1
 10
0.0
 20
0.0
  0
LWPOLYLINE
  5
3D
100
AcDbEntity
  8
ASSEMBLY_OUTLINES_TOP
100
AcDbPolyline
 90
        3
 70
         1
 10
-2.0
 20
-5.743837
 10
-3.143
 20
-6.315336
 10
-3.142999
 20
-5.172337
  0
HATCH
  5
3E
100
AcDbEntity
  8
ASSEMBLY_OUTLINES_TOP
100
AcDbHatch
 10
0.0
 20
0.0
 30
0.0
210
0.0
220
0.0
230
1.0
  2
SOLID
 70
         1
 71
         1
 91
        1
 92
        2
 72
         0
 73
         1
 93
        3
 10
-2.0
 20
-5.7438370000000001
 10
-3.1429999999999998
 20
-6.3153360000000003
 10
-3.1429990000000001
 20
-5.1723369999999997
 97
        1
330
3D
 75
         0
 76
         1
 98
        1
 10
0.0
 20
0.0
  0
LWPOLYLINE
  5
3F
100
AcDbEntity
  8
ASSEMBLY_OUTLINES_TOP
100
AcDbPolyline
 90
        2
 70
         0
 43
0.2032
 10
2.5715
 20
-5.743837
 10
4.8575
 20
-5.743837
  0
LWPOLYLINE
  5
40
100
AcDbEntity
  8
ASSEMBLY_OUTLINES_TOP
100
AcDbPolyline
 90
        2
 70
         0
 43
0.2032
 10
-2.5715
 20
-5.743837
 10
-4.8575
 20
-5.743837
  0
LWPOLYLINE
  5
41
100
AcDbEntity
  8
ASSEMBLY_OUTLINES_TOP
100
AcDbPolyline
 90
        2
 70
         0
 43
0.2032
 10
2.0
 20
0.992
 10
2.0
 20
-6.251837
  0
LWPOLYLINE
  5
42
100
AcDbEntity
  8
ASSEMBLY_OUTLINES_TOP
100
AcDbPolyline
 90
        2
 70
         0
 43
0.2032
 10
-2.0
 20
-3.008
 10
-2.0
 20
-6.251837
  0
LWPOLYLINE
  5
43
100
AcDbEntity
  8
ASSEMBLY_OUTLINES_TOP
100
AcDbPolyline
 90
        3
 70
         1
 10
-6.069839
 20
-2.5
 10
-5.49834
 20
-3.643
 10
-6.641339
 20
-3.642999
  0
HATCH
  5
44
100
AcDbEntity
  8
ASSEMBLY_OUTLINES_TOP
100
AcDbHatch
 10
0.0
 20
0.0
 30
0.0
210
0.0
220
0.0
230
1.0
  2
SOLID
 70
         1
 71
         1
 91
        1
 92
        2
 72
         0
 73
         1
 93
        3
 10
-6.069839
 20
-2.5
 10
-5.4983399999999998
 20
-3.6429999999999998
 10
-6.6413390000000003
 20
-3.6429990000000001
 97
        1
330
43
 75
         0
 76
         1
 98
        1
 10
0.0
 20
0.0
  0
LWPOLYLINE
  5
45
100
AcDbEntity
  8
ASSEMBLY_OUTLINES_TOP
100
AcDbPolyline
 90
        3
 70
         1
 10
-6.069839
 20
1.5
 10
-6.641339
 20
2.643
 10
-5.498339
 20
2.643
  0
HATCH
  5
46
100
AcDbEntity
  8
ASSEMBLY_OUTLINES_TOP
100
AcDbHatch
 10
0.0
 20
0.0
 30
0.0
210
0.0
220
0.0
230
1.0
  2
SOLID
 70
         1
 71
         1
 91
        1
 92
        2
 72
         0
 73
         1
 93
        3
 10
-6.069839
 20
1.5
 10
-6.6413390000000003
 20
2.6429999999999998
 10
-5.4983389999999996
 20
2.6429999999999998
 97
        1
330
45
 75
         0
 76
         1
 98
        1
 10
0.0
 20
0.0
  0
LWPOLYLINE
  5
47
100
AcDbEntity
  8
ASSEMBLY_OUTLINES_TOP
100
AcDbPolyline
 90
        2
 70
         0
 43
0.2032
 10
-6.069839
 20
-3.0715
 10
-6.069839
 20
-5.3575
  0
LWPOLYLINE
  5
48
100
AcDbEntity
  8
ASSEMBLY_OUTLINES_TOP
100
AcDbPolyline
 90
        2
 70
         0
 43
0.2032
 10
-6.069839
 20
2.0715
 10
-6.069839
 20
4.3575
  0
LWPOLYLINE
  5
49
100
AcDbEntity
  8
ASSEMBLY_OUTLINES_TOP
100
AcDbPolyline
 90
        2
 70
         0
 43
0.2032
 10
-2.508
 20
-2.5
 10
-6.577839
 20
-2.5
  0
LWPOLYLINE
  5
4A
100
AcDbEntity
  8
ASSEMBLY_OUTLINES_TOP
100
AcDbPolyline
 90
        2
 70
         0
 43
0.2032
 10
1.492
 20
1.5
 10
-6.577839
 20
1.5
  0
LWPOLYLINE
  5
4B
100
AcDbEntity
  8
ASSEMBLY_OUTLINES_TOP
100
AcDbPolyline
 90
        3
 70
         1
 10
-14.056654
 20
58.5
 10
-13.485155
 20
57.357
 10
-14.628154
 20
57.357001
  0
HATCH
  5
4C
100
AcDbEntity
  8
ASSEMBLY_OUTLINES_TOP
100
AcDbHatch
 10
0.0
 20
0.0
 30
0.0
210
0.0
220
0.0
230
1.0
  2
SOLID
 70
         1
 71
         1
 91
        1
 92
        2
 72
         0
 73
         1
 93
        3
 10
-14.056654
 20
58.5
 10
-13.485155000000001
 20
57.356999999999999
 10
-14.628154
 20
57.357000999999997
 97
        1
330
4B
 75
         0
 76
         1
 98
        1
 10
0.0
 20
0.0
  0
LWPOLYLINE
  5
4D
100
AcDbEntity
  8
ASSEMBLY_OUTLINES_TOP
100
AcDbPolyline
 90
        3
 70
         1
 10
-14.056654
 20
62.5
 10
-14.628154
 20
63.643
 10
-13.485154
 20
63.643
  0
HATCH
  5
4E
100
AcDbEntity
  8
ASSEMBLY_OUTLINES_TOP
100
AcDbHatch
 10
0.0
 20
0.0
 30
0.0
210
0.0
220
0.0
230
1.0
  2
SOLID
 70
         1
 71
         1
 91
        1
 92
        2
 72
         0
 73
         1
 93
        3
 10
-14.056654
 20
62.5
 10
-14.628154
 20
63.643000000000001
 10
-13.485154
 20
63.643000000000001
 97
        1
330
4D
 75
         0
 76
         1
 98
        1
 10
0.0
 20
0.0
  0
LWPOLYLINE
  5
4F
100
AcDbEntity
  8
ASSEMBLY_OUTLINES_TOP
100
AcDbPolyline
 90
        2
 70
         0
 43
0.2032
 10
-14.056654
 20
57.9285
 10
-14.056654
 20
55.6425
  0
LWPOLYLINE
  5
50
100
AcDbEntity
  8
ASSEMBLY_OUTLINES_TOP
100
AcDbPolyline
 90
        2
 70
         0
 43
0.2032
 10
-14.056654
 20
63.0715
 10
-14.056654
 20
65.3575
  0
LWPOLYLINE
  5
51
100
AcDbEntity
  8
ASSEMBLY_OUTLINES_TOP
100
AcDbPolyline
 90
        2
 70
         0
 43
0.2032
 10
1.492
 20
58.5
 10
-14.564654
 20
58.5
  0
LWPOLYLINE
  5
52
100
AcDbEntity
  8
ASSEMBLY_OUTLINES_TOP
100
AcDbPolyline
 90
        2
 70
         0
 43
0.2032
 10
-2.508
 20
62.5
 10
-14.564654
 20
62.5
  0
LWPOLYLINE
  5
53
100
AcDbEntity
  8
ASSEMBLY_OUTLINES_TOP
100
AcDbPolyline
 90
        3
 70
         1
 10
2.0
 20
66.209295
 10
3.143
 20
66.780795
 10
3.143
 20
65.637795
  0
HATCH
  5
54
100
AcDbEntity
  8
ASSEMBLY_OUTLINES_TOP
100
AcDbHatch
 10
0.0
 20
0.0
 30
0.0
210
0.0
220
0.0
230
1.0
  2
SOLID
 70
         1
 71
         1
 91
        1
 92
        2
 72
         0
 73
         1
 93
        3
 10
2.0
 20
66.209294999999997
 10
3.1429999999999998
 20
66.780794999999998
 10
3.1429999999999998
 20
65.637794999999997
 97
        1
330
53
 75
         0
 76
         1
 98
        1
 10
0.0
 20
0.0
  0
LWPOLYLINE
  5
55
100
AcDbEntity
  8
ASSEMBLY_OUTLINES_TOP
100
AcDbPolyline
 90
        3
 70
         1
 10
-2.0
 20
66.209295
 10
-3.143
 20
65.637796
 10
-3.142999
 20
66.780795
  0
HATCH
  5
56
100
AcDbEntity
  8
ASSEMBLY_OUTLINES_TOP
100
AcDbHatch
 10
0.0
 20
0.0
 30
0.0
210
0.0
220
0.0
230
1.0
  2
SOLID
 70
         1
 71
         1
 91
        1
 92
        2
 72
         0
 73
         1
 93
        3
 10
-2.0
 20
66.209294999999997
 10
-3.1429999999999998
 20
65.637795999999994
 10
-3.1429990000000001
 20
66.780794999999998
 97
        1
330
55
 75
         0
 76
         1
 98
        1
 10
0.0
 20
0.0
  0
LWPOLYLINE
  5
57
100
AcDbEntity
  8
ASSEMBLY_OUTLINES_TOP
100
AcDbPolyline
 90
        2
 70
         0
 43
0.2032
 10
2.5715
 20
66.209295
 10
4.8575
 20
66.209295
  0
LWPOLYLINE
  5
58
100
AcDbEntity
  8
ASSEMBLY_OUTLINES_TOP
100
AcDbPolyline
 90
        2
 70
         0
 43
0.2032
 10
-2.5715
 20
66.209295
 10
-4.8575
 20
66.209295
  0
LWPOLYLINE
  5
59
100
AcDbEntity
  8
ASSEMBLY_OUTLINES_TOP
100
AcDbPolyline
 90
        2
 70
         0
 43
0.2032
 10
2.0
 20
59.008
 10
2.0
 20
66.717295
  0
LWPOLYLINE
  5
5A
100
AcDbEntity
  8
ASSEMBLY_OUTLINES_TOP
100
AcDbPolyline
 90
        2
 70
         0
 43
0.2032
 10
-2.0
 20
63.008
 10
-2.0
 20
66.717295
  0
LWPOLYLINE
  5
5B
100
AcDbEntity
  8
ASSEMBLY_OUTLINES_TOP
100
AcDbPolyline
 90
        3
 70
         1
 10
123.0
 20
68.705237
 10
124.143
 20
69.276737
 10
124.143
 20
68.133737
  0
HATCH
  5
5C
100
AcDbEntity
  8
ASSEMBLY_OUTLINES_TOP
100
AcDbHatch
 10
0.0
 20
0.0
 30
0.0
210
0.0
220
0.0
230
1.0
  2
SOLID
 70
         1
 71
         1
 91
        1
 92
        2
 72
         0
 73
         1
 93
        3
 10
123.0
 20
68.705236999999997
 10
124.143
 20
69.276736999999997
 10
124.143
 20
68.133736999999996
 97
        1
330
5B
 75
         0
 76
         1
 98
        1
 10
0.0
 20
0.0
  0
LWPOLYLINE
  5
5D
100
AcDbEntity
  8
ASSEMBLY_OUTLINES_TOP
100
AcDbPolyline
 90
        3
 70
         1
 10
119.0
 20
68.705237
 10
117.857
 20
68.133738
 10
117.857001
 20
69.276737
  0
HATCH
  5
5E
100
AcDbEntity
  8
ASSEMBLY_OUTLINES_TOP
100
AcDbHatch
 10
0.0
 20
0.0
 30
0.0
210
0.0
220
0.0
230
1.0
  2
SOLID
 70
         1
 71
         1
 91
        1
 92
        2
 72
         0
 73
         1
 93
        3
 10
119.0
 20
68.705236999999997
 10
117.857
 20
68.133737999999994
 10
117.857001
 20
69.276736999999997
 97
        1
330
5D
 75
         0
 76
         1
 98
        1
 10
0.0
 20
0.0
  0
LWPOLYLINE
  5
5F
100
AcDbEntity
  8
ASSEMBLY_OUTLINES_TOP
100
AcDbPolyline
 90
        2
 70
         0
 43
0.2032
 10
123.5715
 20
68.705237
 10
125.8575
 20
68.705237
  0
LWPOLYLINE
  5
60
100
AcDbEntity
  8
ASSEMBLY_OUTLINES_TOP
100
AcDbPolyline
 90
        2
 70
         0
 43
0.2032
 10
118.4285
 20
68.705237
 10
116.1425
 20
68.705237
  0
LWPOLYLINE
  5
61
100
AcDbEntity
  8
ASSEMBLY_OUTLINES_TOP
100
AcDbPolyline
 90
        2
 70
         0
 43
0.2032
 10
123.0
 20
63.108
 10
123.0
 20
69.213237
  0
LWPOLYLINE
  5
62
100
AcDbEntity
  8
ASSEMBLY_OUTLINES_TOP
100
AcDbPolyline
 90
        2
 70
         0
 43
0.2032
 10
119.0
 20
59.008
 10
119.0
 20
69.213237
  0
LWPOLYLINE
  5
63
100
AcDbEntity
  8
ASSEMBLY_OUTLINES_TOP
100
AcDbPolyline
 90
        3
 70
         1
 10
123.0
 20
-12.008963
 10
121.857
 20
-12.580462
 10
121.857001
 20
-11.437463
  0
HATCH
  5
64
100
AcDbEntity
  8
ASSEMBLY_OUTLINES_TOP
100
AcDbHatch
 10
0.0
 20
0.0
 30
0.0
210
0.0
220
0.0
230
1.0
  2
SOLID
 70
         1
 71
         1
 91
        1
 92
        2
 72
         0
 73
         1
 93
        3
 10
123.0
 20
-12.008963
 10
121.857
 20
-12.580462000000001
 10
121.857001
 20
-11.437462999999999
 97
        1
330
63
 75
         0
 76
         1
 98
        1
 10
0.0
 20
0.0
  0
LWPOLYLINE
  5
65
100
AcDbEntity
  8
ASSEMBLY_OUTLINES_TOP
100
AcDbPolyline
 90
        3
 70
         1
 10
-2.0
 20
-12.008963
 10
-0.857
 20
-11.437463
 10
-0.857
 20
-12.580463
  0
HATCH
  5
66
100
AcDbEntity
  8
ASSEMBLY_OUTLINES_TOP
100
AcDbHatch
 10
0.0
 20
0.0
 30
0.0
210
0.0
220
0.0
230
1.0
  2
SOLID
 70
         1
 71
         1
 91
        1
 92
        2
 72
         0
 73
         1
 93
        3
 10
-2.0
 20
-12.008963
 10
-0.857
 20
-11.437462999999999
 10
-0.857
 20
-12.580463
 97
        1
330
65
 75
         0
 76
         1
 98
        1
 10
0.0
 20
0.0
  0
LWPOLYLINE
  5
67
100
AcDbEntity
  8
ASSEMBLY_OUTLINES_TOP
100
AcDbPolyline
 90
        2
 70
         0
 43
0.2032
 10
63.809334
 20
-12.008963
 10
122.4285
 20
-12.008963
  0
LWPOLYLINE
  5
68
100
AcDbEntity
  8
ASSEMBLY_OUTLINES_TOP
100
AcDbPolyline
 90
        2
 70
         0
 43
0.2032
 10
-1.4285
 20
-12.008963
 10
57.190666
 20
-12.008963
  0
LWPOLYLINE
  5
69
100
AcDbEntity
  8
ASSEMBLY_OUTLINES_TOP
100
AcDbPolyline
 90
        2
 70
         0
 43
0.2032
 10
123.0
 20
-3.008
 10
123.0
 20
-12.516963
  0
LWPOLYLINE
  5
6A
100
AcDbEntity
  8
ASSEMBLY_OUTLINES_TOP
100
AcDbPolyline
 90
        2
 70
         0
 43
0.2032
 10
-2.0
 20
-3.008
 10
-2.0
 20
-12.516963
  0
LWPOLYLINE
  5
6B
100
AcDbEntity
  8
ASSEMBLY_OUTLINES_TOP
100
AcDbPolyline
 90
        4
 70
         1
 43
0.3
 10
8.0
 20
-2.5
 10
8.0
 20
62.5
 10
113.0
 20
62.5
 10
113.0
 20
-2.5
  0
LWPOLYLINE
  5
6C
100
AcDbEntity
  8
ASSEMBLY_OUTLINES_TOP
100
AcDbPolyline
 90
        2
 70
         0
 43
0.2032
 10
8.0
 20
63.008
 10
8.0
 20
67.008
  0
LWPOLYLINE
  5
6D
100
AcDbEntity
  8
ASSEMBLY_OUTLINES_TOP
100
AcDbPolyline
 90
        2
 70
         0
 43
0.2032
 10
113.0
 20
63.008
 10
113.0
 20
67.008
  0
LWPOLYLINE
  5
6E
100
AcDbEntity
  8
ASSEMBLY_OUTLINES_TOP
100
AcDbPolyline
 90
        2
 70
         0
 43
0.2032
 10
8.5715
 20
66.5
 10
57.190666
 20
66.5
  0
LWPOLYLINE
  5
6F
100
AcDbEntity
  8
ASSEMBLY_OUTLINES_TOP
100
AcDbPolyline
 90
        2
 70
         0
 43
0.2032
 10
63.809334
 20
66.5
 10
112.4285
 20
66.5
  0
LWPOLYLINE
  5
70
100
AcDbEntity
  8
ASSEMBLY_OUTLINES_TOP
100
AcDbPolyline
 90
        3
 70
         1
 10
8.0
 20
66.5
 10
9.143
 20
67.0715
 10
9.143
 20
65.9285
  0
HATCH
  5
71
100
AcDbEntity
  8
ASSEMBLY_OUTLINES_TOP
100
AcDbHatch
 10
0.0
 20
0.0
 30
0.0
210
0.0
220
0.0
230
1.0
  2
SOLID
 70
         1
 71
         1
 91
        1
 92
        2
 72
         0
 73
         1
 93
        3
 10
8.0
 20
66.5
 10
9.1430000000000007
 20
67.0715
 10
9.1430000000000007
 20
65.9285
 97
        1
330
70
 75
         0
 76
         1
 98
        1
 10
0.0
 20
0.0
  0
LWPOLYLINE
  5
72
100
AcDbEntity
  8
ASSEMBLY_OUTLINES_TOP
100
AcDbPolyline
 90
        3
 70
         1
 10
113.0
 20
66.5
 10
111.857
 20
65.928501
 10
111.857001
 20
67.0715
  0
HATCH
  5
73
100
AcDbEntity
  8
ASSEMBLY_OUTLINES_TOP
100
AcDbHatch
 10
0.0
 20
0.0
 30
0.0
210
0.0
220
0.0
230
1.0
  2
SOLID
 70
         1
 71
         1
 91
        1
 92
        2
 72
         0
 73
         1
 93
        3
 10
113.0
 20
66.5
 10
111.857
 20
65.928500999999997
 10
111.857001
 20
67.0715
 97
        1
330
72
 75
         0
 76
         1
 98
        1
 10
0.0
 20
0.0
  0
TEXT
  5
75
100
AcDbEntity
  8
ASSEMBLY_OUTLINES_TOP
100
AcDbText
 10
127.994123
 20
4.580734
 30
0.0
 40
1.27
  1
4mm
 50
90.0
  7
VERIBEST_GERBER_1
 72
         1
 11
127.359123
 21
6.378419
 31
0.0
100
AcDbText
 73
         2
  0
TEXT
  5
76
100
AcDbEntity
  8
ASSEMBLY_OUTLINES_TOP
100
AcDbText
 10
112.323896
 20
-9.943621
 30
0.0
 40
1.27
  1
4mm
  7
VERIBEST_GERBER_1
 72
         1
 11
114.121581
 21
-9.308621
 31
0.0
100
AcDbText
 73
         2
  0
TEXT
  5
77
100
AcDbEntity
  8
ASSEMBLY_OUTLINES_TOP
100
AcDbText
 10
-8.676104
 20
-6.378837
 30
0.0
 40
1.27
  1
4mm
  7
VERIBEST_GERBER_1
 72
         1
 11
-6.878419
 21
-5.743837
 31
0.0
100
AcDbText
 73
         2
  0
TEXT
  5
78
100
AcDbEntity
  8
ASSEMBLY_OUTLINES_TOP
100
AcDbText
 10
-5.434839
 20
4.580734
 30
0.0
 40
1.27
  1
4mm
 50
90.0
  7
VERIBEST_GERBER_1
 72
         1
 11
-6.069839
 21
6.378419
 31
0.0
100
AcDbText
 73
         2
  0
TEXT
  5
79
100
AcDbEntity
  8
ASSEMBLY_OUTLINES_TOP
100
AcDbText
 10
-13.421654
 20
65.580734
 30
0.0
 40
1.27
  1
4mm
 50
90.0
  7
VERIBEST_GERBER_1
 72
         1
 11
-14.056654
 21
67.378419
 31
0.0
100
AcDbText
 73
         2
  0
TEXT
  5
7A
100
AcDbEntity
  8
ASSEMBLY_OUTLINES_TOP
100
AcDbText
 10
-8.676104
 20
65.574295
 30
0.0
 40
1.27
  1
4mm
  7
VERIBEST_GERBER_1
 72
         1
 11
-6.878419
 21
66.209295
 31
0.0
100
AcDbText
 73
         2
  0
TEXT
  5
7B
100
AcDbEntity
  8
ASSEMBLY_OUTLINES_TOP
100
AcDbText
 10
112.323896
 20
68.070237
 30
0.0
 40
1.27
  1
4mm
  7
VERIBEST_GERBER_1
 72
         1
 11
114.121581
 21
68.705237
 31
0.0
100
AcDbText
 73
         2
  0
TEXT
  5
7C
100
AcDbEntity
  8
ASSEMBLY_OUTLINES_TOP
100
AcDbText
 10
57.572015
 20
-12.643962
 30
0.0
 40
1.27
  1
125mm
  7
VERIBEST_GERBER_1
 72
         1
 11
60.5
 21
-12.008962
 31
0.0
100
AcDbText
 73
         2
  0
TEXT
  5
7D
100
AcDbEntity
  8
ASSEMBLY_OUTLINES_TOP
100
AcDbText
 10
57.572015
 20
65.865
 30
0.0
 40
1.27
  1
105mm
  7
VERIBEST_GERBER_1
 72
         1
 11
60.5
 21
66.5
 31
0.0
100
AcDbText
 73
         2
  0
LWPOLYLINE
  5
7E
100
AcDbEntity
  8
ASSEMBLY_OUTLINES_TOP
100
AcDbPolyline
 90
        4
 70
         1
 10
-1.35
 20
43.8
 10
-1.35
 20
48.8
 10
4.95
 20
48.8
 10
4.95
 20
43.8
  0
LWPOLYLINE
  5
7F
100
AcDbEntity
  8
ASSEMBLY_OUTLINES_TOP
100
AcDbPolyline
 90
        4
 70
         1
 10
-1.35
 20
27.55
 10
-1.35
 20
32.55
 10
4.95
 20
32.55
 10
4.95
 20
27.55
  0
LWPOLYLINE
  5
80
100
AcDbEntity
  8
ASSEMBLY_OUTLINES_TOP
100
AcDbPolyline
 90
        4
 70
         1
 10
-1.35
 20
11.05
 10
-1.35
 20
16.05
 10
4.95
 20
16.05
 10
4.95
 20
11.05
  0
LWPOLYLINE
  5
81
100
AcDbEntity
  8
ASSEMBLY_OUTLINES_TOP
100
AcDbPolyline
 90
        4
 70
         1
 10
116.05
 20
43.8
 10
116.05
 20
48.8
 10
122.35
 20
48.8
 10
122.35
 20
43.8
  0
LWPOLYLINE
  5
82
100
AcDbEntity
  8
ASSEMBLY_OUTLINES_TOP
100
AcDbPolyline
 90
        4
 70
         1
 10
116.05
 20
27.55
 10
116.05
 20
32.55
 10
122.35
 20
32.55
 10
122.35
 20
27.55
  0
LWPOLYLINE
  5
83
100
AcDbEntity
  8
ASSEMBLY_OUTLINES_TOP
100
AcDbPolyline
 90
        4
 70
         1
 10
116.05
 20
11.05
 10
116.05
 20
16.05
 10
122.35
 20
16.05
 10
122.35
 20
11.05
  0
LWPOLYLINE
  5
84
100
AcDbEntity
  8
BOARD_OUTLINE
100
AcDbPolyline
 90
        4
 70
         1
 43
0.2
 10
-2.0
 20
62.5
 10
-2.0
 20
-2.5
 10
123.0
 20
-2.5
 10
123.0
 20
62.6
  0
LWPOLYLINE
  5
85
100
AcDbEntity
  8
GENERATED_SILKSCREEN_TOP
100
AcDbPolyline
 90
       30
 70
         0
 43
0.07
 10
120.5195
 20
6.772
 10
120.5165
 20
6.7
 10
120.5165
 20
6.3325
 10
120.5195
 20
6.304
 10
120.527
 20
6.2755
 10
120.5405
 20
6.2515
 10
120.5585
 20
6.229
 10
120.5825
 20
6.211
 10
120.6065
 20
6.1975
 10
120.635
 20
6.1885
 10
120.6635
 20
6.187
 10
120.8105
 20
6.187
 10
120.8405
 20
6.1885
 10
120.8675
 20
6.196
 10
120.8915
 20
6.2095
 10
120.914
 20
6.2275
 10
120.9335
 20
6.25
 10
120.9455
 20
6.274
 10
120.9545
 20
6.3025
 10
120.956
 20
6.3325
 10
120.956
 20
6.6265
 10
120.9545
 20
6.655
 10
120.947
 20
6.6835
 10
120.9335
 20
6.7075
 10
120.9155
 20
6.73
 10
120.893
 20
6.748
 10
120.869
 20
6.7615
 10
120.8405
 20
6.7705
 10
120.8105
 20
6.772
 10
120.5195
 20
6.772
  0
LWPOLYLINE
  5
86
100
AcDbEntity
  8
GENERATED_SILKSCREEN_TOP
100
AcDbPolyline
 90
       99
 70
         0
 43
0.07
 10
120.545
 20
6.919
 10
120.8105
 20
6.919
 10
120.839
 20
6.9175
 10
120.8675
 20
6.913
 10
120.896
 20
6.907
 10
120.9215
 20
6.898
 10
120.947
 20
6.886
 10
120.971
 20
6.871
 10
120.995
 20
6.853
 10
121.0175
 20
6.8335
 10
121.037
 20
6.8125
 10
121.055
 20
6.7885
 10
121.07
 20
6.7645
 10
121.082
 20
6.739
 10
121.091
 20
6.712
 10
121.097
 20
6.685
 10
121.1015
 20
6.6565
 10
121.103
 20
6.6265
 10
121.103
 20
6.3325
 10
121.1015
 20
6.304
 10
121.0985
 20
6.2755
 10
121.091
 20
6.247
 10
121.082
 20
6.2215
 10
121.07
 20
6.196
 10
121.055
 20
6.172
 10
121.0385
 20
6.148
 10
121.0175
 20
6.1255
 10
120.9965
 20
6.106
 10
120.9725
 20
6.088
 10
120.9485
 20
6.073
 10
120.923
 20
6.061
 10
120.8975
 20
6.052
 10
120.869
 20
6.046
 10
120.8405
 20
6.0415
 10
120.8105
 20
6.04
 10
120.6635
 20
6.04
 10
120.635
 20
6.0415
 10
120.6065
 20
6.046
 10
120.5795
 20
6.052
 10
120.5525
 20
6.061
 10
120.527
 20
6.073
 10
120.503
 20
6.088
 10
120.479
 20
6.1045
 10
120.458
 20
6.1255
 10
120.437
 20
6.1465
 10
120.419
 20
6.1705
 10
120.404
 20
6.1945
 10
120.392
 20
6.22
 10
120.383
 20
6.247
 10
120.3755
 20
6.274
 10
120.3725
 20
6.3025
 10
120.371
 20
6.3325
 10
120.371
 20
6.7
 10
120.3725
 20
6.751
 10
120.3755
 20
6.802
 10
120.3815
 20
6.853
 10
120.3905
 20
6.9025
 10
120.401
 20
6.952
 10
120.416
 20
7.0
 10
120.431
 20
7.048
 10
120.4505
 20
7.0945
 10
120.464
 20
7.1275
 10
120.4805
 20
7.159
 10
120.4985
 20
7.1905
 10
120.518
 20
7.2205
 10
120.539
 20
7.2505
 10
120.5615
 20
7.279
 10
120.5855
 20
7.306
 10
120.611
 20
7.333
 10
120.665
 20
7.3825
 10
120.725
 20
7.4275
 10
120.788
 20
7.465
 10
120.8555
 20
7.4995
 10
120.887
 20
7.5055
 10
120.9005
 20
7.504
 10
120.914
 20
7.501
 10
120.926
 20
7.4935
 10
120.938
 20
7.483
 10
120.9455
 20
7.471
 10
120.9515
 20
7.4575
 10
120.956
 20
7.444
 10
120.956
 20
7.4305
 10
120.9545
 20
7.4095
 10
120.947
 20
7.393
 10
120.941
 20
7.3855
 10
120.9335
 20
7.378
 10
120.923
 20
7.3705
 10
120.911
 20
7.3645
 10
120.8585
 20
7.339
 10
120.8075
 20
7.3105
 10
120.761
 20
7.2745
 10
120.7385
 20
7.255
 10
120.716
 20
7.234
 10
120.6755
 20
7.189
 10
120.6395
 20
7.1425
 10
120.6095
 20
7.0915
 10
120.584
 20
7.0375
 10
120.5615
 20
6.979
 10
120.545
 20
6.919
  0
LWPOLYLINE
  5
87
100
AcDbEntity
  8
GENERATED_SILKSCREEN_TOP
100
AcDbPolyline
 90
      108
 70
         0
 43
0.07
 10
121.049
 20
39.6915
 10
120.575
 20
38.937
 10
121.0295
 20
38.937
 10
121.046
 20
38.9355
 10
121.0595
 20
38.931
 10
121.0715
 20
38.9235
 10
121.0835
 20
38.9145
 10
121.091
 20
38.9025
 10
121.0985
 20
38.8905
 10
121.1015
 20
38.877
 10
121.103
 20
38.8635
 10
121.1015
 20
38.85
 10
121.0985
 20
38.838
 10
121.0925
 20
38.826
 10
121.085
 20
38.814
 10
121.0745
 20
38.8035
 10
121.0625
 20
38.796
 10
121.0475
 20
38.7915
 10
121.0295
 20
38.79
 10
120.4445
 20
38.79
 10
120.425
 20
38.7915
 10
120.4085
 20
38.793
 10
120.395
 20
38.7975
 10
120.3845
 20
38.805
 10
120.3755
 20
38.8125
 10
120.3695
 20
38.823
 10
120.365
 20
38.835
 10
120.365
 20
38.8485
 10
120.365
 20
38.8605
 10
120.368
 20
38.874
 10
120.374
 20
38.8875
 10
120.3815
 20
38.9025
 10
120.923
 20
39.765
 10
120.935
 20
39.7935
 10
120.944
 20
39.822
 10
120.9485
 20
39.849
 10
120.95
 20
39.876
 10
120.9485
 20
39.8985
 10
120.9455
 20
39.921
 10
120.9395
 20
39.942
 10
120.932
 20
39.963
 10
120.9215
 20
39.9825
 10
120.9095
 20
40.002
 10
120.8945
 20
40.0215
 10
120.8765
 20
40.038
 10
120.8585
 20
40.0545
 10
120.839
 20
40.0695
 10
120.818
 20
40.0815
 10
120.7955
 20
40.0905
 10
120.773
 20
40.098
 10
120.749
 20
40.104
 10
120.7235
 20
40.107
 10
120.6965
 20
40.1085
 10
120.6695
 20
40.107
 10
120.6425
 20
40.101
 10
120.617
 20
40.092
 10
120.59
 20
40.08
 10
120.566
 20
40.062
 10
120.5435
 20
40.0425
 10
120.524
 20
40.02
 10
120.506
 20
39.996
 10
120.494
 20
39.981
 10
120.4775
 20
39.969
 10
120.4445
 20
39.9615
 10
120.431
 20
39.963
 10
120.4175
 20
39.9675
 10
120.4055
 20
39.9735
 10
120.3935
 20
39.9825
 10
120.383
 20
39.993
 10
120.3755
 20
40.005
 10
120.371
 20
40.0185
 10
120.3695
 20
40.0335
 10
120.3695
 20
40.0425
 10
120.3725
 20
40.0515
 10
120.377
 20
40.0635
 10
120.3815
 20
40.0755
 10
120.41
 20
40.113
 10
120.4415
 20
40.146
 10
120.4775
 20
40.1775
 10
120.518
 20
40.2045
 10
120.539
 20
40.2165
 10
120.56
 20
40.227
 10
120.581
 20
40.2345
 10
120.602
 20
40.242
 10
120.623
 20
40.248
 10
120.644
 20
40.2525
 10
120.665
 20
40.254
 10
120.686
 20
40.2555
 10
120.728
 20
40.254
 10
120.7685
 20
40.248
 10
120.8075
 20
40.239
 10
120.845
 20
40.227
 10
120.881
 20
40.2105
 10
120.914
 20
40.191
 10
120.947
 20
40.1685
 10
120.977
 20
40.1415
 10
121.0055
 20
40.113
 10
121.0295
 20
40.0815
 10
121.049
 20
40.05
 10
121.0655
 20
40.017
 10
121.079
 20
39.9825
 10
121.088
 20
39.9465
 10
121.094
 20
39.909
 10
121.0955
 20
39.8715
 10
121.0925
 20
39.825
 10
121.0835
 20
39.78
 10
121.07
 20
39.735
 10
121.049
 20
39.6915
  0
LWPOLYLINE
  5
88
100
AcDbEntity
  8
GENERATED_SILKSCREEN_TOP
100
AcDbPolyline
 90
       86
 70
         0
 43
0.07
 10
120.88325
 20
22.9795
 10
121.03025
 20
22.9795
 10
121.04525
 20
22.978
 10
121.06025
 20
22.9735
 10
121.07225
 20
22.9675
 10
121.08275
 20
22.957
 10
121.09175
 20
22.9465
 10
121.09775
 20
22.933
 10
121.10225
 20
22.921
 10
121.10375
 20
22.906
 10
121.10225
 20
22.894
 10
121.09925
 20
22.8805
 10
121.09325
 20
22.8685
 10
121.08575
 20
22.8565
 10
121.07525
 20
22.846
 10
121.06175
 20
22.8385
 10
121.04675
 20
22.834
 10
121.03025
 20
22.8325
 10
120.88325
 20
22.8325
 10
120.88325
 20
22.6135
 10
120.88175
 20
22.597
 10
120.87875
 20
22.582
 10
120.87125
 20
22.5685
 10
120.86225
 20
22.558
 10
120.85175
 20
22.5505
 10
120.83975
 20
22.5445
 10
120.82625
 20
22.5415
 10
120.80975
 20
22.54
 10
120.79625
 20
22.5415
 10
120.78275
 20
22.5445
 10
120.77075
 20
22.5505
 10
120.75875
 20
22.558
 10
120.74975
 20
22.5685
 10
120.74225
 20
22.5805
 10
120.73925
 20
22.5955
 10
120.73775
 20
22.6135
 10
120.73775
 20
22.8325
 10
120.29825
 20
22.8325
 10
120.28025
 20
22.834
 10
120.26375
 20
22.837
 10
120.25175
 20
22.8415
 10
120.23975
 20
22.8475
 10
120.23225
 20
22.8565
 10
120.22625
 20
22.867
 10
120.22175
 20
22.879
 10
120.22175
 20
22.8925
 10
120.22325
 20
22.9105
 10
120.22775
 20
22.927
 10
120.52025
 20
23.9515
 10
120.52475
 20
23.9635
 10
120.52925
 20
23.974
 10
120.53675
 20
23.983
 10
120.54575
 20
23.992
 10
120.55175
 20
23.995
 10
120.55925
 20
23.9995
 10
120.57275
 20
24.004
 10
120.58775
 20
24.0055
 10
120.60275
 20
24.004
 10
120.61775
 20
23.9995
 10
120.62975
 20
23.9935
 10
120.64025
 20
23.9845
 10
120.65075
 20
23.974
 10
120.65825
 20
23.962
 10
120.66275
 20
23.9485
 10
120.66425
 20
23.9335
 10
120.66125
 20
23.911
 10
120.39425
 20
22.9795
 10
120.73775
 20
22.9795
 10
120.73775
 20
23.2
 10
120.73925
 20
23.2135
 10
120.74225
 20
23.2285
 10
120.74975
 20
23.242
 10
120.75875
 20
23.254
 10
120.77075
 20
23.2615
 10
120.78275
 20
23.2675
 10
120.79625
 20
23.272
 10
120.80975
 20
23.272
 10
120.82475
 20
23.272
 10
120.83675
 20
23.2675
 10
120.85025
 20
23.2615
 10
120.86075
 20
23.254
 10
120.87125
 20
23.2435
 10
120.87875
 20
23.2315
 10
120.88175
 20
23.2165
 10
120.88325
 20
23.2
 10
120.88325
 20
22.9795
  0
LWPOLYLINE
  5
89
100
AcDbEntity
  8
GENERATED_SILKSCREEN_TOP
100
AcDbPolyline
 90
       89
 70
         0
 43
0.07
 10
120.074
 20
7.4155
 10
119.7815
 20
6.097
 10
119.7785
 20
6.085
 10
119.774
 20
6.0745
 10
119.768
 20
6.064
 10
119.7575
 20
6.055
 10
119.747
 20
6.0475
 10
119.7365
 20
6.043
 10
119.7245
 20
6.04
 10
119.711
 20
6.0385
 10
119.699
 20
6.04
 10
119.6885
 20
6.0415
 10
119.678
 20
6.046
 10
119.669
 20
6.0505
 10
119.66
 20
6.058
 10
119.654
 20
6.067
 10
119.6465
 20
6.076
 10
119.642
 20
6.088
 10
119.417
 20
6.706
 10
119.1935
 20
6.088
 10
119.1815
 20
6.0685
 10
119.165
 20
6.052
 10
119.156
 20
6.046
 10
119.1455
 20
6.0415
 10
119.135
 20
6.04
 10
119.1245
 20
6.0385
 10
119.111
 20
6.04
 10
119.099
 20
6.043
 10
119.087
 20
6.0475
 10
119.078
 20
6.0535
 10
119.069
 20
6.061
 10
119.063
 20
6.0715
 10
119.057
 20
6.0835
 10
119.0525
 20
6.097
 10
118.7585
 20
7.4155
 10
118.7585
 20
7.435
 10
118.76
 20
7.4485
 10
118.763
 20
7.4605
 10
118.7705
 20
7.4725
 10
118.781
 20
7.483
 10
118.793
 20
7.492
 10
118.805
 20
7.4995
 10
118.8185
 20
7.504
 10
118.832
 20
7.5055
 10
118.844
 20
7.504
 10
118.856
 20
7.5025
 10
118.865
 20
7.498
 10
118.874
 20
7.492
 10
118.883
 20
7.4845
 10
118.8905
 20
7.4755
 10
118.8965
 20
7.462
 10
118.904
 20
7.447
 10
119.1425
 20
6.376
 10
119.348
 20
6.9445
 10
119.354
 20
6.958
 10
119.3615
 20
6.97
 10
119.369
 20
6.9805
 10
119.3765
 20
6.9895
 10
119.3855
 20
6.9955
 10
119.396
 20
7.0
 10
119.4065
 20
7.003
 10
119.417
 20
7.0045
 10
119.4275
 20
7.003
 10
119.438
 20
7.0
 10
119.4485
 20
6.9955
 10
119.456
 20
6.9895
 10
119.465
 20
6.9805
 10
119.4725
 20
6.97
 10
119.48
 20
6.958
 10
119.486
 20
6.9445
 10
119.693
 20
6.376
 10
119.9315
 20
7.447
 10
119.9345
 20
7.4605
 10
119.9405
 20
7.4725
 10
119.9465
 20
7.483
 10
119.9555
 20
7.4905
 10
119.9645
 20
7.4965
 10
119.975
 20
7.501
 10
119.987
 20
7.504
 10
120.0005
 20
7.5055
 10
120.0155
 20
7.504
 10
120.029
 20
7.4995
 10
120.041
 20
7.4935
 10
120.053
 20
7.4845
 10
120.0635
 20
7.474
 10
120.071
 20
7.462
 10
120.0755
 20
7.4485
 10
120.077
 20
7.4335
 10
120.074
 20
7.4155
  0
LWPOLYLINE
  5
8A
100
AcDbEntity
  8
GENERATED_SILKSCREEN_TOP
100
AcDbPolyline
 90
       89
 70
         0
 43
0.07
 10
120.074
 20
40.1655
 10
119.7815
 20
38.847
 10
119.7785
 20
38.835
 10
119.774
 20
38.8245
 10
119.768
 20
38.814
 10
119.7575
 20
38.805
 10
119.747
 20
38.7975
 10
119.7365
 20
38.793
 10
119.7245
 20
38.79
 10
119.711
 20
38.7885
 10
119.699
 20
38.79
 10
119.6885
 20
38.7915
 10
119.678
 20
38.796
 10
119.669
 20
38.8005
 10
119.66
 20
38.808
 10
119.654
 20
38.817
 10
119.6465
 20
38.826
 10
119.642
 20
38.838
 10
119.417
 20
39.456
 10
119.1935
 20
38.838
 10
119.1815
 20
38.8185
 10
119.165
 20
38.802
 10
119.156
 20
38.796
 10
119.1455
 20
38.7915
 10
119.135
 20
38.79
 10
119.1245
 20
38.7885
 10
119.111
 20
38.79
 10
119.099
 20
38.793
 10
119.087
 20
38.7975
 10
119.078
 20
38.8035
 10
119.069
 20
38.811
 10
119.063
 20
38.8215
 10
119.057
 20
38.8335
 10
119.0525
 20
38.847
 10
118.7585
 20
40.1655
 10
118.7585
 20
40.185
 10
118.76
 20
40.1985
 10
118.763
 20
40.2105
 10
118.7705
 20
40.2225
 10
118.781
 20
40.233
 10
118.793
 20
40.242
 10
118.805
 20
40.2495
 10
118.8185
 20
40.254
 10
118.832
 20
40.2555
 10
118.844
 20
40.254
 10
118.856
 20
40.2525
 10
118.865
 20
40.248
 10
118.874
 20
40.242
 10
118.883
 20
40.2345
 10
118.8905
 20
40.2255
 10
118.8965
 20
40.212
 10
118.904
 20
40.197
 10
119.1425
 20
39.126
 10
119.348
 20
39.6945
 10
119.354
 20
39.708
 10
119.3615
 20
39.72
 10
119.369
 20
39.7305
 10
119.3765
 20
39.7395
 10
119.3855
 20
39.7455
 10
119.396
 20
39.75
 10
119.4065
 20
39.753
 10
119.417
 20
39.7545
 10
119.4275
 20
39.753
 10
119.438
 20
39.75
 10
119.4485
 20
39.7455
 10
119.456
 20
39.7395
 10
119.465
 20
39.7305
 10
119.4725
 20
39.72
 10
119.48
 20
39.708
 10
119.486
 20
39.6945
 10
119.693
 20
39.126
 10
119.9315
 20
40.197
 10
119.9345
 20
40.2105
 10
119.9405
 20
40.2225
 10
119.9465
 20
40.233
 10
119.9555
 20
40.2405
 10
119.9645
 20
40.2465
 10
119.975
 20
40.251
 10
119.987
 20
40.254
 10
120.0005
 20
40.2555
 10
120.0155
 20
40.254
 10
120.029
 20
40.2495
 10
120.041
 20
40.2435
 10
120.053
 20
40.2345
 10
120.0635
 20
40.224
 10
120.071
 20
40.212
 10
120.0755
 20
40.1985
 10
120.077
 20
40.1835
 10
120.074
 20
40.1655
  0
LWPOLYLINE
  5
8B
100
AcDbEntity
  8
GENERATED_SILKSCREEN_TOP
100
AcDbPolyline
 90
       89
 70
         0
 43
0.07
 10
119.92775
 20
23.9155
 10
119.63525
 20
22.597
 10
119.63225
 20
22.585
 10
119.62775
 20
22.5745
 10
119.62175
 20
22.564
 10
119.61125
 20
22.555
 10
119.60075
 20
22.5475
 10
119.59025
 20
22.543
 10
119.57825
 20
22.54
 10
119.56475
 20
22.5385
 10
119.55275
 20
22.54
 10
119.54225
 20
22.5415
 10
119.53175
 20
22.546
 10
119.52275
 20
22.5505
 10
119.51375
 20
22.558
 10
119.50775
 20
22.567
 10
119.50025
 20
22.576
 10
119.49575
 20
22.588
 10
119.27075
 20
23.206
 10
119.04725
 20
22.588
 10
119.03525
 20
22.5685
 10
119.01875
 20
22.552
 10
119.00975
 20
22.546
 10
118.99925
 20
22.5415
 10
118.98875
 20
22.54
 10
118.97825
 20
22.5385
 10
118.96475
 20
22.54
 10
118.95275
 20
22.543
 10
118.94075
 20
22.5475
 10
118.93175
 20
22.5535
 10
118.92275
 20
22.561
 10
118.91675
 20
22.5715
 10
118.91075
 20
22.5835
 10
118.90625
 20
22.597
 10
118.61225
 20
23.9155
 10
118.61225
 20
23.935
 10
118.61375
 20
23.9485
 10
118.61675
 20
23.9605
 10
118.62425
 20
23.9725
 10
118.63475
 20
23.983
 10
118.64675
 20
23.992
 10
118.65875
 20
23.9995
 10
118.67225
 20
24.004
 10
118.68575
 20
24.0055
 10
118.69775
 20
24.004
 10
118.70975
 20
24.0025
 10
118.71875
 20
23.998
 10
118.72775
 20
23.992
 10
118.73675
 20
23.9845
 10
118.74425
 20
23.9755
 10
118.75025
 20
23.962
 10
118.75775
 20
23.947
 10
118.99625
 20
22.876
 10
119.20175
 20
23.4445
 10
119.20775
 20
23.458
 10
119.21525
 20
23.47
 10
119.22275
 20
23.4805
 10
119.23025
 20
23.4895
 10
119.23925
 20
23.4955
 10
119.24975
 20
23.5
 10
119.26025
 20
23.503
 10
119.27075
 20
23.5045
 10
119.28125
 20
23.503
 10
119.29175
 20
23.5
 10
119.30225
 20
23.4955
 10
119.30975
 20
23.4895
 10
119.31875
 20
23.4805
 10
119.32625
 20
23.47
 10
119.33375
 20
23.458
 10
119.33975
 20
23.4445
 10
119.54675
 20
22.876
 10
119.78525
 20
23.947
 10
119.78825
 20
23.9605
 10
119.79425
 20
23.9725
 10
119.80025
 20
23.983
 10
119.80925
 20
23.9905
 10
119.81825
 20
23.9965
 10
119.82875
 20
24.001
 10
119.84075
 20
24.004
 10
119.85425
 20
24.0055
 10
119.86925
 20
24.004
 10
119.88275
 20
23.9995
 10
119.89475
 20
23.9935
 10
119.90675
 20
23.9845
 10
119.91725
 20
23.974
 10
119.92475
 20
23.962
 10
119.92925
 20
23.9485
 10
119.93075
 20
23.9335
 10
119.92775
 20
23.9155
  0
LWPOLYLINE
  5
8C
100
AcDbEntity
  8
GENERATED_SILKSCREEN_TOP
100
AcDbPolyline
 90
      160
 70
         0
 43
0.07
 10
118.421
 20
7.381
 10
118.4345
 20
7.3705
 10
118.4435
 20
7.354
 10
118.4495
 20
7.3405
 10
118.4525
 20
7.3225
 10
118.451
 20
7.3105
 10
118.4465
 20
7.2985
 10
118.439
 20
7.285
 10
118.43
 20
7.273
 10
118.418
 20
7.261
 10
118.406
 20
7.2535
 10
118.3925
 20
7.2475
 10
118.379
 20
7.246
 10
118.367
 20
7.2475
 10
118.3565
 20
7.2505
 10
118.346
 20
7.255
 10
118.3355
 20
7.261
 10
118.2995
 20
7.285
 10
118.262
 20
7.306
 10
118.2245
 20
7.3225
 10
118.187
 20
7.336
 10
118.148
 20
7.348
 10
118.1075
 20
7.3555
 10
118.067
 20
7.36
 10
118.025
 20
7.3615
 10
117.9725
 20
7.3585
 10
117.923
 20
7.3495
 10
117.875
 20
7.336
 10
117.8285
 20
7.3165
 10
117.809
 20
7.303
 10
117.791
 20
7.2895
 10
117.7745
 20
7.2745
 10
117.761
 20
7.2565
 10
117.743
 20
7.2205
 10
117.7385
 20
7.2025
 10
117.737
 20
7.18
 10
117.74
 20
7.156
 10
117.7475
 20
7.1335
 10
117.761
 20
7.114
 10
117.7805
 20
7.0975
 10
118.3235
 20
6.6955
 10
118.355
 20
6.6715
 10
118.382
 20
6.6415
 10
118.4075
 20
6.607
 10
118.43
 20
6.568
 10
118.448
 20
6.5275
 10
118.4615
 20
6.484
 10
118.469
 20
6.442
 10
118.472
 20
6.3985
 10
118.469
 20
6.355
 10
118.463
 20
6.3115
 10
118.451
 20
6.271
 10
118.4345
 20
6.232
 10
118.412
 20
6.1945
 10
118.385
 20
6.163
 10
118.352
 20
6.136
 10
118.3145
 20
6.112
 10
118.28
 20
6.0955
 10
118.2425
 20
6.0805
 10
118.2035
 20
6.0655
 10
118.1615
 20
6.052
 10
118.124
 20
6.043
 10
118.0865
 20
6.037
 10
118.0505
 20
6.034
 10
118.0145
 20
6.0325
 10
117.965
 20
6.034
 10
117.9155
 20
6.04
 10
117.866
 20
6.0505
 10
117.8195
 20
6.0655
 10
117.7685
 20
6.0835
 10
117.7235
 20
6.106
 10
117.701
 20
6.118
 10
117.677
 20
6.1315
 10
117.653
 20
6.148
 10
117.626
 20
6.1645
 10
117.611
 20
6.1765
 10
117.6005
 20
6.19
 10
117.5945
 20
6.2065
 10
117.593
 20
6.2245
 10
117.5945
 20
6.2395
 10
117.5975
 20
6.2545
 10
117.605
 20
6.2665
 10
117.614
 20
6.2785
 10
117.6245
 20
6.2875
 10
117.6365
 20
6.295
 10
117.65
 20
6.2995
 10
117.6635
 20
6.301
 10
117.674
 20
6.2995
 10
117.683
 20
6.298
 10
117.6935
 20
6.2935
 10
117.7055
 20
6.2875
 10
117.7445
 20
6.2635
 10
117.7835
 20
6.2425
 10
117.8225
 20
6.2245
 10
117.8615
 20
6.2095
 10
117.899
 20
6.196
 10
117.9395
 20
6.187
 10
117.9785
 20
6.1825
 10
118.0175
 20
6.1795
 10
118.046
 20
6.181
 10
118.0745
 20
6.184
 10
118.103
 20
6.1885
 10
118.1315
 20
6.196
 10
118.16
 20
6.2035
 10
118.19
 20
6.2155
 10
118.2185
 20
6.2275
 10
118.2485
 20
6.2425
 10
118.2665
 20
6.253
 10
118.2815
 20
6.2665
 10
118.295
 20
6.2845
 10
118.307
 20
6.304
 10
118.3175
 20
6.3265
 10
118.3235
 20
6.349
 10
118.328
 20
6.3715
 10
118.3295
 20
6.3955
 10
118.328
 20
6.421
 10
118.3235
 20
6.4465
 10
118.3175
 20
6.472
 10
118.307
 20
6.499
 10
118.295
 20
6.5185
 10
118.28
 20
6.538
 10
118.262
 20
6.5575
 10
118.241
 20
6.5755
 10
117.698
 20
6.9775
 10
117.6755
 20
6.9955
 10
117.656
 20
7.015
 10
117.6395
 20
7.039
 10
117.6245
 20
7.0645
 10
117.6125
 20
7.093
 10
117.6035
 20
7.1215
 10
117.599
 20
7.15
 10
117.5975
 20
7.18
 10
117.599
 20
7.219
 10
117.6065
 20
7.258
 10
117.6185
 20
7.294
 10
117.635
 20
7.3285
 10
117.6455
 20
7.345
 10
117.6575
 20
7.3615
 10
117.671
 20
7.3765
 10
117.686
 20
7.3915
 10
117.7025
 20
7.4065
 10
117.7205
 20
7.42
 10
117.74
 20
7.432
 10
117.761
 20
7.444
 10
117.791
 20
7.459
 10
117.8225
 20
7.471
 10
117.854
 20
7.4815
 10
117.887
 20
7.4905
 10
117.92
 20
7.4965
 10
117.9545
 20
7.501
 10
117.9905
 20
7.504
 10
118.0265
 20
7.5055
 10
118.079
 20
7.5025
 10
118.1315
 20
7.4965
 10
118.1825
 20
7.4875
 10
118.2335
 20
7.474
 10
118.283
 20
7.456
 10
118.331
 20
7.435
 10
118.3775
 20
7.4095
 10
118.421
 20
7.381
  0
LWPOLYLINE
  5
8D
100
AcDbEntity
  8
GENERATED_SILKSCREEN_TOP
100
AcDbPolyline
 90
      160
 70
         0
 43
0.07
 10
118.421
 20
40.131
 10
118.4345
 20
40.1205
 10
118.4435
 20
40.104
 10
118.4495
 20
40.0905
 10
118.4525
 20
40.0725
 10
118.451
 20
40.0605
 10
118.4465
 20
40.0485
 10
118.439
 20
40.035
 10
118.43
 20
40.023
 10
118.418
 20
40.011
 10
118.406
 20
40.0035
 10
118.3925
 20
39.9975
 10
118.379
 20
39.996
 10
118.367
 20
39.9975
 10
118.3565
 20
40.0005
 10
118.346
 20
40.005
 10
118.3355
 20
40.011
 10
118.2995
 20
40.035
 10
118.262
 20
40.056
 10
118.2245
 20
40.0725
 10
118.187
 20
40.086
 10
118.148
 20
40.098
 10
118.1075
 20
40.1055
 10
118.067
 20
40.11
 10
118.025
 20
40.1115
 10
117.9725
 20
40.1085
 10
117.923
 20
40.0995
 10
117.875
 20
40.086
 10
117.8285
 20
40.0665
 10
117.809
 20
40.053
 10
117.791
 20
40.0395
 10
117.7745
 20
40.0245
 10
117.761
 20
40.0065
 10
117.743
 20
39.9705
 10
117.7385
 20
39.9525
 10
117.737
 20
39.93
 10
117.74
 20
39.906
 10
117.7475
 20
39.8835
 10
117.761
 20
39.864
 10
117.7805
 20
39.8475
 10
118.3235
 20
39.4455
 10
118.355
 20
39.4215
 10
118.382
 20
39.3915
 10
118.4075
 20
39.357
 10
118.43
 20
39.318
 10
118.448
 20
39.2775
 10
118.4615
 20
39.234
 10
118.469
 20
39.192
 10
118.472
 20
39.1485
 10
118.469
 20
39.105
 10
118.463
 20
39.0615
 10
118.451
 20
39.021
 10
118.4345
 20
38.982
 10
118.412
 20
38.9445
 10
118.385
 20
38.913
 10
118.352
 20
38.886
 10
118.3145
 20
38.862
 10
118.28
 20
38.8455
 10
118.2425
 20
38.8305
 10
118.2035
 20
38.8155
 10
118.1615
 20
38.802
 10
118.124
 20
38.793
 10
118.0865
 20
38.787
 10
118.0505
 20
38.784
 10
118.0145
 20
38.7825
 10
117.965
 20
38.784
 10
117.9155
 20
38.79
 10
117.866
 20
38.8005
 10
117.8195
 20
38.8155
 10
117.7685
 20
38.8335
 10
117.7235
 20
38.856
 10
117.701
 20
38.868
 10
117.677
 20
38.8815
 10
117.653
 20
38.898
 10
117.626
 20
38.9145
 10
117.611
 20
38.9265
 10
117.6005
 20
38.94
 10
117.5945
 20
38.9565
 10
117.593
 20
38.9745
 10
117.5945
 20
38.9895
 10
117.5975
 20
39.0045
 10
117.605
 20
39.0165
 10
117.614
 20
39.0285
 10
117.6245
 20
39.0375
 10
117.6365
 20
39.045
 10
117.65
 20
39.0495
 10
117.6635
 20
39.051
 10
117.674
 20
39.0495
 10
117.683
 20
39.048
 10
117.6935
 20
39.0435
 10
117.7055
 20
39.0375
 10
117.7445
 20
39.0135
 10
117.7835
 20
38.9925
 10
117.8225
 20
38.9745
 10
117.8615
 20
38.9595
 10
117.899
 20
38.946
 10
117.9395
 20
38.937
 10
117.9785
 20
38.9325
 10
118.0175
 20
38.9295
 10
118.046
 20
38.931
 10
118.0745
 20
38.934
 10
118.103
 20
38.9385
 10
118.1315
 20
38.946
 10
118.16
 20
38.9535
 10
118.19
 20
38.9655
 10
118.2185
 20
38.9775
 10
118.2485
 20
38.9925
 10
118.2665
 20
39.003
 10
118.2815
 20
39.0165
 10
118.295
 20
39.0345
 10
118.307
 20
39.054
 10
118.3175
 20
39.0765
 10
118.3235
 20
39.099
 10
118.328
 20
39.1215
 10
118.3295
 20
39.1455
 10
118.328
 20
39.171
 10
118.3235
 20
39.1965
 10
118.3175
 20
39.222
 10
118.307
 20
39.249
 10
118.295
 20
39.2685
 10
118.28
 20
39.288
 10
118.262
 20
39.3075
 10
118.241
 20
39.3255
 10
117.698
 20
39.7275
 10
117.6755
 20
39.7455
 10
117.656
 20
39.765
 10
117.6395
 20
39.789
 10
117.6245
 20
39.8145
 10
117.6125
 20
39.843
 10
117.6035
 20
39.8715
 10
117.599
 20
39.9
 10
117.5975
 20
39.93
 10
117.599
 20
39.969
 10
117.6065
 20
40.008
 10
117.6185
 20
40.044
 10
117.635
 20
40.0785
 10
117.6455
 20
40.095
 10
117.6575
 20
40.1115
 10
117.671
 20
40.1265
 10
117.686
 20
40.1415
 10
117.7025
 20
40.1565
 10
117.7205
 20
40.17
 10
117.74
 20
40.182
 10
117.761
 20
40.194
 10
117.791
 20
40.209
 10
117.8225
 20
40.221
 10
117.854
 20
40.2315
 10
117.887
 20
40.2405
 10
117.92
 20
40.2465
 10
117.9545
 20
40.251
 10
117.9905
 20
40.254
 10
118.0265
 20
40.2555
 10
118.079
 20
40.2525
 10
118.1315
 20
40.2465
 10
118.1825
 20
40.2375
 10
118.2335
 20
40.224
 10
118.283
 20
40.206
 10
118.331
 20
40.185
 10
118.3775
 20
40.1595
 10
118.421
 20
40.131
  0
LWPOLYLINE
  5
8E
100
AcDbEntity
  8
GENERATED_SILKSCREEN_TOP
100
AcDbPolyline
 90
      160
 70
         0
 43
0.07
 10
118.27475
 20
23.881
 10
118.28825
 20
23.8705
 10
118.29725
 20
23.854
 10
118.30325
 20
23.8405
 10
118.30625
 20
23.8225
 10
118.30475
 20
23.8105
 10
118.30025
 20
23.7985
 10
118.29275
 20
23.785
 10
118.28375
 20
23.773
 10
118.27175
 20
23.761
 10
118.25975
 20
23.7535
 10
118.24625
 20
23.7475
 10
118.23275
 20
23.746
 10
118.22075
 20
23.7475
 10
118.21025
 20
23.7505
 10
118.19975
 20
23.755
 10
118.18925
 20
23.761
 10
118.15325
 20
23.785
 10
118.11575
 20
23.806
 10
118.07825
 20
23.8225
 10
118.04075
 20
23.836
 10
118.00175
 20
23.848
 10
117.96125
 20
23.8555
 10
117.92075
 20
23.86
 10
117.87875
 20
23.8615
 10
117.82625
 20
23.8585
 10
117.77675
 20
23.8495
 10
117.72875
 20
23.836
 10
117.68225
 20
23.8165
 10
117.66275
 20
23.803
 10
117.64475
 20
23.7895
 10
117.62825
 20
23.7745
 10
117.61475
 20
23.7565
 10
117.59675
 20
23.7205
 10
117.59225
 20
23.7025
 10
117.59075
 20
23.68
 10
117.59375
 20
23.656
 10
117.60125
 20
23.6335
 10
117.61475
 20
23.614
 10
117.63425
 20
23.5975
 10
118.17725
 20
23.1955
 10
118.20875
 20
23.1715
 10
118.23575
 20
23.1415
 10
118.26125
 20
23.107
 10
118.28375
 20
23.068
 10
118.30175
 20
23.0275
 10
118.31525
 20
22.984
 10
118.32275
 20
22.942
 10
118.32575
 20
22.8985
 10
118.32275
 20
22.855
 10
118.31675
 20
22.8115
 10
118.30475
 20
22.771
 10
118.28825
 20
22.732
 10
118.26575
 20
22.6945
 10
118.23875
 20
22.663
 10
118.20575
 20
22.636
 10
118.16825
 20
22.612
 10
118.13375
 20
22.5955
 10
118.09625
 20
22.5805
 10
118.05725
 20
22.5655
 10
118.01525
 20
22.552
 10
117.97775
 20
22.543
 10
117.94025
 20
22.537
 10
117.90425
 20
22.534
 10
117.86825
 20
22.5325
 10
117.81875
 20
22.534
 10
117.76925
 20
22.54
 10
117.71975
 20
22.5505
 10
117.67325
 20
22.5655
 10
117.62225
 20
22.5835
 10
117.57725
 20
22.606
 10
117.55475
 20
22.618
 10
117.53075
 20
22.6315
 10
117.50675
 20
22.648
 10
117.47975
 20
22.6645
 10
117.46475
 20
22.6765
 10
117.45425
 20
22.69
 10
117.44825
 20
22.7065
 10
117.44675
 20
22.7245
 10
117.44825
 20
22.7395
 10
117.45125
 20
22.7545
 10
117.45875
 20
22.7665
 10
117.46775
 20
22.7785
 10
117.47825
 20
22.7875
 10
117.49025
 20
22.795
 10
117.50375
 20
22.7995
 10
117.51725
 20
22.801
 10
117.52775
 20
22.7995
 10
117.53675
 20
22.798
 10
117.54725
 20
22.7935
 10
117.55925
 20
22.7875
 10
117.59825
 20
22.7635
 10
117.63725
 20
22.7425
 10
117.67625
 20
22.7245
 10
117.71525
 20
22.7095
 10
117.75275
 20
22.696
 10
117.79325
 20
22.687
 10
117.83225
 20
22.6825
 10
117.87125
 20
22.6795
 10
117.89975
 20
22.681
 10
117.92825
 20
22.684
 10
117.95675
 20
22.6885
 10
117.98525
 20
22.696
 10
118.01375
 20
22.7035
 10
118.04375
 20
22.7155
 10
118.07225
 20
22.7275
 10
118.10225
 20
22.7425
 10
118.12025
 20
22.753
 10
118.13525
 20
22.7665
 10
118.14875
 20
22.7845
 10
118.16075
 20
22.804
 10
118.17125
 20
22.8265
 10
118.17725
 20
22.849
 10
118.18175
 20
22.8715
 10
118.18325
 20
22.8955
 10
118.18175
 20
22.921
 10
118.17725
 20
22.9465
 10
118.17125
 20
22.972
 10
118.16075
 20
22.999
 10
118.14875
 20
23.0185
 10
118.13375
 20
23.038
 10
118.11575
 20
23.0575
 10
118.09475
 20
23.0755
 10
117.55175
 20
23.4775
 10
117.52925
 20
23.4955
 10
117.50975
 20
23.515
 10
117.49325
 20
23.539
 10
117.47825
 20
23.5645
 10
117.46625
 20
23.593
 10
117.45725
 20
23.6215
 10
117.45275
 20
23.65
 10
117.45125
 20
23.68
 10
117.45275
 20
23.719
 10
117.46025
 20
23.758
 10
117.47225
 20
23.794
 10
117.48875
 20
23.8285
 10
117.49925
 20
23.845
 10
117.51125
 20
23.8615
 10
117.52475
 20
23.8765
 10
117.53975
 20
23.8915
 10
117.55625
 20
23.9065
 10
117.57425
 20
23.92
 10
117.59375
 20
23.932
 10
117.61475
 20
23.944
 10
117.64475
 20
23.959
 10
117.67625
 20
23.971
 10
117.70775
 20
23.9815
 10
117.74075
 20
23.9905
 10
117.77375
 20
23.9965
 10
117.80825
 20
24.001
 10
117.84425
 20
24.004
 10
117.88025
 20
24.0055
 10
117.93275
 20
24.0025
 10
117.98525
 20
23.9965
 10
118.03625
 20
23.9875
 10
118.08725
 20
23.974
 10
118.13675
 20
23.956
 10
118.18475
 20
23.935
 10
118.23125
 20
23.9095
 10
118.27475
 20
23.881
  0
LWPOLYLINE
  5
8F
100
AcDbEntity
  8
GENERATED_SILKSCREEN_TOP
100
AcDbPolyline
 90
       49
 70
         0
 43
0.07
 10
3.7045
 20
38.8635
 10
3.703
 20
38.847
 10
3.6985
 20
38.832
 10
3.6925
 20
38.8185
 10
3.6835
 20
38.808
 10
3.673
 20
38.8005
 10
3.6595
 20
38.7945
 10
3.646
 20
38.7915
 10
3.631
 20
38.79
 10
3.616
 20
38.7915
 10
3.604
 20
38.7945
 10
3.5905
 20
38.8005
 10
3.58
 20
38.808
 10
3.5695
 20
38.8185
 10
3.5635
 20
38.8305
 10
3.559
 20
38.8455
 10
3.5575
 20
38.8635
 10
3.5575
 20
40.0065
 10
3.3895
 20
39.837
 10
3.3775
 20
39.828
 10
3.3655
 20
39.8205
 10
3.352
 20
39.8175
 10
3.3385
 20
39.816
 10
3.325
 20
39.8175
 10
3.313
 20
39.8205
 10
3.2995
 20
39.828
 10
3.2875
 20
39.8385
 10
3.2785
 20
39.849
 10
3.271
 20
39.8625
 10
3.2665
 20
39.876
 10
3.265
 20
39.8895
 10
3.2665
 20
39.903
 10
3.2695
 20
39.915
 10
3.277
 20
39.927
 10
3.286
 20
39.9405
 10
3.58
 20
40.233
 10
3.595
 20
40.2465
 10
3.61
 20
40.257
 10
3.6265
 20
40.263
 10
3.6445
 20
40.266
 10
3.655
 20
40.2645
 10
3.6655
 20
40.26
 10
3.676
 20
40.254
 10
3.6865
 20
40.2435
 10
3.694
 20
40.2315
 10
3.7
 20
40.2165
 10
3.703
 20
40.2
 10
3.7045
 20
40.182
 10
3.7045
 20
38.8635
  0
LWPOLYLINE
  5
90
100
AcDbEntity
  8
GENERATED_SILKSCREEN_TOP
100
AcDbPolyline
 90
      123
 70
         0
 43
0.07
 10
3.1165
 20
7.3585
 10
3.1165
 20
6.919
 10
3.337
 20
6.919
 10
3.373
 20
6.9175
 10
3.409
 20
6.913
 10
3.4435
 20
6.904
 10
3.4765
 20
6.892
 10
3.508
 20
6.877
 10
3.538
 20
6.859
 10
3.5665
 20
6.8365
 10
3.595
 20
6.811
 10
3.6205
 20
6.784
 10
3.6415
 20
6.7555
 10
3.661
 20
6.7255
 10
3.676
 20
6.694
 10
3.688
 20
6.6595
 10
3.697
 20
6.6265
 10
3.7015
 20
6.5905
 10
3.703
 20
6.553
 10
3.703
 20
6.406
 10
3.7015
 20
6.37
 10
3.697
 20
6.334
 10
3.688
 20
6.2995
 10
3.676
 20
6.2665
 10
3.661
 20
6.235
 10
3.643
 20
6.205
 10
3.6205
 20
6.1765
 10
3.5965
 20
6.148
 10
3.568
 20
6.1225
 10
3.5395
 20
6.1015
 10
3.5095
 20
6.082
 10
3.478
 20
6.067
 10
3.445
 20
6.055
 10
3.4105
 20
6.046
 10
3.3745
 20
6.0415
 10
3.337
 20
6.04
 10
3.0445
 20
6.04
 10
3.028
 20
6.0415
 10
3.013
 20
6.0445
 10
3.001
 20
6.052
 10
2.989
 20
6.061
 10
2.9815
 20
6.073
 10
2.9755
 20
6.085
 10
2.9725
 20
6.0985
 10
2.971
 20
6.1135
 10
2.9725
 20
6.127
 10
2.9755
 20
6.139
 10
2.9815
 20
6.151
 10
2.989
 20
6.163
 10
2.9995
 20
6.1735
 10
3.013
 20
6.181
 10
3.0265
 20
6.1855
 10
3.0445
 20
6.187
 10
3.337
 20
6.187
 10
3.3595
 20
6.187
 10
3.3805
 20
6.19
 10
3.4015
 20
6.196
 10
3.421
 20
6.202
 10
3.4405
 20
6.211
 10
3.4585
 20
6.2215
 10
3.4765
 20
6.235
 10
3.493
 20
6.25
 10
3.508
 20
6.2665
 10
3.52
 20
6.283
 10
3.532
 20
6.301
 10
3.541
 20
6.3205
 10
3.547
 20
6.34
 10
3.553
 20
6.361
 10
3.556
 20
6.3835
 10
3.556
 20
6.406
 10
3.556
 20
6.553
 10
3.556
 20
6.5755
 10
3.553
 20
6.5965
 10
3.547
 20
6.6175
 10
3.541
 20
6.637
 10
3.532
 20
6.6565
 10
3.5215
 20
6.6745
 10
3.508
 20
6.691
 10
3.493
 20
6.7075
 10
3.4765
 20
6.7225
 10
3.46
 20
6.736
 10
3.442
 20
6.748
 10
3.4225
 20
6.757
 10
3.403
 20
6.763
 10
3.382
 20
6.769
 10
3.3595
 20
6.772
 10
3.337
 20
6.772
 10
3.0445
 20
6.772
 10
3.0265
 20
6.7735
 10
3.0115
 20
6.7765
 10
2.9995
 20
6.7825
 10
2.989
 20
6.7915
 10
2.9815
 20
6.8005
 10
2.9755
 20
6.814
 10
2.971
 20
6.829
 10
2.971
 20
6.8455
 10
2.971
 20
7.432
 10
2.971
 20
7.4485
 10
2.9755
 20
7.4635
 10
2.9815
 20
7.477
 10
2.989
 20
7.4875
 10
2.9995
 20
7.495
 10
3.0115
 20
7.501
 10
3.0265
 20
7.504
 10
3.0445
 20
7.5055
 10
3.6295
 20
7.5055
 10
3.646
 20
7.504
 10
3.6595
 20
7.4995
 10
3.6715
 20
7.492
 10
3.6835
 20
7.483
 10
3.691
 20
7.471
 10
3.6985
 20
7.459
 10
3.7015
 20
7.4455
 10
3.703
 20
7.432
 10
3.7015
 20
7.4185
 10
3.6985
 20
7.4065
 10
3.6925
 20
7.3945
 10
3.685
 20
7.3825
 10
3.6745
 20
7.372
 10
3.6625
 20
7.3645
 10
3.6475
 20
7.36
 10
3.6295
 20
7.3585
 10
3.1165
 20
7.3585
  0
LWPOLYLINE
  5
91
100
AcDbEntity
  8
GENERATED_SILKSCREEN_TOP
100
AcDbPolyline
 90
      169
 70
         0
 43
0.07
 10
3.3295
 20
23.857
 10
3.037
 20
23.857
 10
3.0205
 20
23.8585
 10
3.0055
 20
23.8615
 10
2.9935
 20
23.869
 10
2.9815
 20
23.878
 10
2.974
 20
23.8885
 10
2.968
 20
23.902
 10
2.965
 20
23.9155
 10
2.9635
 20
23.9305
 10
2.965
 20
23.9425
 10
2.968
 20
23.956
 10
2.974
 20
23.968
 10
2.9815
 20
23.98
 10
2.992
 20
23.9905
 10
3.0055
 20
23.998
 10
3.019
 20
24.001
 10
3.037
 20
24.0025
 10
3.3295
 20
24.0025
 10
3.3715
 20
24.001
 10
3.4105
 20
23.9965
 10
3.448
 20
23.9875
 10
3.484
 20
23.9755
 10
3.517
 20
23.959
 10
3.5485
 20
23.9395
 10
3.577
 20
23.917
 10
3.604
 20
23.8915
 10
3.625
 20
23.8645
 10
3.6445
 20
23.836
 10
3.6595
 20
23.806
 10
3.673
 20
23.776
 10
3.6835
 20
23.743
 10
3.6895
 20
23.71
 10
3.694
 20
23.6755
 10
3.6955
 20
23.6395
 10
3.694
 20
23.5945
 10
3.6865
 20
23.554
 10
3.676
 20
23.5135
 10
3.661
 20
23.4745
 10
3.6415
 20
23.4385
 10
3.616
 20
23.404
 10
3.5875
 20
23.3725
 10
3.553
 20
23.341
 10
3.583
 20
23.3155
 10
3.61
 20
23.2855
 10
3.634
 20
23.2525
 10
3.655
 20
23.215
 10
3.673
 20
23.176
 10
3.6865
 20
23.1355
 10
3.694
 20
23.095
 10
3.6955
 20
23.0515
 10
3.6955
 20
22.9045
 10
3.694
 20
22.8685
 10
3.6895
 20
22.8325
 10
3.6805
 20
22.798
 10
3.6685
 20
22.765
 10
3.6535
 20
22.7335
 10
3.6355
 20
22.7035
 10
3.613
 20
22.675
 10
3.589
 20
22.6465
 10
3.5605
 20
22.621
 10
3.532
 20
22.6
 10
3.502
 20
22.5805
 10
3.4705
 20
22.5655
 10
3.4375
 20
22.5535
 10
3.403
 20
22.546
 10
3.367
 20
22.54
 10
3.3295
 20
22.5385
 10
3.037
 20
22.5385
 10
3.0205
 20
22.54
 10
3.0055
 20
22.5445
 10
2.9935
 20
22.5505
 10
2.9815
 20
22.5595
 10
2.974
 20
22.5715
 10
2.968
 20
22.5835
 10
2.965
 20
22.597
 10
2.9635
 20
22.612
 10
2.965
 20
22.624
 10
2.968
 20
22.6375
 10
2.974
 20
22.6495
 10
2.9815
 20
22.6615
 10
2.992
 20
22.672
 10
3.004
 20
22.6795
 10
3.019
 20
22.684
 10
3.037
 20
22.6855
 10
3.3295
 20
22.6855
 10
3.352
 20
22.687
 10
3.373
 20
22.69
 10
3.394
 20
22.6945
 10
3.4135
 20
22.702
 10
3.433
 20
22.711
 10
3.451
 20
22.7215
 10
3.469
 20
22.735
 10
3.4855
 20
22.75
 10
3.5005
 20
22.7665
 10
3.5125
 20
22.783
 10
3.5245
 20
22.801
 10
3.5335
 20
22.8205
 10
3.541
 20
22.84
 10
3.5455
 20
22.861
 10
3.5485
 20
22.8835
 10
3.55
 20
22.9045
 10
3.55
 20
23.0515
 10
3.5485
 20
23.074
 10
3.5455
 20
23.095
 10
3.541
 20
23.116
 10
3.5335
 20
23.1355
 10
3.5245
 20
23.155
 10
3.514
 20
23.173
 10
3.5005
 20
23.1895
 10
3.4855
 20
23.206
 10
3.469
 20
23.221
 10
3.4525
 20
23.2345
 10
3.4345
 20
23.2465
 10
3.415
 20
23.2555
 10
3.3955
 20
23.263
 10
3.3745
 20
23.2675
 10
3.352
 20
23.2705
 10
3.3295
 20
23.272
 10
3.1825
 20
23.272
 10
3.1675
 20
23.272
 10
3.1525
 20
23.2765
 10
3.1405
 20
23.2825
 10
3.1285
 20
23.2915
 10
3.121
 20
23.3035
 10
3.115
 20
23.317
 10
3.1105
 20
23.3305
 10
3.109
 20
23.3455
 10
3.1105
 20
23.3575
 10
3.115
 20
23.3695
 10
3.1195
 20
23.3815
 10
3.1285
 20
23.3935
 10
3.139
 20
23.404
 10
3.151
 20
23.4115
 10
3.166
 20
23.416
 10
3.1825
 20
23.4175
 10
3.3295
 20
23.4175
 10
3.3535
 20
23.419
 10
3.376
 20
23.422
 10
3.397
 20
23.428
 10
3.418
 20
23.4355
 10
3.4375
 20
23.446
 10
3.4555
 20
23.458
 10
3.4735
 20
23.4715
 10
3.49
 20
23.488
 10
3.502
 20
23.5045
 10
3.5125
 20
23.521
 10
3.5215
 20
23.539
 10
3.529
 20
23.5585
 10
3.535
 20
23.578
 10
3.5395
 20
23.5975
 10
3.5425
 20
23.62
 10
3.5425
 20
23.6425
 10
3.5425
 20
23.6635
 10
3.5395
 20
23.6845
 10
3.5365
 20
23.704
 10
3.5305
 20
23.7235
 10
3.523
 20
23.7415
 10
3.514
 20
23.758
 10
3.5035
 20
23.7745
 10
3.4915
 20
23.7895
 10
3.4765
 20
23.806
 10
3.46
 20
23.8195
 10
3.442
 20
23.83
 10
3.4225
 20
23.8405
 10
3.4015
 20
23.8465
 10
3.379
 20
23.8525
 10
3.355
 20
23.8555
 10
3.3295
 20
23.857
  0
LWPOLYLINE
  5
92
100
AcDbEntity
  8
GENERATED_SILKSCREEN_TOP
100
AcDbPolyline
 90
       89
 70
         0
 43
0.07
 10
2.968
 20
40.1655
 10
2.6755
 20
38.847
 10
2.6725
 20
38.835
 10
2.668
 20
38.8245
 10
2.662
 20
38.814
 10
2.6515
 20
38.805
 10
2.641
 20
38.7975
 10
2.6305
 20
38.793
 10
2.6185
 20
38.79
 10
2.605
 20
38.7885
 10
2.593
 20
38.79
 10
2.5825
 20
38.7915
 10
2.572
 20
38.796
 10
2.563
 20
38.8005
 10
2.554
 20
38.808
 10
2.548
 20
38.817
 10
2.5405
 20
38.826
 10
2.536
 20
38.838
 10
2.311
 20
39.456
 10
2.0875
 20
38.838
 10
2.0755
 20
38.8185
 10
2.059
 20
38.802
 10
2.05
 20
38.796
 10
2.0395
 20
38.7915
 10
2.029
 20
38.79
 10
2.0185
 20
38.7885
 10
2.005
 20
38.79
 10
1.993
 20
38.793
 10
1.981
 20
38.7975
 10
1.972
 20
38.8035
 10
1.963
 20
38.811
 10
1.957
 20
38.8215
 10
1.951
 20
38.8335
 10
1.9465
 20
38.847
 10
1.6525
 20
40.1655
 10
1.6525
 20
40.185
 10
1.654
 20
40.1985
 10
1.657
 20
40.2105
 10
1.6645
 20
40.2225
 10
1.675
 20
40.233
 10
1.687
 20
40.242
 10
1.699
 20
40.2495
 10
1.7125
 20
40.254
 10
1.726
 20
40.2555
 10
1.738
 20
40.254
 10
1.75
 20
40.2525
 10
1.759
 20
40.248
 10
1.768
 20
40.242
 10
1.777
 20
40.2345
 10
1.7845
 20
40.2255
 10
1.7905
 20
40.212
 10
1.798
 20
40.197
 10
2.0365
 20
39.126
 10
2.242
 20
39.6945
 10
2.248
 20
39.708
 10
2.2555
 20
39.72
 10
2.263
 20
39.7305
 10
2.2705
 20
39.7395
 10
2.2795
 20
39.7455
 10
2.29
 20
39.75
 10
2.3005
 20
39.753
 10
2.311
 20
39.7545
 10
2.3215
 20
39.753
 10
2.332
 20
39.75
 10
2.3425
 20
39.7455
 10
2.35
 20
39.7395
 10
2.359
 20
39.7305
 10
2.3665
 20
39.72
 10
2.374
 20
39.708
 10
2.38
 20
39.6945
 10
2.587
 20
39.126
 10
2.8255
 20
40.197
 10
2.8285
 20
40.2105
 10
2.8345
 20
40.2225
 10
2.8405
 20
40.233
 10
2.8495
 20
40.2405
 10
2.8585
 20
40.2465
 10
2.869
 20
40.251
 10
2.881
 20
40.254
 10
2.8945
 20
40.2555
 10
2.9095
 20
40.254
 10
2.923
 20
40.2495
 10
2.935
 20
40.2435
 10
2.947
 20
40.2345
 10
2.9575
 20
40.224
 10
2.965
 20
40.212
 10
2.9695
 20
40.1985
 10
2.971
 20
40.1835
 10
2.968
 20
40.1655
  0
LWPOLYLINE
  5
93
100
AcDbEntity
  8
GENERATED_SILKSCREEN_TOP
100
AcDbPolyline
 90
       89
 70
         0
 43
0.07
 10
2.674
 20
23.9155
 10
2.3815
 20
22.597
 10
2.3785
 20
22.585
 10
2.374
 20
22.5745
 10
2.368
 20
22.564
 10
2.3575
 20
22.555
 10
2.347
 20
22.5475
 10
2.3365
 20
22.543
 10
2.3245
 20
22.54
 10
2.311
 20
22.5385
 10
2.299
 20
22.54
 10
2.2885
 20
22.5415
 10
2.278
 20
22.546
 10
2.269
 20
22.5505
 10
2.26
 20
22.558
 10
2.254
 20
22.567
 10
2.2465
 20
22.576
 10
2.242
 20
22.588
 10
2.017
 20
23.206
 10
1.7935
 20
22.588
 10
1.7815
 20
22.5685
 10
1.765
 20
22.552
 10
1.756
 20
22.546
 10
1.7455
 20
22.5415
 10
1.735
 20
22.54
 10
1.7245
 20
22.5385
 10
1.711
 20
22.54
 10
1.699
 20
22.543
 10
1.687
 20
22.5475
 10
1.678
 20
22.5535
 10
1.669
 20
22.561
 10
1.663
 20
22.5715
 10
1.657
 20
22.5835
 10
1.6525
 20
22.597
 10
1.3585
 20
23.9155
 10
1.3585
 20
23.935
 10
1.36
 20
23.9485
 10
1.363
 20
23.9605
 10
1.3705
 20
23.9725
 10
1.381
 20
23.983
 10
1.393
 20
23.992
 10
1.405
 20
23.9995
 10
1.4185
 20
24.004
 10
1.432
 20
24.0055
 10
1.444
 20
24.004
 10
1.456
 20
24.0025
 10
1.465
 20
23.998
 10
1.474
 20
23.992
 10
1.483
 20
23.9845
 10
1.4905
 20
23.9755
 10
1.4965
 20
23.962
 10
1.504
 20
23.947
 10
1.7425
 20
22.876
 10
1.948
 20
23.4445
 10
1.954
 20
23.458
 10
1.9615
 20
23.47
 10
1.969
 20
23.4805
 10
1.9765
 20
23.4895
 10
1.9855
 20
23.4955
 10
1.996
 20
23.5
 10
2.0065
 20
23.503
 10
2.017
 20
23.5045
 10
2.0275
 20
23.503
 10
2.038
 20
23.5
 10
2.0485
 20
23.4955
 10
2.056
 20
23.4895
 10
2.065
 20
23.4805
 10
2.0725
 20
23.47
 10
2.08
 20
23.458
 10
2.086
 20
23.4445
 10
2.293
 20
22.876
 10
2.5315
 20
23.947
 10
2.5345
 20
23.9605
 10
2.5405
 20
23.9725
 10
2.5465
 20
23.983
 10
2.5555
 20
23.9905
 10
2.5645
 20
23.9965
 10
2.575
 20
24.001
 10
2.587
 20
24.004
 10
2.6005
 20
24.0055
 10
2.6155
 20
24.004
 10
2.629
 20
23.9995
 10
2.641
 20
23.9935
 10
2.653
 20
23.9845
 10
2.6635
 20
23.974
 10
2.671
 20
23.962
 10
2.6755
 20
23.9485
 10
2.677
 20
23.9335
 10
2.674
 20
23.9155
  0
LWPOLYLINE
  5
94
100
AcDbEntity
  8
GENERATED_SILKSCREEN_TOP
100
AcDbPolyline
 90
       89
 70
         0
 43
0.07
 10
2.674
 20
7.4155
 10
2.3815
 20
6.097
 10
2.3785
 20
6.085
 10
2.374
 20
6.0745
 10
2.368
 20
6.064
 10
2.3575
 20
6.055
 10
2.347
 20
6.0475
 10
2.3365
 20
6.043
 10
2.3245
 20
6.04
 10
2.311
 20
6.0385
 10
2.299
 20
6.04
 10
2.2885
 20
6.0415
 10
2.278
 20
6.046
 10
2.269
 20
6.0505
 10
2.26
 20
6.058
 10
2.254
 20
6.067
 10
2.2465
 20
6.076
 10
2.242
 20
6.088
 10
2.017
 20
6.706
 10
1.7935
 20
6.088
 10
1.7815
 20
6.0685
 10
1.765
 20
6.052
 10
1.756
 20
6.046
 10
1.7455
 20
6.0415
 10
1.735
 20
6.04
 10
1.7245
 20
6.0385
 10
1.711
 20
6.04
 10
1.699
 20
6.043
 10
1.687
 20
6.0475
 10
1.678
 20
6.0535
 10
1.669
 20
6.061
 10
1.663
 20
6.0715
 10
1.657
 20
6.0835
 10
1.6525
 20
6.097
 10
1.3585
 20
7.4155
 10
1.3585
 20
7.435
 10
1.36
 20
7.4485
 10
1.363
 20
7.4605
 10
1.3705
 20
7.4725
 10
1.381
 20
7.483
 10
1.393
 20
7.492
 10
1.405
 20
7.4995
 10
1.4185
 20
7.504
 10
1.432
 20
7.5055
 10
1.444
 20
7.504
 10
1.456
 20
7.5025
 10
1.465
 20
7.498
 10
1.474
 20
7.492
 10
1.483
 20
7.4845
 10
1.4905
 20
7.4755
 10
1.4965
 20
7.462
 10
1.504
 20
7.447
 10
1.7425
 20
6.376
 10
1.948
 20
6.9445
 10
1.954
 20
6.958
 10
1.9615
 20
6.97
 10
1.969
 20
6.9805
 10
1.9765
 20
6.9895
 10
1.9855
 20
6.9955
 10
1.996
 20
7.0
 10
2.0065
 20
7.003
 10
2.017
 20
7.0045
 10
2.0275
 20
7.003
 10
2.038
 20
7.0
 10
2.0485
 20
6.9955
 10
2.056
 20
6.9895
 10
2.065
 20
6.9805
 10
2.0725
 20
6.97
 10
2.08
 20
6.958
 10
2.086
 20
6.9445
 10
2.293
 20
6.376
 10
2.5315
 20
7.447
 10
2.5345
 20
7.4605
 10
2.5405
 20
7.4725
 10
2.5465
 20
7.483
 10
2.5555
 20
7.4905
 10
2.5645
 20
7.4965
 10
2.575
 20
7.501
 10
2.587
 20
7.504
 10
2.6005
 20
7.5055
 10
2.6155
 20
7.504
 10
2.629
 20
7.4995
 10
2.641
 20
7.4935
 10
2.653
 20
7.4845
 10
2.6635
 20
7.474
 10
2.671
 20
7.462
 10
2.6755
 20
7.4485
 10
2.677
 20
7.4335
 10
2.674
 20
7.4155
  0
LWPOLYLINE
  5
95
100
AcDbEntity
  8
GENERATED_SILKSCREEN_TOP
100
AcDbPolyline
 90
      160
 70
         0
 43
0.07
 10
1.315
 20
40.131
 10
1.3285
 20
40.1205
 10
1.3375
 20
40.104
 10
1.3435
 20
40.0905
 10
1.3465
 20
40.0725
 10
1.345
 20
40.0605
 10
1.3405
 20
40.0485
 10
1.333
 20
40.035
 10
1.324
 20
40.023
 10
1.312
 20
40.011
 10
1.3
 20
40.0035
 10
1.2865
 20
39.9975
 10
1.273
 20
39.996
 10
1.261
 20
39.9975
 10
1.2505
 20
40.0005
 10
1.24
 20
40.005
 10
1.2295
 20
40.011
 10
1.1935
 20
40.035
 10
1.156
 20
40.056
 10
1.1185
 20
40.0725
 10
1.081
 20
40.086
 10
1.042
 20
40.098
 10
1.0015
 20
40.1055
 10
0.961
 20
40.11
 10
0.919
 20
40.1115
 10
0.8665
 20
40.1085
 10
0.817
 20
40.0995
 10
0.769
 20
40.086
 10
0.7225
 20
40.0665
 10
0.703
 20
40.053
 10
0.685
 20
40.0395
 10
0.6685
 20
40.0245
 10
0.655
 20
40.0065
 10
0.637
 20
39.9705
 10
0.6325
 20
39.9525
 10
0.631
 20
39.93
 10
0.634
 20
39.906
 10
0.6415
 20
39.8835
 10
0.655
 20
39.864
 10
0.6745
 20
39.8475
 10
1.2175
 20
39.4455
 10
1.249
 20
39.4215
 10
1.276
 20
39.3915
 10
1.3015
 20
39.357
 10
1.324
 20
39.318
 10
1.342
 20
39.2775
 10
1.3555
 20
39.234
 10
1.363
 20
39.192
 10
1.366
 20
39.1485
 10
1.363
 20
39.105
 10
1.357
 20
39.0615
 10
1.345
 20
39.021
 10
1.3285
 20
38.982
 10
1.306
 20
38.9445
 10
1.279
 20
38.913
 10
1.246
 20
38.886
 10
1.2085
 20
38.862
 10
1.174
 20
38.8455
 10
1.1365
 20
38.8305
 10
1.0975
 20
38.8155
 10
1.0555
 20
38.802
 10
1.018
 20
38.793
 10
0.9805
 20
38.787
 10
0.9445
 20
38.784
 10
0.9085
 20
38.7825
 10
0.859
 20
38.784
 10
0.8095
 20
38.79
 10
0.76
 20
38.8005
 10
0.7135
 20
38.8155
 10
0.6625
 20
38.8335
 10
0.6175
 20
38.856
 10
0.595
 20
38.868
 10
0.571
 20
38.8815
 10
0.547
 20
38.898
 10
0.52
 20
38.9145
 10
0.505
 20
38.9265
 10
0.4945
 20
38.94
 10
0.4885
 20
38.9565
 10
0.487
 20
38.9745
 10
0.4885
 20
38.9895
 10
0.4915
 20
39.0045
 10
0.499
 20
39.0165
 10
0.508
 20
39.0285
 10
0.5185
 20
39.0375
 10
0.5305
 20
39.045
 10
0.544
 20
39.0495
 10
0.5575
 20
39.051
 10
0.568
 20
39.0495
 10
0.577
 20
39.048
 10
0.5875
 20
39.0435
 10
0.5995
 20
39.0375
 10
0.6385
 20
39.0135
 10
0.6775
 20
38.9925
 10
0.7165
 20
38.9745
 10
0.7555
 20
38.9595
 10
0.793
 20
38.946
 10
0.8335
 20
38.937
 10
0.8725
 20
38.9325
 10
0.9115
 20
38.9295
 10
0.94
 20
38.931
 10
0.9685
 20
38.934
 10
0.997
 20
38.9385
 10
1.0255
 20
38.946
 10
1.054
 20
38.9535
 10
1.084
 20
38.9655
 10
1.1125
 20
38.9775
 10
1.1425
 20
38.9925
 10
1.1605
 20
39.003
 10
1.1755
 20
39.0165
 10
1.189
 20
39.0345
 10
1.201
 20
39.054
 10
1.2115
 20
39.0765
 10
1.2175
 20
39.099
 10
1.222
 20
39.1215
 10
1.2235
 20
39.1455
 10
1.222
 20
39.171
 10
1.2175
 20
39.1965
 10
1.2115
 20
39.222
 10
1.201
 20
39.249
 10
1.189
 20
39.2685
 10
1.174
 20
39.288
 10
1.156
 20
39.3075
 10
1.135
 20
39.3255
 10
0.592
 20
39.7275
 10
0.5695
 20
39.7455
 10
0.55
 20
39.765
 10
0.5335
 20
39.789
 10
0.5185
 20
39.8145
 10
0.5065
 20
39.843
 10
0.4975
 20
39.8715
 10
0.493
 20
39.9
 10
0.4915
 20
39.93
 10
0.493
 20
39.969
 10
0.5005
 20
40.008
 10
0.5125
 20
40.044
 10
0.529
 20
40.0785
 10
0.5395
 20
40.095
 10
0.5515
 20
40.1115
 10
0.565
 20
40.1265
 10
0.58
 20
40.1415
 10
0.5965
 20
40.1565
 10
0.6145
 20
40.17
 10
0.634
 20
40.182
 10
0.655
 20
40.194
 10
0.685
 20
40.209
 10
0.7165
 20
40.221
 10
0.748
 20
40.2315
 10
0.781
 20
40.2405
 10
0.814
 20
40.2465
 10
0.8485
 20
40.251
 10
0.8845
 20
40.254
 10
0.9205
 20
40.2555
 10
0.973
 20
40.2525
 10
1.0255
 20
40.2465
 10
1.0765
 20
40.2375
 10
1.1275
 20
40.224
 10
1.177
 20
40.206
 10
1.225
 20
40.185
 10
1.2715
 20
40.1595
 10
1.315
 20
40.131
  0
LWPOLYLINE
  5
96
100
AcDbEntity
  8
GENERATED_SILKSCREEN_TOP
100
AcDbPolyline
 90
      160
 70
         0
 43
0.07
 10
1.021
 20
7.381
 10
1.0345
 20
7.3705
 10
1.0435
 20
7.354
 10
1.0495
 20
7.3405
 10
1.0525
 20
7.3225
 10
1.051
 20
7.3105
 10
1.0465
 20
7.2985
 10
1.039
 20
7.285
 10
1.03
 20
7.273
 10
1.018
 20
7.261
 10
1.006
 20
7.2535
 10
0.9925
 20
7.2475
 10
0.979
 20
7.246
 10
0.967
 20
7.2475
 10
0.9565
 20
7.2505
 10
0.946
 20
7.255
 10
0.9355
 20
7.261
 10
0.8995
 20
7.285
 10
0.862
 20
7.306
 10
0.8245
 20
7.3225
 10
0.787
 20
7.336
 10
0.748
 20
7.348
 10
0.7075
 20
7.3555
 10
0.667
 20
7.36
 10
0.625
 20
7.3615
 10
0.5725
 20
7.3585
 10
0.523
 20
7.3495
 10
0.475
 20
7.336
 10
0.4285
 20
7.3165
 10
0.409
 20
7.303
 10
0.391
 20
7.2895
 10
0.3745
 20
7.2745
 10
0.361
 20
7.2565
 10
0.343
 20
7.2205
 10
0.3385
 20
7.2025
 10
0.337
 20
7.18
 10
0.34
 20
7.156
 10
0.3475
 20
7.1335
 10
0.361
 20
7.114
 10
0.3805
 20
7.0975
 10
0.9235
 20
6.6955
 10
0.955
 20
6.6715
 10
0.982
 20
6.6415
 10
1.0075
 20
6.607
 10
1.03
 20
6.568
 10
1.048
 20
6.5275
 10
1.0615
 20
6.484
 10
1.069
 20
6.442
 10
1.072
 20
6.3985
 10
1.069
 20
6.355
 10
1.063
 20
6.3115
 10
1.051
 20
6.271
 10
1.0345
 20
6.232
 10
1.012
 20
6.1945
 10
0.985
 20
6.163
 10
0.952
 20
6.136
 10
0.9145
 20
6.112
 10
0.88
 20
6.0955
 10
0.8425
 20
6.0805
 10
0.8035
 20
6.0655
 10
0.7615
 20
6.052
 10
0.724
 20
6.043
 10
0.6865
 20
6.037
 10
0.6505
 20
6.034
 10
0.6145
 20
6.0325
 10
0.565
 20
6.034
 10
0.5155
 20
6.04
 10
0.466
 20
6.0505
 10
0.4195
 20
6.0655
 10
0.3685
 20
6.0835
 10
0.3235
 20
6.106
 10
0.301
 20
6.118
 10
0.277
 20
6.1315
 10
0.253
 20
6.148
 10
0.226
 20
6.1645
 10
0.211
 20
6.1765
 10
0.2005
 20
6.19
 10
0.1945
 20
6.2065
 10
0.193
 20
6.2245
 10
0.1945
 20
6.2395
 10
0.1975
 20
6.2545
 10
0.205
 20
6.2665
 10
0.214
 20
6.2785
 10
0.2245
 20
6.2875
 10
0.2365
 20
6.295
 10
0.25
 20
6.2995
 10
0.2635
 20
6.301
 10
0.274
 20
6.2995
 10
0.283
 20
6.298
 10
0.2935
 20
6.2935
 10
0.3055
 20
6.2875
 10
0.3445
 20
6.2635
 10
0.3835
 20
6.2425
 10
0.4225
 20
6.2245
 10
0.4615
 20
6.2095
 10
0.499
 20
6.196
 10
0.5395
 20
6.187
 10
0.5785
 20
6.1825
 10
0.6175
 20
6.1795
 10
0.646
 20
6.181
 10
0.6745
 20
6.184
 10
0.703
 20
6.1885
 10
0.7315
 20
6.196
 10
0.76
 20
6.2035
 10
0.79
 20
6.2155
 10
0.8185
 20
6.2275
 10
0.8485
 20
6.2425
 10
0.8665
 20
6.253
 10
0.8815
 20
6.2665
 10
0.895
 20
6.2845
 10
0.907
 20
6.304
 10
0.9175
 20
6.3265
 10
0.9235
 20
6.349
 10
0.928
 20
6.3715
 10
0.9295
 20
6.3955
 10
0.928
 20
6.421
 10
0.9235
 20
6.4465
 10
0.9175
 20
6.472
 10
0.907
 20
6.499
 10
0.895
 20
6.5185
 10
0.88
 20
6.538
 10
0.862
 20
6.5575
 10
0.841
 20
6.5755
 10
0.298
 20
6.9775
 10
0.2755
 20
6.9955
 10
0.256
 20
7.015
 10
0.2395
 20
7.039
 10
0.2245
 20
7.0645
 10
0.2125
 20
7.093
 10
0.2035
 20
7.1215
 10
0.199
 20
7.15
 10
0.1975
 20
7.18
 10
0.199
 20
7.219
 10
0.2065
 20
7.258
 10
0.2185
 20
7.294
 10
0.235
 20
7.3285
 10
0.2455
 20
7.345
 10
0.2575
 20
7.3615
 10
0.271
 20
7.3765
 10
0.286
 20
7.3915
 10
0.3025
 20
7.4065
 10
0.3205
 20
7.42
 10
0.34
 20
7.432
 10
0.361
 20
7.444
 10
0.391
 20
7.459
 10
0.4225
 20
7.471
 10
0.454
 20
7.4815
 10
0.487
 20
7.4905
 10
0.52
 20
7.4965
 10
0.5545
 20
7.501
 10
0.5905
 20
7.504
 10
0.6265
 20
7.5055
 10
0.679
 20
7.5025
 10
0.7315
 20
7.4965
 10
0.7825
 20
7.4875
 10
0.8335
 20
7.474
 10
0.883
 20
7.456
 10
0.931
 20
7.435
 10
0.9775
 20
7.4095
 10
1.021
 20
7.381
  0
LWPOLYLINE
  5
97
100
AcDbEntity
  8
GENERATED_SILKSCREEN_TOP
100
AcDbPolyline
 90
      160
 70
         0
 43
0.07
 10
1.021
 20
23.881
 10
1.0345
 20
23.8705
 10
1.0435
 20
23.854
 10
1.0495
 20
23.8405
 10
1.0525
 20
23.8225
 10
1.051
 20
23.8105
 10
1.0465
 20
23.7985
 10
1.039
 20
23.785
 10
1.03
 20
23.773
 10
1.018
 20
23.761
 10
1.006
 20
23.7535
 10
0.9925
 20
23.7475
 10
0.979
 20
23.746
 10
0.967
 20
23.7475
 10
0.9565
 20
23.7505
 10
0.946
 20
23.755
 10
0.9355
 20
23.761
 10
0.8995
 20
23.785
 10
0.862
 20
23.806
 10
0.8245
 20
23.8225
 10
0.787
 20
23.836
 10
0.748
 20
23.848
 10
0.7075
 20
23.8555
 10
0.667
 20
23.86
 10
0.625
 20
23.8615
 10
0.5725
 20
23.8585
 10
0.523
 20
23.8495
 10
0.475
 20
23.836
 10
0.4285
 20
23.8165
 10
0.409
 20
23.803
 10
0.391
 20
23.7895
 10
0.3745
 20
23.7745
 10
0.361
 20
23.7565
 10
0.343
 20
23.7205
 10
0.3385
 20
23.7025
 10
0.337
 20
23.68
 10
0.34
 20
23.656
 10
0.3475
 20
23.6335
 10
0.361
 20
23.614
 10
0.3805
 20
23.5975
 10
0.9235
 20
23.1955
 10
0.955
 20
23.1715
 10
0.982
 20
23.1415
 10
1.0075
 20
23.107
 10
1.03
 20
23.068
 10
1.048
 20
23.0275
 10
1.0615
 20
22.984
 10
1.069
 20
22.942
 10
1.072
 20
22.8985
 10
1.069
 20
22.855
 10
1.063
 20
22.8115
 10
1.051
 20
22.771
 10
1.0345
 20
22.732
 10
1.012
 20
22.6945
 10
0.985
 20
22.663
 10
0.952
 20
22.636
 10
0.9145
 20
22.612
 10
0.88
 20
22.5955
 10
0.8425
 20
22.5805
 10
0.8035
 20
22.5655
 10
0.7615
 20
22.552
 10
0.724
 20
22.543
 10
0.6865
 20
22.537
 10
0.6505
 20
22.534
 10
0.6145
 20
22.5325
 10
0.565
 20
22.534
 10
0.5155
 20
22.54
 10
0.466
 20
22.5505
 10
0.4195
 20
22.5655
 10
0.3685
 20
22.5835
 10
0.3235
 20
22.606
 10
0.301
 20
22.618
 10
0.277
 20
22.6315
 10
0.253
 20
22.648
 10
0.226
 20
22.6645
 10
0.211
 20
22.6765
 10
0.2005
 20
22.69
 10
0.1945
 20
22.7065
 10
0.193
 20
22.7245
 10
0.1945
 20
22.7395
 10
0.1975
 20
22.7545
 10
0.205
 20
22.7665
 10
0.214
 20
22.7785
 10
0.2245
 20
22.7875
 10
0.2365
 20
22.795
 10
0.25
 20
22.7995
 10
0.2635
 20
22.801
 10
0.274
 20
22.7995
 10
0.283
 20
22.798
 10
0.2935
 20
22.7935
 10
0.3055
 20
22.7875
 10
0.3445
 20
22.7635
 10
0.3835
 20
22.7425
 10
0.4225
 20
22.7245
 10
0.4615
 20
22.7095
 10
0.499
 20
22.696
 10
0.5395
 20
22.687
 10
0.5785
 20
22.6825
 10
0.6175
 20
22.6795
 10
0.646
 20
22.681
 10
0.6745
 20
22.684
 10
0.703
 20
22.6885
 10
0.7315
 20
22.696
 10
0.76
 20
22.7035
 10
0.79
 20
22.7155
 10
0.8185
 20
22.7275
 10
0.8485
 20
22.7425
 10
0.8665
 20
22.753
 10
0.8815
 20
22.7665
 10
0.895
 20
22.7845
 10
0.907
 20
22.804
 10
0.9175
 20
22.8265
 10
0.9235
 20
22.849
 10
0.928
 20
22.8715
 10
0.9295
 20
22.8955
 10
0.928
 20
22.921
 10
0.9235
 20
22.9465
 10
0.9175
 20
22.972
 10
0.907
 20
22.999
 10
0.895
 20
23.0185
 10
0.88
 20
23.038
 10
0.862
 20
23.0575
 10
0.841
 20
23.0755
 10
0.298
 20
23.4775
 10
0.2755
 20
23.4955
 10
0.256
 20
23.515
 10
0.2395
 20
23.539
 10
0.2245
 20
23.5645
 10
0.2125
 20
23.593
 10
0.2035
 20
23.6215
 10
0.199
 20
23.65
 10
0.1975
 20
23.68
 10
0.199
 20
23.719
 10
0.2065
 20
23.758
 10
0.2185
 20
23.794
 10
0.235
 20
23.8285
 10
0.2455
 20
23.845
 10
0.2575
 20
23.8615
 10
0.271
 20
23.8765
 10
0.286
 20
23.8915
 10
0.3025
 20
23.9065
 10
0.3205
 20
23.92
 10
0.34
 20
23.932
 10
0.361
 20
23.944
 10
0.391
 20
23.959
 10
0.4225
 20
23.971
 10
0.454
 20
23.9815
 10
0.487
 20
23.9905
 10
0.52
 20
23.9965
 10
0.5545
 20
24.001
 10
0.5905
 20
24.004
 10
0.6265
 20
24.0055
 10
0.679
 20
24.0025
 10
0.7315
 20
23.9965
 10
0.7825
 20
23.9875
 10
0.8335
 20
23.974
 10
0.883
 20
23.956
 10
0.931
 20
23.935
 10
0.9775
 20
23.9095
 10
1.021
 20
23.881
  0
LWPOLYLINE
  5
98
100
AcDbEntity
  8
GENERATED_SILKSCREEN_TOP
100
AcDbPolyline
 90
       11
 70
         0
 43
0.15
 10
-1.146867
 20
16.049995
 10
-1.349995
 20
16.049995
 10
-1.349995
 20
11.050005
 10
-1.146867
 20
11.050005
 42
0.0000035166
 10
-1.146869
 20
11.049995
 10
-1.35
 20
11.049995
 42
-0.4142135624
 10
-1.350005
 20
11.05
 10
-1.350005
 20
16.05
 42
-0.4142135624
 10
-1.35
 20
16.050005
 10
-1.146869
 20
16.050005
 42
0.0000035166
 10
-1.146867
 20
16.049995
  0
LWPOLYLINE
  5
99
100
AcDbEntity
  8
GENERATED_SILKSCREEN_TOP
100
AcDbPolyline
 90
       11
 70
         0
 43
0.15
 10
-1.146867
 20
32.549995
 10
-1.349995
 20
32.549995
 10
-1.349995
 20
27.550005
 10
-1.146867
 20
27.550005
 42
0.0000035166
 10
-1.146869
 20
27.549995
 10
-1.35
 20
27.549995
 42
-0.4142135624
 10
-1.350005
 20
27.55
 10
-1.350005
 20
32.55
 42
-0.4142135624
 10
-1.35
 20
32.550005
 10
-1.146869
 20
32.550005
 42
0.0000035166
 10
-1.146867
 20
32.549995
  0
LWPOLYLINE
  5
9A
100
AcDbEntity
  8
GENERATED_SILKSCREEN_TOP
100
AcDbPolyline
 90
       11
 70
         0
 43
0.15
 10
-1.146867
 20
48.799995
 10
-1.349995
 20
48.799995
 10
-1.349995
 20
43.800005
 10
-1.146867
 20
43.800005
 42
0.0000035166
 10
-1.146869
 20
43.799995
 10
-1.35
 20
43.799995
 42
-0.4142135624
 10
-1.350005
 20
43.8
 10
-1.350005
 20
48.8
 42
-0.4142135624
 10
-1.35
 20
48.800005
 10
-1.146869
 20
48.800005
 42
0.0000035166
 10
-1.146867
 20
48.799995
  0
LWPOLYLINE
  5
9B
100
AcDbEntity
  8
GENERATED_SILKSCREEN_TOP
100
AcDbPolyline
 90
        5
 70
         0
 43
0.15
 10
3.353133
 20
11.050005
 42
0.0000035166
 10
3.353131
 20
11.049995
 10
0.246869
 20
11.049995
 42
0.0000035166
 10
0.246867
 20
11.050005
 10
3.353133
 20
11.050005
  0
LWPOLYLINE
  5
9C
100
AcDbEntity
  8
GENERATED_SILKSCREEN_TOP
100
AcDbPolyline
 90
        5
 70
         0
 43
0.15
 10
3.353133
 20
16.049995
 10
0.246867
 20
16.049995
 42
0.0000035166
 10
0.246869
 20
16.050005
 10
3.353131
 20
16.050005
 42
0.0000035166
 10
3.353133
 20
16.049995
  0
LWPOLYLINE
  5
9D
100
AcDbEntity
  8
GENERATED_SILKSCREEN_TOP
100
AcDbPolyline
 90
        5
 70
         0
 43
0.15
 10
3.353133
 20
27.550005
 42
0.0000035166
 10
3.353131
 20
27.549995
 10
0.246869
 20
27.549995
 42
0.0000035166
 10
0.246867
 20
27.550005
 10
3.353133
 20
27.550005
  0
LWPOLYLINE
  5
9E
100
AcDbEntity
  8
GENERATED_SILKSCREEN_TOP
100
AcDbPolyline
 90
        5
 70
         0
 43
0.15
 10
3.353133
 20
32.549995
 10
0.246867
 20
32.549995
 42
0.0000035166
 10
0.246869
 20
32.550005
 10
3.353131
 20
32.550005
 42
0.0000035166
 10
3.353133
 20
32.549995
  0
LWPOLYLINE
  5
9F
100
AcDbEntity
  8
GENERATED_SILKSCREEN_TOP
100
AcDbPolyline
 90
        5
 70
         0
 43
0.15
 10
3.353133
 20
43.800005
 42
0.0000035166
 10
3.353131
 20
43.799995
 10
0.246869
 20
43.799995
 42
0.0000035166
 10
0.246867
 20
43.800005
 10
3.353133
 20
43.800005
  0
LWPOLYLINE
  5
A0
100
AcDbEntity
  8
GENERATED_SILKSCREEN_TOP
100
AcDbPolyline
 90
        5
 70
         0
 43
0.15
 10
3.353133
 20
48.799995
 10
0.246867
 20
48.799995
 42
0.0000035166
 10
0.246869
 20
48.800005
 10
3.353131
 20
48.800005
 42
0.0000035166
 10
3.353133
 20
48.799995
  0
LWPOLYLINE
  5
A1
100
AcDbEntity
  8
GENERATED_SILKSCREEN_TOP
100
AcDbPolyline
 90
       11
 70
         0
 43
0.15
 10
4.950005
 20
11.05
 42
-0.4142135624
 10
4.95
 20
11.049995
 10
4.746869
 20
11.049995
 42
0.0000035166
 10
4.746867
 20
11.050005
 10
4.949995
 20
11.050005
 10
4.949995
 20
16.049995
 10
4.746867
 20
16.049995
 42
0.0000035166
 10
4.746869
 20
16.050005
 10
4.95
 20
16.050005
 42
-0.4142135624
 10
4.950005
 20
16.05
 10
4.950005
 20
11.05
  0
LWPOLYLINE
  5
A2
100
AcDbEntity
  8
GENERATED_SILKSCREEN_TOP
100
AcDbPolyline
 90
       11
 70
         0
 43
0.15
 10
4.950005
 20
27.55
 42
-0.4142135624
 10
4.95
 20
27.549995
 10
4.746869
 20
27.549995
 42
0.0000035166
 10
4.746867
 20
27.550005
 10
4.949995
 20
27.550005
 10
4.949995
 20
32.549995
 10
4.746867
 20
32.549995
 42
0.0000035166
 10
4.746869
 20
32.550005
 10
4.95
 20
32.550005
 42
-0.4142135624
 10
4.950005
 20
32.55
 10
4.950005
 20
27.55
  0
LWPOLYLINE
  5
A3
100
AcDbEntity
  8
GENERATED_SILKSCREEN_TOP
100
AcDbPolyline
 90
       11
 70
         0
 43
0.15
 10
4.950005
 20
43.8
 42
-0.4142135624
 10
4.95
 20
43.799995
 10
4.746869
 20
43.799995
 42
0.0000035166
 10
4.746867
 20
43.800005
 10
4.949995
 20
43.800005
 10
4.949995
 20
48.799995
 10
4.746867
 20
48.799995
 42
0.0000035166
 10
4.746869
 20
48.800005
 10
4.95
 20
48.800005
 42
-0.4142135624
 10
4.950005
 20
48.8
 10
4.950005
 20
43.8
  0
LWPOLYLINE
  5
A4
100
AcDbEntity
  8
GENERATED_SILKSCREEN_TOP
100
AcDbPolyline
 90
       11
 70
         0
 43
0.15
 10
116.253133
 20
16.049995
 10
116.050005
 20
16.049995
 10
116.050005
 20
11.050005
 10
116.253133
 20
11.050005
 42
0.0000035166
 10
116.253131
 20
11.049995
 10
116.05
 20
11.049995
 42
-0.4142135624
 10
116.049995
 20
11.05
 10
116.049995
 20
16.05
 42
-0.4142135624
 10
116.05
 20
16.050005
 10
116.253131
 20
16.050005
 42
0.0000035166
 10
116.253133
 20
16.049995
  0
LWPOLYLINE
  5
A5
100
AcDbEntity
  8
GENERATED_SILKSCREEN_TOP
100
AcDbPolyline
 90
       11
 70
         0
 43
0.15
 10
116.253133
 20
32.549995
 10
116.050005
 20
32.549995
 10
116.050005
 20
27.550005
 10
116.253133
 20
27.550005
 42
0.0000035166
 10
116.253131
 20
27.549995
 10
116.05
 20
27.549995
 42
-0.4142135624
 10
116.049995
 20
27.55
 10
116.049995
 20
32.55
 42
-0.4142135624
 10
116.05
 20
32.550005
 10
116.253131
 20
32.550005
 42
0.0000035166
 10
116.253133
 20
32.549995
  0
LWPOLYLINE
  5
A6
100
AcDbEntity
  8
GENERATED_SILKSCREEN_TOP
100
AcDbPolyline
 90
       11
 70
         0
 43
0.15
 10
116.253133
 20
48.799995
 10
116.050005
 20
48.799995
 10
116.050005
 20
43.800005
 10
116.253133
 20
43.800005
 42
0.0000035166
 10
116.253131
 20
43.799995
 10
116.05
 20
43.799995
 42
-0.4142135624
 10
116.049995
 20
43.8
 10
116.049995
 20
48.8
 42
-0.4142135624
 10
116.05
 20
48.800005
 10
116.253131
 20
48.800005
 42
0.0000035166
 10
116.253133
 20
48.799995
  0
LWPOLYLINE
  5
A7
100
AcDbEntity
  8
GENERATED_SILKSCREEN_TOP
100
AcDbPolyline
 90
        5
 70
         0
 43
0.15
 10
120.753133
 20
11.050005
 42
0.0000035166
 10
120.753131
 20
11.049995
 10
117.646869
 20
11.049995
 42
0.0000035166
 10
117.646867
 20
11.050005
 10
120.753133
 20
11.050005
  0
LWPOLYLINE
  5
A8
100
AcDbEntity
  8
GENERATED_SILKSCREEN_TOP
100
AcDbPolyline
 90
        5
 70
         0
 43
0.15
 10
120.753133
 20
16.049995
 10
117.646867
 20
16.049995
 42
0.0000035166
 10
117.646869
 20
16.050005
 10
120.753131
 20
16.050005
 42
0.0000035166
 10
120.753133
 20
16.049995
  0
LWPOLYLINE
  5
A9
100
AcDbEntity
  8
GENERATED_SILKSCREEN_TOP
100
AcDbPolyline
 90
        5
 70
         0
 43
0.15
 10
120.753133
 20
27.550005
 42
0.0000035166
 10
120.753131
 20
27.549995
 10
117.646869
 20
27.549995
 42
0.0000035166
 10
117.646867
 20
27.550005
 10
120.753133
 20
27.550005
  0
LWPOLYLINE
  5
AA
100
AcDbEntity
  8
GENERATED_SILKSCREEN_TOP
100
AcDbPolyline
 90
        5
 70
         0
 43
0.15
 10
120.753133
 20
32.549995
 10
117.646867
 20
32.549995
 42
0.0000035166
 10
117.646869
 20
32.550005
 10
120.753131
 20
32.550005
 42
0.0000035166
 10
120.753133
 20
32.549995
  0
LWPOLYLINE
  5
AB
100
AcDbEntity
  8
GENERATED_SILKSCREEN_TOP
100
AcDbPolyline
 90
        5
 70
         0
 43
0.15
 10
120.753133
 20
43.800005
 42
0.0000035166
 10
120.753131
 20
43.799995
 10
117.646869
 20
43.799995
 42
0.0000035166
 10
117.646867
 20
43.800005
 10
120.753133
 20
43.800005
  0
LWPOLYLINE
  5
AC
100
AcDbEntity
  8
GENERATED_SILKSCREEN_TOP
100
AcDbPolyline
 90
        5
 70
         0
 43
0.15
 10
120.753133
 20
48.799995
 10
117.646867
 20
48.799995
 42
0.0000035166
 10
117.646869
 20
48.800005
 10
120.753131
 20
48.800005
 42
0.0000035166
 10
120.753133
 20
48.799995
  0
LWPOLYLINE
  5
AD
100
AcDbEntity
  8
GENERATED_SILKSCREEN_TOP
100
AcDbPolyline
 90
       11
 70
         0
 43
0.15
 10
122.350005
 20
11.05
 42
-0.4142135624
 10
122.35
 20
11.049995
 10
122.146869
 20
11.049995
 42
0.0000035166
 10
122.146867
 20
11.050005
 10
122.349995
 20
11.050005
 10
122.349995
 20
16.049995
 10
122.146867
 20
16.049995
 42
0.0000035166
 10
122.146869
 20
16.050005
 10
122.35
 20
16.050005
 42
-0.4142135624
 10
122.350005
 20
16.05
 10
122.350005
 20
11.05
  0
LWPOLYLINE
  5
AE
100
AcDbEntity
  8
GENERATED_SILKSCREEN_TOP
100
AcDbPolyline
 90
       11
 70
         0
 43
0.15
 10
122.350005
 20
27.55
 42
-0.4142135624
 10
122.35
 20
27.549995
 10
122.146869
 20
27.549995
 42
0.0000035166
 10
122.146867
 20
27.550005
 10
122.349995
 20
27.550005
 10
122.349995
 20
32.549995
 10
122.146867
 20
32.549995
 42
0.0000035166
 10
122.146869
 20
32.550005
 10
122.35
 20
32.550005
 42
-0.4142135624
 10
122.350005
 20
32.55
 10
122.350005
 20
27.55
  0
LWPOLYLINE
  5
AF
100
AcDbEntity
  8
GENERATED_SILKSCREEN_TOP
100
AcDbPolyline
 90
       11
 70
         0
 43
0.15
 10
122.350005
 20
43.8
 42
-0.4142135624
 10
122.35
 20
43.799995
 10
122.146869
 20
43.799995
 42
0.0000035166
 10
122.146867
 20
43.800005
 10
122.349995
 20
43.800005
 10
122.349995
 20
48.799995
 10
122.146867
 20
48.799995
 42
0.0000035166
 10
122.146869
 20
48.800005
 10
122.35
 20
48.800005
 42
-0.4142135624
 10
122.350005
 20
48.8
 10
122.350005
 20
43.8
  0
LWPOLYLINE
  5
B0
100
AcDbEntity
  8
MOUNTING_HOLES_LAYER_TOP
100
AcDbPolyline
 90
        2
 70
         1
 43
1.5
 10
118.25
 20
1.5
 42
-1.0
 10
119.75
 20
1.5
 42
-1.0
  0
LWPOLYLINE
  5
B1
100
AcDbEntity
  8
MOUNTING_HOLES_LAYER_TOP
100
AcDbPolyline
 90
        2
 70
         1
 43
1.5
 10
1.25
 20
1.5
 42
-1.0
 10
2.75
 20
1.5
 42
-1.0
  0
LWPOLYLINE
  5
B2
100
AcDbEntity
  8
MOUNTING_HOLES_LAYER_TOP
100
AcDbPolyline
 90
        2
 70
         1
 43
1.5
 10
1.25
 20
58.5
 42
-1.0
 10
2.75
 20
58.5
 42
-1.0
  0
LWPOLYLINE
  5
B3
100
AcDbEntity
  8
MOUNTING_HOLES_LAYER_TOP
100
AcDbPolyline
 90
        2
 70
         1
 43
1.5
 10
118.25
 20
58.5
 42
-1.0
 10
119.75
 20
58.5
 42
-1.0
  0
LWPOLYLINE
  5
B4
100
AcDbEntity
  8
PART_HOLES_LAYER_TOP
100
AcDbPolyline
 90
        2
 70
         1
 43
0.45
 10
58.175
 20
39.0
 42
-1.0
 10
58.625
 20
39.0
 42
-1.0
  0
LWPOLYLINE
  5
B5
100
AcDbEntity
  8
PART_HOLES_LAYER_TOP
100
AcDbPolyline
 90
        2
 70
         1
 43
0.45
 10
58.175
 20
36.46
 42
-1.0
 10
58.625
 20
36.46
 42
-1.0
  0
LWPOLYLINE
  5
B6
100
AcDbEntity
  8
PART_HOLES_LAYER_TOP
100
AcDbPolyline
 90
        2
 70
         1
 43
0.45
 10
60.675
 20
39.0
 42
-1.0
 10
61.125
 20
39.0
 42
-1.0
  0
LWPOLYLINE
  5
B7
100
AcDbEntity
  8
PART_HOLES_LAYER_TOP
100
AcDbPolyline
 90
        2
 70
         1
 43
0.45
 10
60.675
 20
36.46
 42
-1.0
 10
61.125
 20
36.46
 42
-1.0
  0
LWPOLYLINE
  5
B8
100
AcDbEntity
  8
PART_HOLES_LAYER_TOP
100
AcDbPolyline
 90
        2
 70
         1
 43
0.45
 10
63.175
 20
39.0
 42
-1.0
 10
63.625
 20
39.0
 42
-1.0
  0
LWPOLYLINE
  5
B9
100
AcDbEntity
  8
PART_HOLES_LAYER_TOP
100
AcDbPolyline
 90
        2
 70
         1
 43
0.45
 10
63.175
 20
36.46
 42
-1.0
 10
63.625
 20
36.46
 42
-1.0
  0
LWPOLYLINE
  5
BA
100
AcDbEntity
  8
PART_HOLES_LAYER_TOP
100
AcDbPolyline
 90
        2
 70
         1
 43
0.45
 10
65.675
 20
39.0
 42
-1.0
 10
66.125
 20
39.0
 42
-1.0
  0
LWPOLYLINE
  5
BB
100
AcDbEntity
  8
PART_HOLES_LAYER_TOP
100
AcDbPolyline
 90
        2
 70
         1
 43
0.45
 10
65.675
 20
36.46
 42
-1.0
 10
66.125
 20
36.46
 42
-1.0
  0
LWPOLYLINE
  5
BC
100
AcDbEntity
  8
PART_HOLES_LAYER_TOP
100
AcDbPolyline
 90
        2
 70
         1
 43
0.45
 10
57.375
 20
25.5
 42
-1.0
 10
57.825
 20
25.5
 42
-1.0
  0
LWPOLYLINE
  5
BD
100
AcDbEntity
  8
PART_HOLES_LAYER_TOP
100
AcDbPolyline
 90
        2
 70
         1
 43
0.45
 10
57.375
 20
22.96
 42
-1.0
 10
57.825
 20
22.96
 42
-1.0
  0
LWPOLYLINE
  5
BE
100
AcDbEntity
  8
PART_HOLES_LAYER_TOP
100
AcDbPolyline
 90
        2
 70
         1
 43
0.45
 10
70.555
 20
50.6
 42
-1.0
 10
71.005
 20
50.6
 42
-1.0
  0
LWPOLYLINE
  5
BF
100
AcDbEntity
  8
PART_HOLES_LAYER_TOP
100
AcDbPolyline
 90
        2
 70
         1
 43
0.45
 10
65.475
 20
50.6
 42
-1.0
 10
65.925
 20
50.6
 42
-1.0
  0
LWPOLYLINE
  5
C0
100
AcDbEntity
  8
PART_HOLES_LAYER_TOP
100
AcDbPolyline
 90
        2
 70
         1
 43
0.45
 10
68.015
 20
50.6
 42
-1.0
 10
68.465
 20
50.6
 42
-1.0
  0
LWPOLYLINE
  5
C1
100
AcDbEntity
  8
PART_HOLES_LAYER_TOP
100
AcDbPolyline
 90
        2
 70
         1
 43
0.45
 10
70.555
 20
53.3
 42
-1.0
 10
71.005
 20
53.3
 42
-1.0
  0
LWPOLYLINE
  5
C2
100
AcDbEntity
  8
PART_HOLES_LAYER_TOP
100
AcDbPolyline
 90
        2
 70
         1
 43
0.45
 10
65.475
 20
53.3
 42
-1.0
 10
65.925
 20
53.3
 42
-1.0
  0
LWPOLYLINE
  5
C3
100
AcDbEntity
  8
PART_HOLES_LAYER_TOP
100
AcDbPolyline
 90
        2
 70
         1
 43
0.45
 10
68.015
 20
53.3
 42
-1.0
 10
68.465
 20
53.3
 42
-1.0
  0
LWPOLYLINE
  5
C4
100
AcDbEntity
  8
PART_HOLES_LAYER_TOP
100
AcDbPolyline
 90
        2
 70
         1
 43
0.45
 10
70.555
 20
56.0
 42
-1.0
 10
71.005
 20
56.0
 42
-1.0
  0
LWPOLYLINE
  5
C5
100
AcDbEntity
  8
PART_HOLES_LAYER_TOP
100
AcDbPolyline
 90
        2
 70
         1
 43
0.45
 10
65.475
 20
56.0
 42
-1.0
 10
65.925
 20
56.0
 42
-1.0
  0
LWPOLYLINE
  5
C6
100
AcDbEntity
  8
PART_HOLES_LAYER_TOP
100
AcDbPolyline
 90
        2
 70
         1
 43
0.45
 10
68.015
 20
56.0
 42
-1.0
 10
68.465
 20
56.0
 42
-1.0
  0
LWPOLYLINE
  5
C7
100
AcDbEntity
  8
PART_HOLES_LAYER_TOP
100
AcDbPolyline
 90
        2
 70
         1
 43
0.45
 10
70.555
 20
58.7
 42
-1.0
 10
71.005
 20
58.7
 42
-1.0
  0
LWPOLYLINE
  5
C8
100
AcDbEntity
  8
PART_HOLES_LAYER_TOP
100
AcDbPolyline
 90
        2
 70
         1
 43
0.45
 10
65.475
 20
58.7
 42
-1.0
 10
65.925
 20
58.7
 42
-1.0
  0
LWPOLYLINE
  5
C9
100
AcDbEntity
  8
PART_HOLES_LAYER_TOP
100
AcDbPolyline
 90
        2
 70
         1
 43
0.45
 10
68.015
 20
58.7
 42
-1.0
 10
68.465
 20
58.7
 42
-1.0
  0
LWPOLYLINE
  5
CA
100
AcDbEntity
  8
PART_HOLES_LAYER_TOP
100
AcDbPolyline
 90
        2
 70
         1
 43
0.45
 10
104.175
 20
4.7
 42
-1.0
 10
104.625
 20
4.7
 42
-1.0
  0
LWPOLYLINE
  5
CB
100
AcDbEntity
  8
PART_HOLES_LAYER_TOP
100
AcDbPolyline
 90
        2
 70
         1
 43
0.45
 10
101.174998
 20
4.7
 42
-1.0
 10
101.624998
 20
4.7
 42
-1.0
  0
LWPOLYLINE
  5
CC
100
AcDbEntity
  8
PART_HOLES_LAYER_TOP
100
AcDbPolyline
 90
        2
 70
         1
 43
0.45
 10
30.475
 20
6.0
 42
-1.0
 10
30.925
 20
6.0
 42
-1.0
  0
LWPOLYLINE
  5
CD
100
AcDbEntity
  8
PART_HOLES_LAYER_TOP
100
AcDbPolyline
 90
        2
 70
         1
 43
0.45
 10
30.475
 20
3.46
 42
-1.0
 10
30.925
 20
3.46
 42
-1.0
  0
LWPOLYLINE
  5
CE
100
AcDbEntity
  8
PART_HOLES_LAYER_TOP
100
AcDbPolyline
 90
        2
 70
         1
 43
0.45
 10
27.975
 20
6.0
 42
-1.0
 10
28.425
 20
6.0
 42
-1.0
  0
LWPOLYLINE
  5
CF
100
AcDbEntity
  8
PART_HOLES_LAYER_TOP
100
AcDbPolyline
 90
        2
 70
         1
 43
0.45
 10
27.975
 20
3.46
 42
-1.0
 10
28.425
 20
3.46
 42
-1.0
  0
LWPOLYLINE
  5
D0
100
AcDbEntity
  8
PART_HOLES_LAYER_TOP
100
AcDbPolyline
 90
        2
 70
         1
 43
0.45
 10
22.975
 20
6.0
 42
-1.0
 10
23.425
 20
6.0
 42
-1.0
  0
LWPOLYLINE
  5
D1
100
AcDbEntity
  8
PART_HOLES_LAYER_TOP
100
AcDbPolyline
 90
        2
 70
         1
 43
0.45
 10
22.975
 20
3.46
 42
-1.0
 10
23.425
 20
3.46
 42
-1.0
  0
LWPOLYLINE
  5
D2
100
AcDbEntity
  8
PART_HOLES_LAYER_TOP
100
AcDbPolyline
 90
        2
 70
         1
 43
0.45
 10
25.475
 20
6.0
 42
-1.0
 10
25.925
 20
6.0
 42
-1.0
  0
LWPOLYLINE
  5
D3
100
AcDbEntity
  8
PART_HOLES_LAYER_TOP
100
AcDbPolyline
 90
        2
 70
         1
 43
0.45
 10
25.475
 20
3.46
 42
-1.0
 10
25.925
 20
3.46
 42
-1.0
  0
LWPOLYLINE
  5
D4
100
AcDbEntity
  8
PART_HOLES_LAYER_TOP
100
AcDbPolyline
 90
        2
 70
         1
 43
0.45
 10
90.675
 20
59.3
 42
-1.0
 10
91.125
 20
59.3
 42
-1.0
  0
LWPOLYLINE
  5
D5
100
AcDbEntity
  8
PART_HOLES_LAYER_TOP
100
AcDbPolyline
 90
        2
 70
         1
 43
0.45
 10
90.675
 20
56.76
 42
-1.0
 10
91.125
 20
56.76
 42
-1.0
  0
LWPOLYLINE
  5
D6
100
AcDbEntity
  8
PART_HOLES_LAYER_TOP
100
AcDbPolyline
 90
        2
 70
         1
 43
0.45
 10
93.215
 20
59.3
 42
-1.0
 10
93.665
 20
59.3
 42
-1.0
  0
LWPOLYLINE
  5
D7
100
AcDbEntity
  8
PART_HOLES_LAYER_TOP
100
AcDbPolyline
 90
        2
 70
         1
 43
0.45
 10
93.215
 20
56.76
 42
-1.0
 10
93.665
 20
56.76
 42
-1.0
  0
LWPOLYLINE
  5
D8
100
AcDbEntity
  8
PART_HOLES_LAYER_TOP
100
AcDbPolyline
 90
        2
 70
         1
 43
0.45
 10
95.755
 20
59.3
 42
-1.0
 10
96.205
 20
59.3
 42
-1.0
  0
LWPOLYLINE
  5
D9
100
AcDbEntity
  8
PART_HOLES_LAYER_TOP
100
AcDbPolyline
 90
        2
 70
         1
 43
0.45
 10
95.755
 20
56.76
 42
-1.0
 10
96.205
 20
56.76
 42
-1.0
  0
LWPOLYLINE
  5
DA
100
AcDbEntity
  8
PART_HOLES_LAYER_TOP
100
AcDbPolyline
 90
        2
 70
         1
 43
0.45
 10
98.295
 20
56.76
 42
-1.0
 10
98.745
 20
56.76
 42
-1.0
  0
LWPOLYLINE
  5
DB
100
AcDbEntity
  8
PART_HOLES_LAYER_TOP
100
AcDbPolyline
 90
        2
 70
         1
 43
0.45
 10
98.295
 20
59.3
 42
-1.0
 10
98.745
 20
59.3
 42
-1.0
  0
LWPOLYLINE
  5
DC
100
AcDbEntity
  8
PART_HOLES_LAYER_TOP
100
AcDbPolyline
 90
        2
 70
         1
 43
0.45
 10
100.835
 20
59.3
 42
-1.0
 10
101.285
 20
59.3
 42
-1.0
  0
LWPOLYLINE
  5
DD
100
AcDbEntity
  8
PART_HOLES_LAYER_TOP
100
AcDbPolyline
 90
        2
 70
         1
 43
0.45
 10
100.835
 20
56.76
 42
-1.0
 10
101.285
 20
56.76
 42
-1.0
  0
LWPOLYLINE
  5
DE
100
AcDbEntity
  8
PART_HOLES_LAYER_TOP
100
AcDbPolyline
 90
        2
 70
         1
 43
0.45
 10
85.595
 20
56.76
 42
-1.0
 10
86.045
 20
56.76
 42
-1.0
  0
LWPOLYLINE
  5
DF
100
AcDbEntity
  8
PART_HOLES_LAYER_TOP
100
AcDbPolyline
 90
        2
 70
         1
 43
0.45
 10
85.595
 20
59.3
 42
-1.0
 10
86.045
 20
59.3
 42
-1.0
  0
LWPOLYLINE
  5
E0
100
AcDbEntity
  8
PART_HOLES_LAYER_TOP
100
AcDbPolyline
 90
        2
 70
         1
 43
0.45
 10
88.135
 20
56.76
 42
-1.0
 10
88.585
 20
56.76
 42
-1.0
  0
LWPOLYLINE
  5
E1
100
AcDbEntity
  8
PART_HOLES_LAYER_TOP
100
AcDbPolyline
 90
        2
 70
         1
 43
0.45
 10
88.135
 20
59.3
 42
-1.0
 10
88.585
 20
59.3
 42
-1.0
  0
LWPOLYLINE
  5
E2
100
AcDbEntity
  8
PART_HOLES_LAYER_TOP
100
AcDbPolyline
 90
        2
 70
         1
 43
0.45
 10
77.975
 20
59.3
 42
-1.0
 10
78.425
 20
59.3
 42
-1.0
  0
LWPOLYLINE
  5
E3
100
AcDbEntity
  8
PART_HOLES_LAYER_TOP
100
AcDbPolyline
 90
        2
 70
         1
 43
0.45
 10
77.975
 20
56.76
 42
-1.0
 10
78.425
 20
56.76
 42
-1.0
  0
LWPOLYLINE
  5
E4
100
AcDbEntity
  8
PART_HOLES_LAYER_TOP
100
AcDbPolyline
 90
        2
 70
         1
 43
0.45
 10
80.515
 20
59.3
 42
-1.0
 10
80.965
 20
59.3
 42
-1.0
  0
LWPOLYLINE
  5
E5
100
AcDbEntity
  8
PART_HOLES_LAYER_TOP
100
AcDbPolyline
 90
        2
 70
         1
 43
0.45
 10
80.515
 20
56.76
 42
-1.0
 10
80.965
 20
56.76
 42
-1.0
  0
LWPOLYLINE
  5
E6
100
AcDbEntity
  8
PART_HOLES_LAYER_TOP
100
AcDbPolyline
 90
        2
 70
         1
 43
0.45
 10
83.055
 20
59.3
 42
-1.0
 10
83.505
 20
59.3
 42
-1.0
  0
LWPOLYLINE
  5
E7
100
AcDbEntity
  8
PART_HOLES_LAYER_TOP
100
AcDbPolyline
 90
        2
 70
         1
 43
0.45
 10
83.055
 20
56.76
 42
-1.0
 10
83.505
 20
56.76
 42
-1.0
  0
LWPOLYLINE
  5
E8
100
AcDbEntity
  8
PART_HOLES_LAYER_TOP
100
AcDbPolyline
 90
        2
 70
         1
 43
0.45
 10
54.479012
 20
56.598253
 42
-1.0
 10
54.929012
 20
56.598253
 42
-1.0
  0
LWPOLYLINE
  5
E9
100
AcDbEntity
  8
PART_HOLES_LAYER_TOP
100
AcDbPolyline
 90
        2
 70
         1
 43
0.45
 10
11.299012
 20
59.138253
 42
-1.0
 10
11.749012
 20
59.138253
 42
-1.0
  0
LWPOLYLINE
  5
EA
100
AcDbEntity
  8
PART_HOLES_LAYER_TOP
100
AcDbPolyline
 90
        2
 70
         1
 43
0.45
 10
57.019012
 20
56.598253
 42
-1.0
 10
57.469012
 20
56.598253
 42
-1.0
  0
LWPOLYLINE
  5
EB
100
AcDbEntity
  8
PART_HOLES_LAYER_TOP
100
AcDbPolyline
 90
        2
 70
         1
 43
0.45
 10
39.239012
 20
56.598253
 42
-1.0
 10
39.689012
 20
56.598253
 42
-1.0
  0
LWPOLYLINE
  5
EC
100
AcDbEntity
  8
PART_HOLES_LAYER_TOP
100
AcDbPolyline
 90
        2
 70
         1
 43
0.45
 10
39.239012
 20
59.138253
 42
-1.0
 10
39.689012
 20
59.138253
 42
-1.0
  0
LWPOLYLINE
  5
ED
100
AcDbEntity
  8
PART_HOLES_LAYER_TOP
100
AcDbPolyline
 90
        2
 70
         1
 43
0.45
 10
18.919012
 20
56.598253
 42
-1.0
 10
19.369012
 20
56.598253
 42
-1.0
  0
LWPOLYLINE
  5
EE
100
AcDbEntity
  8
PART_HOLES_LAYER_TOP
100
AcDbPolyline
 90
        2
 70
         1
 43
0.45
 10
18.919012
 20
59.138253
 42
-1.0
 10
19.369012
 20
59.138253
 42
-1.0
  0
LWPOLYLINE
  5
EF
100
AcDbEntity
  8
PART_HOLES_LAYER_TOP
100
AcDbPolyline
 90
        2
 70
         1
 43
0.45
 10
23.999012
 20
59.138253
 42
-1.0
 10
24.449012
 20
59.138253
 42
-1.0
  0
LWPOLYLINE
  5
F0
100
AcDbEntity
  8
PART_HOLES_LAYER_TOP
100
AcDbPolyline
 90
        2
 70
         1
 43
0.45
 10
23.999012
 20
56.598253
 42
-1.0
 10
24.449012
 20
56.598253
 42
-1.0
  0
LWPOLYLINE
  5
F1
100
AcDbEntity
  8
PART_HOLES_LAYER_TOP
100
AcDbPolyline
 90
        2
 70
         1
 43
0.45
 10
21.459012
 20
59.138253
 42
-1.0
 10
21.909012
 20
59.138253
 42
-1.0
  0
LWPOLYLINE
  5
F2
100
AcDbEntity
  8
PART_HOLES_LAYER_TOP
100
AcDbPolyline
 90
        2
 70
         1
 43
0.45
 10
21.459012
 20
56.598253
 42
-1.0
 10
21.909012
 20
56.598253
 42
-1.0
  0
LWPOLYLINE
  5
F3
100
AcDbEntity
  8
PART_HOLES_LAYER_TOP
100
AcDbPolyline
 90
        2
 70
         1
 43
0.45
 10
36.699012
 20
56.598253
 42
-1.0
 10
37.149012
 20
56.598253
 42
-1.0
  0
LWPOLYLINE
  5
F4
100
AcDbEntity
  8
PART_HOLES_LAYER_TOP
100
AcDbPolyline
 90
        2
 70
         1
 43
0.45
 10
36.699012
 20
59.138253
 42
-1.0
 10
37.149012
 20
59.138253
 42
-1.0
  0
LWPOLYLINE
  5
F5
100
AcDbEntity
  8
PART_HOLES_LAYER_TOP
100
AcDbPolyline
 90
        2
 70
         1
 43
0.45
 10
31.619012
 20
56.598253
 42
-1.0
 10
32.069012
 20
56.598253
 42
-1.0
  0
LWPOLYLINE
  5
F6
100
AcDbEntity
  8
PART_HOLES_LAYER_TOP
100
AcDbPolyline
 90
        2
 70
         1
 43
0.45
 10
31.619012
 20
59.138253
 42
-1.0
 10
32.069012
 20
59.138253
 42
-1.0
  0
LWPOLYLINE
  5
F7
100
AcDbEntity
  8
PART_HOLES_LAYER_TOP
100
AcDbPolyline
 90
        2
 70
         1
 43
0.45
 10
29.079012
 20
59.138253
 42
-1.0
 10
29.529012
 20
59.138253
 42
-1.0
  0
LWPOLYLINE
  5
F8
100
AcDbEntity
  8
PART_HOLES_LAYER_TOP
100
AcDbPolyline
 90
        2
 70
         1
 43
0.45
 10
29.079012
 20
56.598253
 42
-1.0
 10
29.529012
 20
56.598253
 42
-1.0
  0
LWPOLYLINE
  5
F9
100
AcDbEntity
  8
PART_HOLES_LAYER_TOP
100
AcDbPolyline
 90
        2
 70
         1
 43
0.45
 10
26.539012
 20
59.138253
 42
-1.0
 10
26.989012
 20
59.138253
 42
-1.0
  0
LWPOLYLINE
  5
FA
100
AcDbEntity
  8
PART_HOLES_LAYER_TOP
100
AcDbPolyline
 90
        2
 70
         1
 43
0.45
 10
26.539012
 20
56.598253
 42
-1.0
 10
26.989012
 20
56.598253
 42
-1.0
  0
LWPOLYLINE
  5
FB
100
AcDbEntity
  8
PART_HOLES_LAYER_TOP
100
AcDbPolyline
 90
        2
 70
         1
 43
0.45
 10
34.159012
 20
56.598253
 42
-1.0
 10
34.609012
 20
56.598253
 42
-1.0
  0
LWPOLYLINE
  5
FC
100
AcDbEntity
  8
PART_HOLES_LAYER_TOP
100
AcDbPolyline
 90
        2
 70
         1
 43
0.45
 10
34.159012
 20
59.138253
 42
-1.0
 10
34.609012
 20
59.138253
 42
-1.0
  0
LWPOLYLINE
  5
FD
100
AcDbEntity
  8
PART_HOLES_LAYER_TOP
100
AcDbPolyline
 90
        2
 70
         1
 43
0.45
 10
51.939012
 20
56.598253
 42
-1.0
 10
52.389012
 20
56.598253
 42
-1.0
  0
LWPOLYLINE
  5
FE
100
AcDbEntity
  8
PART_HOLES_LAYER_TOP
100
AcDbPolyline
 90
        2
 70
         1
 43
0.45
 10
51.939012
 20
59.138253
 42
-1.0
 10
52.389012
 20
59.138253
 42
-1.0
  0
LWPOLYLINE
  5
FF
100
AcDbEntity
  8
PART_HOLES_LAYER_TOP
100
AcDbPolyline
 90
        2
 70
         1
 43
0.45
 10
49.399012
 20
56.598253
 42
-1.0
 10
49.849012
 20
56.598253
 42
-1.0
  0
LWPOLYLINE
  5
100
100
AcDbEntity
  8
PART_HOLES_LAYER_TOP
100
AcDbPolyline
 90
        2
 70
         1
 43
0.45
 10
49.399012
 20
59.138253
 42
-1.0
 10
49.849012
 20
59.138253
 42
-1.0
  0
LWPOLYLINE
  5
101
100
AcDbEntity
  8
PART_HOLES_LAYER_TOP
100
AcDbPolyline
 90
        2
 70
         1
 43
0.45
 10
13.839012
 20
59.138253
 42
-1.0
 10
14.289012
 20
59.138253
 42
-1.0
  0
LWPOLYLINE
  5
102
100
AcDbEntity
  8
PART_HOLES_LAYER_TOP
100
AcDbPolyline
 90
        2
 70
         1
 43
0.45
 10
16.379012
 20
56.598253
 42
-1.0
 10
16.829012
 20
56.598253
 42
-1.0
  0
LWPOLYLINE
  5
103
100
AcDbEntity
  8
PART_HOLES_LAYER_TOP
100
AcDbPolyline
 90
        2
 70
         1
 43
0.45
 10
44.319012
 20
56.598253
 42
-1.0
 10
44.769012
 20
56.598253
 42
-1.0
  0
LWPOLYLINE
  5
104
100
AcDbEntity
  8
PART_HOLES_LAYER_TOP
100
AcDbPolyline
 90
        2
 70
         1
 43
0.45
 10
46.859012
 20
56.598253
 42
-1.0
 10
47.309012
 20
56.598253
 42
-1.0
  0
LWPOLYLINE
  5
105
100
AcDbEntity
  8
PART_HOLES_LAYER_TOP
100
AcDbPolyline
 90
        2
 70
         1
 43
0.45
 10
46.859012
 20
59.138253
 42
-1.0
 10
47.309012
 20
59.138253
 42
-1.0
  0
LWPOLYLINE
  5
106
100
AcDbEntity
  8
PART_HOLES_LAYER_TOP
100
AcDbPolyline
 90
        2
 70
         1
 43
0.45
 10
44.319012
 20
59.138253
 42
-1.0
 10
44.769012
 20
59.138253
 42
-1.0
  0
LWPOLYLINE
  5
107
100
AcDbEntity
  8
PART_HOLES_LAYER_TOP
100
AcDbPolyline
 90
        2
 70
         1
 43
0.45
 10
16.379012
 20
59.138253
 42
-1.0
 10
16.829012
 20
59.138253
 42
-1.0
  0
LWPOLYLINE
  5
108
100
AcDbEntity
  8
PART_HOLES_LAYER_TOP
100
AcDbPolyline
 90
        2
 70
         1
 43
0.45
 10
41.779012
 20
56.598253
 42
-1.0
 10
42.229012
 20
56.598253
 42
-1.0
  0
LWPOLYLINE
  5
109
100
AcDbEntity
  8
PART_HOLES_LAYER_TOP
100
AcDbPolyline
 90
        2
 70
         1
 43
0.45
 10
41.779012
 20
59.138253
 42
-1.0
 10
42.229012
 20
59.138253
 42
-1.0
  0
LWPOLYLINE
  5
10A
100
AcDbEntity
  8
PART_HOLES_LAYER_TOP
100
AcDbPolyline
 90
        2
 70
         1
 43
0.45
 10
11.299012
 20
56.598253
 42
-1.0
 10
11.749012
 20
56.598253
 42
-1.0
  0
LWPOLYLINE
  5
10B
100
AcDbEntity
  8
PART_HOLES_LAYER_TOP
100
AcDbPolyline
 90
        2
 70
         1
 43
0.45
 10
59.559012
 20
56.598253
 42
-1.0
 10
60.009012
 20
56.598253
 42
-1.0
  0
LWPOLYLINE
  5
10C
100
AcDbEntity
  8
PART_HOLES_LAYER_TOP
100
AcDbPolyline
 90
        2
 70
         1
 43
0.45
 10
57.019012
 20
59.138253
 42
-1.0
 10
57.469012
 20
59.138253
 42
-1.0
  0
LWPOLYLINE
  5
10D
100
AcDbEntity
  8
PART_HOLES_LAYER_TOP
100
AcDbPolyline
 90
        2
 70
         1
 43
0.45
 10
59.559012
 20
59.138253
 42
-1.0
 10
60.009012
 20
59.138253
 42
-1.0
  0
LWPOLYLINE
  5
10E
100
AcDbEntity
  8
PART_HOLES_LAYER_TOP
100
AcDbPolyline
 90
        2
 70
         1
 43
0.45
 10
54.479012
 20
59.138253
 42
-1.0
 10
54.929012
 20
59.138253
 42
-1.0
  0
LWPOLYLINE
  5
10F
100
AcDbEntity
  8
PART_HOLES_LAYER_TOP
100
AcDbPolyline
 90
        2
 70
         1
 43
0.45
 10
13.839012
 20
56.598253
 42
-1.0
 10
14.289012
 20
56.598253
 42
-1.0
  0
CIRCLE
  5
110
100
AcDbEntity
  8
PART_PADS_LAYER_TOP
100
AcDbCircle
 10
58.4
 20
39.0
 30
0.0
 40
0.7
  0
LWPOLYLINE
  5
111
100
AcDbEntity
  8
PART_PADS_LAYER_TOP
100
AcDbPolyline
 90
        4
 70
         1
 10
57.7
 20
35.76
 10
57.7
 20
37.16
 10
59.1
 20
37.16
 10
59.1
 20
35.76
  0
CIRCLE
  5
112
100
AcDbEntity
  8
PART_PADS_LAYER_TOP
100
AcDbCircle
 10
60.9
 20
39.0
 30
0.0
 40
0.7
  0
LWPOLYLINE
  5
113
100
AcDbEntity
  8
PART_PADS_LAYER_TOP
100
AcDbPolyline
 90
        4
 70
         1
 10
60.2
 20
35.76
 10
60.2
 20
37.16
 10
61.6
 20
37.16
 10
61.6
 20
35.76
  0
CIRCLE
  5
114
100
AcDbEntity
  8
PART_PADS_LAYER_TOP
100
AcDbCircle
 10
63.4
 20
39.0
 30
0.0
 40
0.7
  0
LWPOLYLINE
  5
115
100
AcDbEntity
  8
PART_PADS_LAYER_TOP
100
AcDbPolyline
 90
        4
 70
         1
 10
62.7
 20
35.76
 10
62.7
 20
37.16
 10
64.1
 20
37.16
 10
64.1
 20
35.76
  0
CIRCLE
  5
116
100
AcDbEntity
  8
PART_PADS_LAYER_TOP
100
AcDbCircle
 10
65.9
 20
39.0
 30
0.0
 40
0.7
  0
LWPOLYLINE
  5
117
100
AcDbEntity
  8
PART_PADS_LAYER_TOP
100
AcDbPolyline
 90
        4
 70
         1
 10
65.2
 20
35.76
 10
65.2
 20
37.16
 10
66.6
 20
37.16
 10
66.6
 20
35.76
  0
CIRCLE
  5
118
100
AcDbEntity
  8
PART_PADS_LAYER_TOP
100
AcDbCircle
 10
57.6
 20
25.5
 30
0.0
 40
0.7
  0
LWPOLYLINE
  5
119
100
AcDbEntity
  8
PART_PADS_LAYER_TOP
100
AcDbPolyline
 90
        4
 70
         1
 10
56.9
 20
22.26
 10
56.9
 20
23.66
 10
58.3
 20
23.66
 10
58.3
 20
22.26
  0
CIRCLE
  5
11A
100
AcDbEntity
  8
PART_PADS_LAYER_TOP
100
AcDbCircle
 10
70.78
 20
50.6
 30
0.0
 40
0.7
  0
LWPOLYLINE
  5
11B
100
AcDbEntity
  8
PART_PADS_LAYER_TOP
100
AcDbPolyline
 90
        4
 70
         1
 10
65.0
 20
49.9
 10
65.0
 20
51.3
 10
66.4
 20
51.3
 10
66.4
 20
49.9
  0
CIRCLE
  5
11C
100
AcDbEntity
  8
PART_PADS_LAYER_TOP
100
AcDbCircle
 10
68.24
 20
50.6
 30
0.0
 40
0.7
  0
CIRCLE
  5
11D
100
AcDbEntity
  8
PART_PADS_LAYER_TOP
100
AcDbCircle
 10
70.78
 20
53.3
 30
0.0
 40
0.7
  0
LWPOLYLINE
  5
11E
100
AcDbEntity
  8
PART_PADS_LAYER_TOP
100
AcDbPolyline
 90
        4
 70
         1
 10
65.0
 20
52.6
 10
65.0
 20
54.0
 10
66.4
 20
54.0
 10
66.4
 20
52.6
  0
CIRCLE
  5
11F
100
AcDbEntity
  8
PART_PADS_LAYER_TOP
100
AcDbCircle
 10
68.24
 20
53.3
 30
0.0
 40
0.7
  0
CIRCLE
  5
120
100
AcDbEntity
  8
PART_PADS_LAYER_TOP
100
AcDbCircle
 10
70.78
 20
56.0
 30
0.0
 40
0.7
  0
LWPOLYLINE
  5
121
100
AcDbEntity
  8
PART_PADS_LAYER_TOP
100
AcDbPolyline
 90
        4
 70
         1
 10
65.0
 20
55.3
 10
65.0
 20
56.7
 10
66.4
 20
56.7
 10
66.4
 20
55.3
  0
CIRCLE
  5
122
100
AcDbEntity
  8
PART_PADS_LAYER_TOP
100
AcDbCircle
 10
68.24
 20
56.0
 30
0.0
 40
0.7
  0
CIRCLE
  5
123
100
AcDbEntity
  8
PART_PADS_LAYER_TOP
100
AcDbCircle
 10
70.78
 20
58.7
 30
0.0
 40
0.7
  0
LWPOLYLINE
  5
124
100
AcDbEntity
  8
PART_PADS_LAYER_TOP
100
AcDbPolyline
 90
        4
 70
         1
 10
65.0
 20
58.0
 10
65.0
 20
59.4
 10
66.4
 20
59.4
 10
66.4
 20
58.0
  0
CIRCLE
  5
125
100
AcDbEntity
  8
PART_PADS_LAYER_TOP
100
AcDbCircle
 10
68.24
 20
58.7
 30
0.0
 40
0.7
  0
CIRCLE
  5
126
100
AcDbEntity
  8
PART_PADS_LAYER_TOP
100
AcDbCircle
 10
104.4
 20
4.7
 30
0.0
 40
0.75
  0
CIRCLE
  5
127
100
AcDbEntity
  8
PART_PADS_LAYER_TOP
100
AcDbCircle
 10
101.399998
 20
4.7
 30
0.0
 40
0.75
  0
LWPOLYLINE
  5
128
100
AcDbEntity
  8
PART_PADS_LAYER_TOP
100
AcDbPolyline
 90
        4
 70
         1
 10
30.0
 20
5.3
 10
30.0
 20
6.7
 10
31.4
 20
6.7
 10
31.4
 20
5.3
  0
CIRCLE
  5
129
100
AcDbEntity
  8
PART_PADS_LAYER_TOP
100
AcDbCircle
 10
30.7
 20
3.46
 30
0.0
 40
0.7
  0
LWPOLYLINE
  5
12A
100
AcDbEntity
  8
PART_PADS_LAYER_TOP
100
AcDbPolyline
 90
        4
 70
         1
 10
27.5
 20
5.3
 10
27.5
 20
6.7
 10
28.9
 20
6.7
 10
28.9
 20
5.3
  0
CIRCLE
  5
12B
100
AcDbEntity
  8
PART_PADS_LAYER_TOP
100
AcDbCircle
 10
28.2
 20
3.46
 30
0.0
 40
0.7
  0
LWPOLYLINE
  5
12C
100
AcDbEntity
  8
PART_PADS_LAYER_TOP
100
AcDbPolyline
 90
        4
 70
         1
 10
22.5
 20
5.3
 10
22.5
 20
6.7
 10
23.9
 20
6.7
 10
23.9
 20
5.3
  0
CIRCLE
  5
12D
100
AcDbEntity
  8
PART_PADS_LAYER_TOP
100
AcDbCircle
 10
23.2
 20
3.46
 30
0.0
 40
0.7
  0
LWPOLYLINE
  5
12E
100
AcDbEntity
  8
PART_PADS_LAYER_TOP
100
AcDbPolyline
 90
        4
 70
         1
 10
25.0
 20
5.3
 10
25.0
 20
6.7
 10
26.4
 20
6.7
 10
26.4
 20
5.3
  0
CIRCLE
  5
12F
100
AcDbEntity
  8
PART_PADS_LAYER_TOP
100
AcDbCircle
 10
25.7
 20
3.46
 30
0.0
 40
0.7
  0
CIRCLE
  5
130
100
AcDbEntity
  8
PART_PADS_LAYER_TOP
100
AcDbCircle
 10
90.9
 20
59.3
 30
0.0
 40
0.75
  0
CIRCLE
  5
131
100
AcDbEntity
  8
PART_PADS_LAYER_TOP
100
AcDbCircle
 10
90.9
 20
56.76
 30
0.0
 40
0.75
  0
CIRCLE
  5
132
100
AcDbEntity
  8
PART_PADS_LAYER_TOP
100
AcDbCircle
 10
93.44
 20
59.3
 30
0.0
 40
0.75
  0
CIRCLE
  5
133
100
AcDbEntity
  8
PART_PADS_LAYER_TOP
100
AcDbCircle
 10
93.44
 20
56.76
 30
0.0
 40
0.75
  0
CIRCLE
  5
134
100
AcDbEntity
  8
PART_PADS_LAYER_TOP
100
AcDbCircle
 10
95.98
 20
59.3
 30
0.0
 40
0.75
  0
CIRCLE
  5
135
100
AcDbEntity
  8
PART_PADS_LAYER_TOP
100
AcDbCircle
 10
95.98
 20
56.76
 30
0.0
 40
0.75
  0
CIRCLE
  5
136
100
AcDbEntity
  8
PART_PADS_LAYER_TOP
100
AcDbCircle
 10
98.52
 20
56.76
 30
0.0
 40
0.75
  0
CIRCLE
  5
137
100
AcDbEntity
  8
PART_PADS_LAYER_TOP
100
AcDbCircle
 10
98.52
 20
59.3
 30
0.0
 40
0.75
  0
CIRCLE
  5
138
100
AcDbEntity
  8
PART_PADS_LAYER_TOP
100
AcDbCircle
 10
101.06
 20
59.3
 30
0.0
 40
0.75
  0
CIRCLE
  5
139
100
AcDbEntity
  8
PART_PADS_LAYER_TOP
100
AcDbCircle
 10
101.06
 20
56.76
 30
0.0
 40
0.75
  0
CIRCLE
  5
13A
100
AcDbEntity
  8
PART_PADS_LAYER_TOP
100
AcDbCircle
 10
85.82
 20
56.76
 30
0.0
 40
0.75
  0
CIRCLE
  5
13B
100
AcDbEntity
  8
PART_PADS_LAYER_TOP
100
AcDbCircle
 10
85.82
 20
59.3
 30
0.0
 40
0.75
  0
CIRCLE
  5
13C
100
AcDbEntity
  8
PART_PADS_LAYER_TOP
100
AcDbCircle
 10
88.36
 20
56.76
 30
0.0
 40
0.75
  0
CIRCLE
  5
13D
100
AcDbEntity
  8
PART_PADS_LAYER_TOP
100
AcDbCircle
 10
88.36
 20
59.3
 30
0.0
 40
0.75
  0
LWPOLYLINE
  5
13E
100
AcDbEntity
  8
PART_PADS_LAYER_TOP
100
AcDbPolyline
 90
        4
 70
         1
 10
77.45
 20
58.55
 10
77.45
 20
60.05
 10
78.95
 20
60.05
 10
78.95
 20
58.55
  0
CIRCLE
  5
13F
100
AcDbEntity
  8
PART_PADS_LAYER_TOP
100
AcDbCircle
 10
78.2
 20
56.76
 30
0.0
 40
0.75
  0
CIRCLE
  5
140
100
AcDbEntity
  8
PART_PADS_LAYER_TOP
100
AcDbCircle
 10
80.74
 20
59.3
 30
0.0
 40
0.75
  0
CIRCLE
  5
141
100
AcDbEntity
  8
PART_PADS_LAYER_TOP
100
AcDbCircle
 10
80.74
 20
56.76
 30
0.0
 40
0.75
  0
CIRCLE
  5
142
100
AcDbEntity
  8
PART_PADS_LAYER_TOP
100
AcDbCircle
 10
83.28
 20
59.3
 30
0.0
 40
0.75
  0
CIRCLE
  5
143
100
AcDbEntity
  8
PART_PADS_LAYER_TOP
100
AcDbCircle
 10
83.28
 20
56.76
 30
0.0
 40
0.75
  0
CIRCLE
  5
144
100
AcDbEntity
  8
PART_PADS_LAYER_TOP
100
AcDbCircle
 10
54.704012
 20
56.598253
 30
0.0
 40
0.75
  0
LWPOLYLINE
  5
145
100
AcDbEntity
  8
PART_PADS_LAYER_TOP
100
AcDbPolyline
 90
        4
 70
         1
 10
10.774012
 20
58.388253
 10
10.774012
 20
59.888253
 10
12.274012
 20
59.888253
 10
12.274012
 20
58.388253
  0
CIRCLE
  5
146
100
AcDbEntity
  8
PART_PADS_LAYER_TOP
100
AcDbCircle
 10
57.244012
 20
56.598253
 30
0.0
 40
0.75
  0
CIRCLE
  5
147
100
AcDbEntity
  8
PART_PADS_LAYER_TOP
100
AcDbCircle
 10
39.464012
 20
56.598253
 30
0.0
 40
0.75
  0
CIRCLE
  5
148
100
AcDbEntity
  8
PART_PADS_LAYER_TOP
100
AcDbCircle
 10
39.464012
 20
59.138253
 30
0.0
 40
0.75
  0
CIRCLE
  5
149
100
AcDbEntity
  8
PART_PADS_LAYER_TOP
100
AcDbCircle
 10
19.144012
 20
56.598253
 30
0.0
 40
0.75
  0
CIRCLE
  5
14A
100
AcDbEntity
  8
PART_PADS_LAYER_TOP
100
AcDbCircle
 10
19.144012
 20
59.138253
 30
0.0
 40
0.75
  0
CIRCLE
  5
14B
100
AcDbEntity
  8
PART_PADS_LAYER_TOP
100
AcDbCircle
 10
24.224012
 20
59.138253
 30
0.0
 40
0.75
  0
CIRCLE
  5
14C
100
AcDbEntity
  8
PART_PADS_LAYER_TOP
100
AcDbCircle
 10
24.224012
 20
56.598253
 30
0.0
 40
0.75
  0
CIRCLE
  5
14D
100
AcDbEntity
  8
PART_PADS_LAYER_TOP
100
AcDbCircle
 10
21.684012
 20
59.138253
 30
0.0
 40
0.75
  0
CIRCLE
  5
14E
100
AcDbEntity
  8
PART_PADS_LAYER_TOP
100
AcDbCircle
 10
21.684012
 20
56.598253
 30
0.0
 40
0.75
  0
CIRCLE
  5
14F
100
AcDbEntity
  8
PART_PADS_LAYER_TOP
100
AcDbCircle
 10
36.924012
 20
56.598253
 30
0.0
 40
0.75
  0
CIRCLE
  5
150
100
AcDbEntity
  8
PART_PADS_LAYER_TOP
100
AcDbCircle
 10
36.924012
 20
59.138253
 30
0.0
 40
0.75
  0
CIRCLE
  5
151
100
AcDbEntity
  8
PART_PADS_LAYER_TOP
100
AcDbCircle
 10
31.844012
 20
56.598253
 30
0.0
 40
0.75
  0
CIRCLE
  5
152
100
AcDbEntity
  8
PART_PADS_LAYER_TOP
100
AcDbCircle
 10
31.844012
 20
59.138253
 30
0.0
 40
0.75
  0
CIRCLE
  5
153
100
AcDbEntity
  8
PART_PADS_LAYER_TOP
100
AcDbCircle
 10
29.304012
 20
59.138253
 30
0.0
 40
0.75
  0
CIRCLE
  5
154
100
AcDbEntity
  8
PART_PADS_LAYER_TOP
100
AcDbCircle
 10
29.304012
 20
56.598253
 30
0.0
 40
0.75
  0
CIRCLE
  5
155
100
AcDbEntity
  8
PART_PADS_LAYER_TOP
100
AcDbCircle
 10
26.764012
 20
59.138253
 30
0.0
 40
0.75
  0
CIRCLE
  5
156
100
AcDbEntity
  8
PART_PADS_LAYER_TOP
100
AcDbCircle
 10
26.764012
 20
56.598253
 30
0.0
 40
0.75
  0
CIRCLE
  5
157
100
AcDbEntity
  8
PART_PADS_LAYER_TOP
100
AcDbCircle
 10
34.384012
 20
56.598253
 30
0.0
 40
0.75
  0
CIRCLE
  5
158
100
AcDbEntity
  8
PART_PADS_LAYER_TOP
100
AcDbCircle
 10
34.384012
 20
59.138253
 30
0.0
 40
0.75
  0
CIRCLE
  5
159
100
AcDbEntity
  8
PART_PADS_LAYER_TOP
100
AcDbCircle
 10
52.164012
 20
56.598253
 30
0.0
 40
0.75
  0
CIRCLE
  5
15A
100
AcDbEntity
  8
PART_PADS_LAYER_TOP
100
AcDbCircle
 10
52.164012
 20
59.138253
 30
0.0
 40
0.75
  0
CIRCLE
  5
15B
100
AcDbEntity
  8
PART_PADS_LAYER_TOP
100
AcDbCircle
 10
49.624012
 20
56.598253
 30
0.0
 40
0.75
  0
CIRCLE
  5
15C
100
AcDbEntity
  8
PART_PADS_LAYER_TOP
100
AcDbCircle
 10
49.624012
 20
59.138253
 30
0.0
 40
0.75
  0
CIRCLE
  5
15D
100
AcDbEntity
  8
PART_PADS_LAYER_TOP
100
AcDbCircle
 10
14.064012
 20
59.138253
 30
0.0
 40
0.75
  0
CIRCLE
  5
15E
100
AcDbEntity
  8
PART_PADS_LAYER_TOP
100
AcDbCircle
 10
16.604012
 20
56.598253
 30
0.0
 40
0.75
  0
CIRCLE
  5
15F
100
AcDbEntity
  8
PART_PADS_LAYER_TOP
100
AcDbCircle
 10
44.544012
 20
56.598253
 30
0.0
 40
0.75
  0
CIRCLE
  5
160
100
AcDbEntity
  8
PART_PADS_LAYER_TOP
100
AcDbCircle
 10
47.084012
 20
56.598253
 30
0.0
 40
0.75
  0
CIRCLE
  5
161
100
AcDbEntity
  8
PART_PADS_LAYER_TOP
100
AcDbCircle
 10
47.084012
 20
59.138253
 30
0.0
 40
0.75
  0
CIRCLE
  5
162
100
AcDbEntity
  8
PART_PADS_LAYER_TOP
100
AcDbCircle
 10
44.544012
 20
59.138253
 30
0.0
 40
0.75
  0
CIRCLE
  5
163
100
AcDbEntity
  8
PART_PADS_LAYER_TOP
100
AcDbCircle
 10
16.604012
 20
59.138253
 30
0.0
 40
0.75
  0
CIRCLE
  5
164
100
AcDbEntity
  8
PART_PADS_LAYER_TOP
100
AcDbCircle
 10
42.004012
 20
56.598253
 30
0.0
 40
0.75
  0
CIRCLE
  5
165
100
AcDbEntity
  8
PART_PADS_LAYER_TOP
100
AcDbCircle
 10
42.004012
 20
59.138253
 30
0.0
 40
0.75
  0
CIRCLE
  5
166
100
AcDbEntity
  8
PART_PADS_LAYER_TOP
100
AcDbCircle
 10
11.524012
 20
56.598253
 30
0.0
 40
0.75
  0
CIRCLE
  5
167
100
AcDbEntity
  8
PART_PADS_LAYER_TOP
100
AcDbCircle
 10
59.784012
 20
56.598253
 30
0.0
 40
0.75
  0
CIRCLE
  5
168
100
AcDbEntity
  8
PART_PADS_LAYER_TOP
100
AcDbCircle
 10
57.244012
 20
59.138253
 30
0.0
 40
0.75
  0
CIRCLE
  5
169
100
AcDbEntity
  8
PART_PADS_LAYER_TOP
100
AcDbCircle
 10
59.784012
 20
59.138253
 30
0.0
 40
0.75
  0
CIRCLE
  5
16A
100
AcDbEntity
  8
PART_PADS_LAYER_TOP
100
AcDbCircle
 10
54.704012
 20
59.138253
 30
0.0
 40
0.75
  0
CIRCLE
  5
16B
100
AcDbEntity
  8
PART_PADS_LAYER_TOP
100
AcDbCircle
 10
14.064012
 20
56.598253
 30
0.0
 40
0.75
  0
CIRCLE
  5
16C
100
AcDbEntity
  8
SOLDERMASK_PADS_TOP
100
AcDbCircle
 10
58.4
 20
39.0
 30
0.0
 40
0.7
  0
LWPOLYLINE
  5
16D
100
AcDbEntity
  8
SOLDERMASK_PADS_TOP
100
AcDbPolyline
 90
        4
 70
         1
 10
57.7
 20
35.76
 10
57.7
 20
37.16
 10
59.1
 20
37.16
 10
59.1
 20
35.76
  0
CIRCLE
  5
16E
100
AcDbEntity
  8
SOLDERMASK_PADS_TOP
100
AcDbCircle
 10
60.9
 20
39.0
 30
0.0
 40
0.7
  0
LWPOLYLINE
  5
16F
100
AcDbEntity
  8
SOLDERMASK_PADS_TOP
100
AcDbPolyline
 90
        4
 70
         1
 10
60.2
 20
35.76
 10
60.2
 20
37.16
 10
61.6
 20
37.16
 10
61.6
 20
35.76
  0
CIRCLE
  5
170
100
AcDbEntity
  8
SOLDERMASK_PADS_TOP
100
AcDbCircle
 10
63.4
 20
39.0
 30
0.0
 40
0.7
  0
LWPOLYLINE
  5
171
100
AcDbEntity
  8
SOLDERMASK_PADS_TOP
100
AcDbPolyline
 90
        4
 70
         1
 10
62.7
 20
35.76
 10
62.7
 20
37.16
 10
64.1
 20
37.16
 10
64.1
 20
35.76
  0
CIRCLE
  5
172
100
AcDbEntity
  8
SOLDERMASK_PADS_TOP
100
AcDbCircle
 10
65.9
 20
39.0
 30
0.0
 40
0.7
  0
LWPOLYLINE
  5
173
100
AcDbEntity
  8
SOLDERMASK_PADS_TOP
100
AcDbPolyline
 90
        4
 70
         1
 10
65.2
 20
35.76
 10
65.2
 20
37.16
 10
66.6
 20
37.16
 10
66.6
 20
35.76
  0
CIRCLE
  5
174
100
AcDbEntity
  8
SOLDERMASK_PADS_TOP
100
AcDbCircle
 10
57.6
 20
25.5
 30
0.0
 40
0.7
  0
LWPOLYLINE
  5
175
100
AcDbEntity
  8
SOLDERMASK_PADS_TOP
100
AcDbPolyline
 90
        4
 70
         1
 10
56.9
 20
22.26
 10
56.9
 20
23.66
 10
58.3
 20
23.66
 10
58.3
 20
22.26
  0
LWPOLYLINE
  5
176
100
AcDbEntity
  8
SOLDERMASK_PADS_TOP
100
AcDbPolyline
 90
        4
 70
         1
 10
-0.95
 20
51.0
 42
-1.0
 10
0.05
 20
51.0
 10
0.05
 20
49.0
 42
-1.0
 10
-0.95
 20
49.0
  0
LWPOLYLINE
  5
177
100
AcDbEntity
  8
SOLDERMASK_PADS_TOP
100
AcDbPolyline
 90
        4
 70
         1
 10
-0.95
 20
43.6
 42
-1.0
 10
0.05
 20
43.6
 10
0.05
 20
41.6
 42
-1.0
 10
-0.95
 20
41.6
  0
LWPOLYLINE
  5
178
100
AcDbEntity
  8
SOLDERMASK_PADS_TOP
100
AcDbPolyline
 90
        4
 70
         1
 10
3.55
 20
51.0
 42
-1.0
 10
4.55
 20
51.0
 10
4.55
 20
49.0
 42
-1.0
 10
3.55
 20
49.0
  0
LWPOLYLINE
  5
179
100
AcDbEntity
  8
SOLDERMASK_PADS_TOP
100
AcDbPolyline
 90
        4
 70
         1
 10
3.55
 20
43.6
 42
-1.0
 10
4.55
 20
43.6
 10
4.55
 20
41.6
 42
-1.0
 10
3.55
 20
41.6
  0
LWPOLYLINE
  5
17A
100
AcDbEntity
  8
SOLDERMASK_PADS_TOP
100
AcDbPolyline
 90
        4
 70
         1
 10
-0.95
 20
34.75
 42
-1.0
 10
0.05
 20
34.75
 10
0.05
 20
32.75
 42
-1.0
 10
-0.95
 20
32.75
  0
LWPOLYLINE
  5
17B
100
AcDbEntity
  8
SOLDERMASK_PADS_TOP
100
AcDbPolyline
 90
        4
 70
         1
 10
-0.95
 20
27.35
 42
-1.0
 10
0.05
 20
27.35
 10
0.05
 20
25.35
 42
-1.0
 10
-0.95
 20
25.35
  0
LWPOLYLINE
  5
17C
100
AcDbEntity
  8
SOLDERMASK_PADS_TOP
100
AcDbPolyline
 90
        4
 70
         1
 10
3.55
 20
34.75
 42
-1.0
 10
4.55
 20
34.75
 10
4.55
 20
32.75
 42
-1.0
 10
3.55
 20
32.75
  0
LWPOLYLINE
  5
17D
100
AcDbEntity
  8
SOLDERMASK_PADS_TOP
100
AcDbPolyline
 90
        4
 70
         1
 10
3.55
 20
27.35
 42
-1.0
 10
4.55
 20
27.35
 10
4.55
 20
25.35
 42
-1.0
 10
3.55
 20
25.35
  0
LWPOLYLINE
  5
17E
100
AcDbEntity
  8
SOLDERMASK_PADS_TOP
100
AcDbPolyline
 90
        4
 70
         1
 10
-0.95
 20
18.25
 42
-1.0
 10
0.05
 20
18.25
 10
0.05
 20
16.25
 42
-1.0
 10
-0.95
 20
16.25
  0
LWPOLYLINE
  5
17F
100
AcDbEntity
  8
SOLDERMASK_PADS_TOP
100
AcDbPolyline
 90
        4
 70
         1
 10
-0.95
 20
10.85
 42
-1.0
 10
0.05
 20
10.85
 10
0.05
 20
8.85
 42
-1.0
 10
-0.95
 20
8.85
  0
LWPOLYLINE
  5
180
100
AcDbEntity
  8
SOLDERMASK_PADS_TOP
100
AcDbPolyline
 90
        4
 70
         1
 10
3.55
 20
18.25
 42
-1.0
 10
4.55
 20
18.25
 10
4.55
 20
16.25
 42
-1.0
 10
3.55
 20
16.25
  0
LWPOLYLINE
  5
181
100
AcDbEntity
  8
SOLDERMASK_PADS_TOP
100
AcDbPolyline
 90
        4
 70
         1
 10
3.55
 20
10.85
 42
-1.0
 10
4.55
 20
10.85
 10
4.55
 20
8.85
 42
-1.0
 10
3.55
 20
8.85
  0
LWPOLYLINE
  5
182
100
AcDbEntity
  8
SOLDERMASK_PADS_TOP
100
AcDbPolyline
 90
        4
 70
         1
 10
116.45
 20
51.0
 42
-1.0
 10
117.45
 20
51.0
 10
117.45
 20
49.0
 42
-1.0
 10
116.45
 20
49.0
  0
LWPOLYLINE
  5
183
100
AcDbEntity
  8
SOLDERMASK_PADS_TOP
100
AcDbPolyline
 90
        4
 70
         1
 10
116.45
 20
43.6
 42
-1.0
 10
117.45
 20
43.6
 10
117.45
 20
41.6
 42
-1.0
 10
116.45
 20
41.6
  0
LWPOLYLINE
  5
184
100
AcDbEntity
  8
SOLDERMASK_PADS_TOP
100
AcDbPolyline
 90
        4
 70
         1
 10
120.95
 20
51.0
 42
-1.0
 10
121.95
 20
51.0
 10
121.95
 20
49.0
 42
-1.0
 10
120.95
 20
49.0
  0
LWPOLYLINE
  5
185
100
AcDbEntity
  8
SOLDERMASK_PADS_TOP
100
AcDbPolyline
 90
        4
 70
         1
 10
120.95
 20
43.6
 42
-1.0
 10
121.95
 20
43.6
 10
121.95
 20
41.6
 42
-1.0
 10
120.95
 20
41.6
  0
LWPOLYLINE
  5
186
100
AcDbEntity
  8
SOLDERMASK_PADS_TOP
100
AcDbPolyline
 90
        4
 70
         1
 10
116.45
 20
34.75
 42
-1.0
 10
117.45
 20
34.75
 10
117.45
 20
32.75
 42
-1.0
 10
116.45
 20
32.75
  0
LWPOLYLINE
  5
187
100
AcDbEntity
  8
SOLDERMASK_PADS_TOP
100
AcDbPolyline
 90
        4
 70
         1
 10
116.45
 20
27.35
 42
-1.0
 10
117.45
 20
27.35
 10
117.45
 20
25.35
 42
-1.0
 10
116.45
 20
25.35
  0
LWPOLYLINE
  5
188
100
AcDbEntity
  8
SOLDERMASK_PADS_TOP
100
AcDbPolyline
 90
        4
 70
         1
 10
120.95
 20
34.75
 42
-1.0
 10
121.95
 20
34.75
 10
121.95
 20
32.75
 42
-1.0
 10
120.95
 20
32.75
  0
LWPOLYLINE
  5
189
100
AcDbEntity
  8
SOLDERMASK_PADS_TOP
100
AcDbPolyline
 90
        4
 70
         1
 10
120.95
 20
27.35
 42
-1.0
 10
121.95
 20
27.35
 10
121.95
 20
25.35
 42
-1.0
 10
120.95
 20
25.35
  0
LWPOLYLINE
  5
18A
100
AcDbEntity
  8
SOLDERMASK_PADS_TOP
100
AcDbPolyline
 90
        4
 70
         1
 10
116.45
 20
18.25
 42
-1.0
 10
117.45
 20
18.25
 10
117.45
 20
16.25
 42
-1.0
 10
116.45
 20
16.25
  0
LWPOLYLINE
  5
18B
100
AcDbEntity
  8
SOLDERMASK_PADS_TOP
100
AcDbPolyline
 90
        4
 70
         1
 10
116.45
 20
10.85
 42
-1.0
 10
117.45
 20
10.85
 10
117.45
 20
8.85
 42
-1.0
 10
116.45
 20
8.85
  0
LWPOLYLINE
  5
18C
100
AcDbEntity
  8
SOLDERMASK_PADS_TOP
100
AcDbPolyline
 90
        4
 70
         1
 10
120.95
 20
18.25
 42
-1.0
 10
121.95
 20
18.25
 10
121.95
 20
16.25
 42
-1.0
 10
120.95
 20
16.25
  0
LWPOLYLINE
  5
18D
100
AcDbEntity
  8
SOLDERMASK_PADS_TOP
100
AcDbPolyline
 90
        4
 70
         1
 10
120.95
 20
10.85
 42
-1.0
 10
121.95
 20
10.85
 10
121.95
 20
8.85
 42
-1.0
 10
120.95
 20
8.85
  0
CIRCLE
  5
18E
100
AcDbEntity
  8
SOLDERMASK_PADS_TOP
100
AcDbCircle
 10
70.78
 20
50.6
 30
0.0
 40
0.7
  0
LWPOLYLINE
  5
18F
100
AcDbEntity
  8
SOLDERMASK_PADS_TOP
100
AcDbPolyline
 90
        4
 70
         1
 10
65.0
 20
49.9
 10
65.0
 20
51.3
 10
66.4
 20
51.3
 10
66.4
 20
49.9
  0
CIRCLE
  5
190
100
AcDbEntity
  8
SOLDERMASK_PADS_TOP
100
AcDbCircle
 10
68.24
 20
50.6
 30
0.0
 40
0.7
  0
CIRCLE
  5
191
100
AcDbEntity
  8
SOLDERMASK_PADS_TOP
100
AcDbCircle
 10
70.78
 20
53.3
 30
0.0
 40
0.7
  0
LWPOLYLINE
  5
192
100
AcDbEntity
  8
SOLDERMASK_PADS_TOP
100
AcDbPolyline
 90
        4
 70
         1
 10
65.0
 20
52.6
 10
65.0
 20
54.0
 10
66.4
 20
54.0
 10
66.4
 20
52.6
  0
CIRCLE
  5
193
100
AcDbEntity
  8
SOLDERMASK_PADS_TOP
100
AcDbCircle
 10
68.24
 20
53.3
 30
0.0
 40
0.7
  0
CIRCLE
  5
194
100
AcDbEntity
  8
SOLDERMASK_PADS_TOP
100
AcDbCircle
 10
70.78
 20
56.0
 30
0.0
 40
0.7
  0
LWPOLYLINE
  5
195
100
AcDbEntity
  8
SOLDERMASK_PADS_TOP
100
AcDbPolyline
 90
        4
 70
         1
 10
65.0
 20
55.3
 10
65.0
 20
56.7
 10
66.4
 20
56.7
 10
66.4
 20
55.3
  0
CIRCLE
  5
196
100
AcDbEntity
  8
SOLDERMASK_PADS_TOP
100
AcDbCircle
 10
68.24
 20
56.0
 30
0.0
 40
0.7
  0
CIRCLE
  5
197
100
AcDbEntity
  8
SOLDERMASK_PADS_TOP
100
AcDbCircle
 10
70.78
 20
58.7
 30
0.0
 40
0.7
  0
LWPOLYLINE
  5
198
100
AcDbEntity
  8
SOLDERMASK_PADS_TOP
100
AcDbPolyline
 90
        4
 70
         1
 10
65.0
 20
58.0
 10
65.0
 20
59.4
 10
66.4
 20
59.4
 10
66.4
 20
58.0
  0
CIRCLE
  5
199
100
AcDbEntity
  8
SOLDERMASK_PADS_TOP
100
AcDbCircle
 10
68.24
 20
58.7
 30
0.0
 40
0.7
  0
CIRCLE
  5
19A
100
AcDbEntity
  8
SOLDERMASK_PADS_TOP
100
AcDbCircle
 10
104.4
 20
4.7
 30
0.0
 40
0.75
  0
CIRCLE
  5
19B
100
AcDbEntity
  8
SOLDERMASK_PADS_TOP
100
AcDbCircle
 10
101.399998
 20
4.7
 30
0.0
 40
0.75
  0
LWPOLYLINE
  5
19C
100
AcDbEntity
  8
SOLDERMASK_PADS_TOP
100
AcDbPolyline
 90
        4
 70
         1
 10
30.0
 20
5.3
 10
30.0
 20
6.7
 10
31.4
 20
6.7
 10
31.4
 20
5.3
  0
CIRCLE
  5
19D
100
AcDbEntity
  8
SOLDERMASK_PADS_TOP
100
AcDbCircle
 10
30.7
 20
3.46
 30
0.0
 40
0.7
  0
LWPOLYLINE
  5
19E
100
AcDbEntity
  8
SOLDERMASK_PADS_TOP
100
AcDbPolyline
 90
        4
 70
         1
 10
27.5
 20
5.3
 10
27.5
 20
6.7
 10
28.9
 20
6.7
 10
28.9
 20
5.3
  0
CIRCLE
  5
19F
100
AcDbEntity
  8
SOLDERMASK_PADS_TOP
100
AcDbCircle
 10
28.2
 20
3.46
 30
0.0
 40
0.7
  0
LWPOLYLINE
  5
1A0
100
AcDbEntity
  8
SOLDERMASK_PADS_TOP
100
AcDbPolyline
 90
        4
 70
         1
 10
22.5
 20
5.3
 10
22.5
 20
6.7
 10
23.9
 20
6.7
 10
23.9
 20
5.3
  0
CIRCLE
  5
1A1
100
AcDbEntity
  8
SOLDERMASK_PADS_TOP
100
AcDbCircle
 10
23.2
 20
3.46
 30
0.0
 40
0.7
  0
LWPOLYLINE
  5
1A2
100
AcDbEntity
  8
SOLDERMASK_PADS_TOP
100
AcDbPolyline
 90
        4
 70
         1
 10
25.0
 20
5.3
 10
25.0
 20
6.7
 10
26.4
 20
6.7
 10
26.4
 20
5.3
  0
CIRCLE
  5
1A3
100
AcDbEntity
  8
SOLDERMASK_PADS_TOP
100
AcDbCircle
 10
25.7
 20
3.46
 30
0.0
 40
0.7
  0
CIRCLE
  5
1A4
100
AcDbEntity
  8
SOLDERMASK_PADS_TOP
100
AcDbCircle
 10
90.9
 20
59.3
 30
0.0
 40
0.75
  0
CIRCLE
  5
1A5
100
AcDbEntity
  8
SOLDERMASK_PADS_TOP
100
AcDbCircle
 10
90.9
 20
56.76
 30
0.0
 40
0.75
  0
CIRCLE
  5
1A6
100
AcDbEntity
  8
SOLDERMASK_PADS_TOP
100
AcDbCircle
 10
93.44
 20
59.3
 30
0.0
 40
0.75
  0
CIRCLE
  5
1A7
100
AcDbEntity
  8
SOLDERMASK_PADS_TOP
100
AcDbCircle
 10
93.44
 20
56.76
 30
0.0
 40
0.75
  0
CIRCLE
  5
1A8
100
AcDbEntity
  8
SOLDERMASK_PADS_TOP
100
AcDbCircle
 10
95.98
 20
59.3
 30
0.0
 40
0.75
  0
CIRCLE
  5
1A9
100
AcDbEntity
  8
SOLDERMASK_PADS_TOP
100
AcDbCircle
 10
95.98
 20
56.76
 30
0.0
 40
0.75
  0
CIRCLE
  5
1AA
100
AcDbEntity
  8
SOLDERMASK_PADS_TOP
100
AcDbCircle
 10
98.52
 20
56.76
 30
0.0
 40
0.75
  0
CIRCLE
  5
1AB
100
AcDbEntity
  8
SOLDERMASK_PADS_TOP
100
AcDbCircle
 10
98.52
 20
59.3
 30
0.0
 40
0.75
  0
CIRCLE
  5
1AC
100
AcDbEntity
  8
SOLDERMASK_PADS_TOP
100
AcDbCircle
 10
101.06
 20
59.3
 30
0.0
 40
0.75
  0
CIRCLE
  5
1AD
100
AcDbEntity
  8
SOLDERMASK_PADS_TOP
100
AcDbCircle
 10
101.06
 20
56.76
 30
0.0
 40
0.75
  0
CIRCLE
  5
1AE
100
AcDbEntity
  8
SOLDERMASK_PADS_TOP
100
AcDbCircle
 10
85.82
 20
56.76
 30
0.0
 40
0.75
  0
CIRCLE
  5
1AF
100
AcDbEntity
  8
SOLDERMASK_PADS_TOP
100
AcDbCircle
 10
85.82
 20
59.3
 30
0.0
 40
0.75
  0
CIRCLE
  5
1B0
100
AcDbEntity
  8
SOLDERMASK_PADS_TOP
100
AcDbCircle
 10
88.36
 20
56.76
 30
0.0
 40
0.75
  0
CIRCLE
  5
1B1
100
AcDbEntity
  8
SOLDERMASK_PADS_TOP
100
AcDbCircle
 10
88.36
 20
59.3
 30
0.0
 40
0.75
  0
LWPOLYLINE
  5
1B2
100
AcDbEntity
  8
SOLDERMASK_PADS_TOP
100
AcDbPolyline
 90
        4
 70
         1
 10
77.4
 20
58.5
 10
77.4
 20
60.1
 10
79.0
 20
60.1
 10
79.0
 20
58.5
  0
CIRCLE
  5
1B3
100
AcDbEntity
  8
SOLDERMASK_PADS_TOP
100
AcDbCircle
 10
78.2
 20
56.76
 30
0.0
 40
0.75
  0
CIRCLE
  5
1B4
100
AcDbEntity
  8
SOLDERMASK_PADS_TOP
100
AcDbCircle
 10
80.74
 20
59.3
 30
0.0
 40
0.75
  0
CIRCLE
  5
1B5
100
AcDbEntity
  8
SOLDERMASK_PADS_TOP
100
AcDbCircle
 10
80.74
 20
56.76
 30
0.0
 40
0.75
  0
CIRCLE
  5
1B6
100
AcDbEntity
  8
SOLDERMASK_PADS_TOP
100
AcDbCircle
 10
83.28
 20
59.3
 30
0.0
 40
0.75
  0
CIRCLE
  5
1B7
100
AcDbEntity
  8
SOLDERMASK_PADS_TOP
100
AcDbCircle
 10
83.28
 20
56.76
 30
0.0
 40
0.75
  0
CIRCLE
  5
1B8
100
AcDbEntity
  8
SOLDERMASK_PADS_TOP
100
AcDbCircle
 10
54.704012
 20
56.598253
 30
0.0
 40
0.75
  0
LWPOLYLINE
  5
1B9
100
AcDbEntity
  8
SOLDERMASK_PADS_TOP
100
AcDbPolyline
 90
        4
 70
         1
 10
10.724012
 20
58.338253
 10
10.724012
 20
59.938253
 10
12.324012
 20
59.938253
 10
12.324012
 20
58.338253
  0
CIRCLE
  5
1BA
100
AcDbEntity
  8
SOLDERMASK_PADS_TOP
100
AcDbCircle
 10
57.244012
 20
56.598253
 30
0.0
 40
0.75
  0
CIRCLE
  5
1BB
100
AcDbEntity
  8
SOLDERMASK_PADS_TOP
100
AcDbCircle
 10
39.464012
 20
56.598253
 30
0.0
 40
0.75
  0
CIRCLE
  5
1BC
100
AcDbEntity
  8
SOLDERMASK_PADS_TOP
100
AcDbCircle
 10
39.464012
 20
59.138253
 30
0.0
 40
0.75
  0
CIRCLE
  5
1BD
100
AcDbEntity
  8
SOLDERMASK_PADS_TOP
100
AcDbCircle
 10
19.144012
 20
56.598253
 30
0.0
 40
0.75
  0
CIRCLE
  5
1BE
100
AcDbEntity
  8
SOLDERMASK_PADS_TOP
100
AcDbCircle
 10
19.144012
 20
59.138253
 30
0.0
 40
0.75
  0
CIRCLE
  5
1BF
100
AcDbEntity
  8
SOLDERMASK_PADS_TOP
100
AcDbCircle
 10
24.224012
 20
59.138253
 30
0.0
 40
0.75
  0
CIRCLE
  5
1C0
100
AcDbEntity
  8
SOLDERMASK_PADS_TOP
100
AcDbCircle
 10
24.224012
 20
56.598253
 30
0.0
 40
0.75
  0
CIRCLE
  5
1C1
100
AcDbEntity
  8
SOLDERMASK_PADS_TOP
100
AcDbCircle
 10
21.684012
 20
59.138253
 30
0.0
 40
0.75
  0
CIRCLE
  5
1C2
100
AcDbEntity
  8
SOLDERMASK_PADS_TOP
100
AcDbCircle
 10
21.684012
 20
56.598253
 30
0.0
 40
0.75
  0
CIRCLE
  5
1C3
100
AcDbEntity
  8
SOLDERMASK_PADS_TOP
100
AcDbCircle
 10
36.924012
 20
56.598253
 30
0.0
 40
0.75
  0
CIRCLE
  5
1C4
100
AcDbEntity
  8
SOLDERMASK_PADS_TOP
100
AcDbCircle
 10
36.924012
 20
59.138253
 30
0.0
 40
0.75
  0
CIRCLE
  5
1C5
100
AcDbEntity
  8
SOLDERMASK_PADS_TOP
100
AcDbCircle
 10
31.844012
 20
56.598253
 30
0.0
 40
0.75
  0
CIRCLE
  5
1C6
100
AcDbEntity
  8
SOLDERMASK_PADS_TOP
100
AcDbCircle
 10
31.844012
 20
59.138253
 30
0.0
 40
0.75
  0
CIRCLE
  5
1C7
100
AcDbEntity
  8
SOLDERMASK_PADS_TOP
100
AcDbCircle
 10
29.304012
 20
59.138253
 30
0.0
 40
0.75
  0
CIRCLE
  5
1C8
100
AcDbEntity
  8
SOLDERMASK_PADS_TOP
100
AcDbCircle
 10
29.304012
 20
56.598253
 30
0.0
 40
0.75
  0
CIRCLE
  5
1C9
100
AcDbEntity
  8
SOLDERMASK_PADS_TOP
100
AcDbCircle
 10
26.764012
 20
59.138253
 30
0.0
 40
0.75
  0
CIRCLE
  5
1CA
100
AcDbEntity
  8
SOLDERMASK_PADS_TOP
100
AcDbCircle
 10
26.764012
 20
56.598253
 30
0.0
 40
0.75
  0
CIRCLE
  5
1CB
100
AcDbEntity
  8
SOLDERMASK_PADS_TOP
100
AcDbCircle
 10
34.384012
 20
56.598253
 30
0.0
 40
0.75
  0
CIRCLE
  5
1CC
100
AcDbEntity
  8
SOLDERMASK_PADS_TOP
100
AcDbCircle
 10
34.384012
 20
59.138253
 30
0.0
 40
0.75
  0
CIRCLE
  5
1CD
100
AcDbEntity
  8
SOLDERMASK_PADS_TOP
100
AcDbCircle
 10
52.164012
 20
56.598253
 30
0.0
 40
0.75
  0
CIRCLE
  5
1CE
100
AcDbEntity
  8
SOLDERMASK_PADS_TOP
100
AcDbCircle
 10
52.164012
 20
59.138253
 30
0.0
 40
0.75
  0
CIRCLE
  5
1CF
100
AcDbEntity
  8
SOLDERMASK_PADS_TOP
100
AcDbCircle
 10
49.624012
 20
56.598253
 30
0.0
 40
0.75
  0
CIRCLE
  5
1D0
100
AcDbEntity
  8
SOLDERMASK_PADS_TOP
100
AcDbCircle
 10
49.624012
 20
59.138253
 30
0.0
 40
0.75
  0
CIRCLE
  5
1D1
100
AcDbEntity
  8
SOLDERMASK_PADS_TOP
100
AcDbCircle
 10
14.064012
 20
59.138253
 30
0.0
 40
0.75
  0
CIRCLE
  5
1D2
100
AcDbEntity
  8
SOLDERMASK_PADS_TOP
100
AcDbCircle
 10
16.604012
 20
56.598253
 30
0.0
 40
0.75
  0
CIRCLE
  5
1D3
100
AcDbEntity
  8
SOLDERMASK_PADS_TOP
100
AcDbCircle
 10
44.544012
 20
56.598253
 30
0.0
 40
0.75
  0
CIRCLE
  5
1D4
100
AcDbEntity
  8
SOLDERMASK_PADS_TOP
100
AcDbCircle
 10
47.084012
 20
56.598253
 30
0.0
 40
0.75
  0
CIRCLE
  5
1D5
100
AcDbEntity
  8
SOLDERMASK_PADS_TOP
100
AcDbCircle
 10
47.084012
 20
59.138253
 30
0.0
 40
0.75
  0
CIRCLE
  5
1D6
100
AcDbEntity
  8
SOLDERMASK_PADS_TOP
100
AcDbCircle
 10
44.544012
 20
59.138253
 30
0.0
 40
0.75
  0
CIRCLE
  5
1D7
100
AcDbEntity
  8
SOLDERMASK_PADS_TOP
100
AcDbCircle
 10
16.604012
 20
59.138253
 30
0.0
 40
0.75
  0
CIRCLE
  5
1D8
100
AcDbEntity
  8
SOLDERMASK_PADS_TOP
100
AcDbCircle
 10
42.004012
 20
56.598253
 30
0.0
 40
0.75
  0
CIRCLE
  5
1D9
100
AcDbEntity
  8
SOLDERMASK_PADS_TOP
100
AcDbCircle
 10
42.004012
 20
59.138253
 30
0.0
 40
0.75
  0
CIRCLE
  5
1DA
100
AcDbEntity
  8
SOLDERMASK_PADS_TOP
100
AcDbCircle
 10
11.524012
 20
56.598253
 30
0.0
 40
0.75
  0
CIRCLE
  5
1DB
100
AcDbEntity
  8
SOLDERMASK_PADS_TOP
100
AcDbCircle
 10
59.784012
 20
56.598253
 30
0.0
 40
0.75
  0
CIRCLE
  5
1DC
100
AcDbEntity
  8
SOLDERMASK_PADS_TOP
100
AcDbCircle
 10
57.244012
 20
59.138253
 30
0.0
 40
0.75
  0
CIRCLE
  5
1DD
100
AcDbEntity
  8
SOLDERMASK_PADS_TOP
100
AcDbCircle
 10
59.784012
 20
59.138253
 30
0.0
 40
0.75
  0
CIRCLE
  5
1DE
100
AcDbEntity
  8
SOLDERMASK_PADS_TOP
100
AcDbCircle
 10
54.704012
 20
59.138253
 30
0.0
 40
0.75
  0
CIRCLE
  5
1DF
100
AcDbEntity
  8
SOLDERMASK_PADS_TOP
100
AcDbCircle
 10
14.064012
 20
56.598253
 30
0.0
 40
0.75
  0
ENDSEC
  0
SECTION
  2
OBJECTS
  0
DICTIONARY
  5
19
100
AcDbDictionary
  3
ACAD_GROUP
350
1A
  3
ACAD_MLINESTYLE
350
1B
  0
DICTIONARY
  5
1A
102
{ACAD_REACTORS
330
19
102
}
100
AcDbDictionary
  0
DICTIONARY
  5
1B
102
{ACAD_REACTORS
330
19
102
}
100
AcDbDictionary
  3
STANDARD
350
1C
  0
MLINESTYLE
  5
1C
102
{ACAD_REACTORS
330
1B
102
}
100
AcDbMlineStyle
  2
STANDARD
 70
         0
  3

 62
         0
 51
90.0
 52
90.0
 71
         2
 49
0.5
 62
       256
  6
BYLAYER
 49
-0.5
 62
       256
  6
BYLAYER
  0
DICTIONARY
  5
22
102
{ACAD_REACTORS
330
19
102
}
100
AcDbDictionary
  0
ENDSEC
  0
EOF
