  0
SECTION
  2
HEADER
  9
$ACADVER
  1
AC1014
  9
$ACADMAINTVER
 70
         0
  9
$DWGCODEPAGE
  3
ANSI_1252
  9
$INSBASE
 10
0.0
 20
0.0
 30
0.0
  9
$EXTMIN
 10
0.0
 20
-13.7096
 30
0.0
  9
$EXTMAX
 10
95.176439
 20
103.1096
 30
0.0
  9
$LIMMIN
 10
0.0
 20
0.0
  9
$LIMMAX
 10
0.0
 20
0.0
  9
$ORTHOMODE
 70
         0
  9
$REGENMODE
 70
         1
  9
$FILLMODE
 70
         1
  9
$QTEXTMODE
 70
         0
  9
$MIRRTEXT
 70
         1
  9
$DRAGMODE
 70
         2
  9
$LTSCALE
 40
1.0
  9
$OSMODE
 70
         0
  9
$ATTMODE
 70
         1
  9
$TEXTSIZE
 40
0.2
  9
$TRACEWID
 40
0.05
  9
$TEXTSTYLE
  7
STANDARD
  9
$CLAYER
  8
0
  9
$CELTYPE
  6
CONTINUOUS
  9
$CECOLOR
 62
       256
  9
$CELTSCALE
 40
1.0
  9
$DELOBJ
 70
         1
  9
$DISPSILH
 70
         0
  9
$DIMSCALE
 40
1.0
  9
$DIMASZ
 40
0.18
  9
$DIMEXO
 40
0.0625
  9
$DIMDLI
 40
0.38
  9
$DIMRND
 40
0.0
  9
$DIMDLE
 40
0.0
  9
$DIMEXE
 40
0.18
  9
$DIMTP
 40
0.0
  9
$DIMTM
 40
0.0
  9
$DIMTXT
 40
0.18
  9
$DIMCEN
 40
0.09
  9
$DIMTSZ
 40
0.0
  9
$DIMTOL
 70
         0
  9
$DIMLIM
 70
         0
  9
$DIMTIH
 70
         1
  9
$DIMTOH
 70
         1
  9
$DIMSE1
 70
         0
  9
$DIMSE2
 70
         0
  9
$DIMTAD
 70
         0
  9
$DIMZIN
 70
         0
  9
$DIMBLK
  1

  9
$DIMASO
 70
         1
  9
$DIMSHO
 70
         1
  9
$DIMPOST
  1

  9
$DIMAPOST
  1

  9
$DIMALT
 70
         0
  9
$DIMALTD
 70
         2
  9
$DIMALTF
 40
25.4
  9
$DIMLFAC
 40
1.0
  9
$DIMTOFL
 70
         0
  9
$DIMTVP
 40
0.0
  9
$DIMTIX
 70
         0
  9
$DIMSOXD
 70
         0
  9
$DIMSAH
 70
         0
  9
$DIMBLK1
  1

  9
$DIMBLK2
  1

  9
$DIMSTYLE
  2
STANDARD
  9
$DIMCLRD
 70
         0
  9
$DIMCLRE
 70
         0
  9
$DIMCLRT
 70
         0
  9
$DIMTFAC
 40
1.0
  9
$DIMGAP
 40
0.09
  9
$DIMJUST
 70
         0
  9
$DIMSD1
 70
         0
  9
$DIMSD2
 70
         0
  9
$DIMTOLJ
 70
         1
  9
$DIMTZIN
 70
         0
  9
$DIMALTZ
 70
         0
  9
$DIMALTTZ
 70
         0
  9
$DIMFIT
 70
         3
  9
$DIMUPT
 70
         0
  9
$DIMUNIT
 70
         2
  9
$DIMDEC
 70
         4
  9
$DIMTDEC
 70
         4
  9
$DIMALTU
 70
         2
  9
$DIMALTTD
 70
         2
  9
$DIMTXSTY
  7
STANDARD
  9
$DIMAUNIT
 70
         0
  9
$LUNITS
 70
         2
  9
$LUPREC
 70
         4
  9
$SKETCHINC
 40
0.1
  9
$FILLETRAD
 40
0.0
  9
$AUNITS
 70
         0
  9
$AUPREC
 70
         0
  9
$MENU
  1
acad
  9
$ELEVATION
 40
0.0
  9
$PELEVATION
 40
0.0
  9
$THICKNESS
 40
0.0
  9
$LIMCHECK
 70
         0
  9
$BLIPMODE
 70
         1
  9
$CHAMFERA
 40
0.0
  9
$CHAMFERB
 40
0.0
  9
$CHAMFERC
 40
0.0
  9
$CHAMFERD
 40
0.0
  9
$SKPOLY
 70
         0
  9
$TDCREATE
 40
2456041.789409722
  9
$TDUPDATE
 40
0.000000000
  9
$TDINDWG
 40
0.0000000000
  9
$TDUSRTIMER
 40
0.0000000000
  9
$USRTIMER
 70
         1
  9
$ANGBASE
 50
0.0
  9
$ANGDIR
 70
         0
  9
$PDMODE
 70
         0
  9
$PDSIZE
 40
0.0
  9
$PLINEWID
 40
0.0
  9
$COORDS
 70
         0
  9
$SPLFRAME
 70
         0
  9
$SPLINETYPE
 70
         6
  9
$SPLINESEGS
 70
         8
  9
$ATTDIA
 70
         0
  9
$ATTREQ
 70
         1
  9
$HANDLING
 70
         1
  9
$HANDSEED
  5
323
  9
$SURFTAB1
 70
         6
  9
$SURFTAB2
 70
         6
  9
$SURFTYPE
 70
         6
  9
$SURFU
 70
         6
  9
$SURFV
 70
         6
  9
$UCSNAME
  2

  9
$UCSORG
 10
0.0
 20
0.0
 30
0.0
  9
$UCSXDIR
 10
1.0
 20
0.0
 30
0.0
  9
$UCSYDIR
 10
0.0
 20
1.0
 30
0.0
  9
$PUCSNAME
  2

  9
$PUCSORG
 10
0.0
 20
0.0
 30
0.0
  9
$PUCSXDIR
 10
1.0
 20
0.0
 30
0.0
  9
$PUCSYDIR
 10
0.0
 20
1.0
 30
0.0
  9
$USERI1
 70
        -3
  9
$USERI2
 70
         0
  9
$USERI3
 70
         0
  9
$USERI4
 70
         0
  9
$USERI5
 70
         0
  9
$USERR1
 40
0.0
  9
$USERR2
 40
0.0
  9
$USERR3
 40
0.0
  9
$USERR4
 40
0.0
  9
$USERR5
 40
0.0
  9
$WORLDVIEW
 70
         1
  9
$SHADEDGE
 70
         3
  9
$SHADEDIF
 70
        70
  9
$TILEMODE
 70
         1
  9
$MAXACTVP
 70
        16
  9
$PINSBASE
 10
0.0
 20
0.0
 30
0.0
  9
$PLIMCHECK
 70
         0
  9
$PEXTMIN
 10
1.0000000000E+20
 20
1.0000000000E+20
 30
1.0000000000E+20
  9
$PEXTMAX
 10
-1.0000000000E+20
 20
-1.0000000000E+20
 30
-1.0000000000E+20
  9
$PLIMMIN
 10
0.0
 20
0.0
  9
$PLIMMAX
 10
12.0
 20
9.0
  9
$UNITMODE
 70
         0
  9
$VISRETAIN
 70
         0
  9
$PLINEGEN
 70
         1
  9
$PSLTSCALE
 70
         0
  9
$TREEDEPTH
 70
      3020
  9
$PICKSTYLE
 70
         1
  9
$CMLSTYLE
  2
STANDARD
  9
$CMLJUST
 70
         0
  9
$CMLSCALE
 40
1.0
  9
$PROXYGRAPHICS
 70
         0
  9
$MEASUREMENT
 70
         0
  0
ENDSEC
  0
SECTION
  2
CLASSES
  0
CLASS
  1
LWPOLYLINE
  2
AcDbPolyline
  3
"AutoCAD"
 90
        0
280
         0
281
         1
  0
CLASS
  1
IMAGE
  2
AcDbRasterImage
  3
ISM
 90
      127
280
         0
281
         1
  0
CLASS
  1
OLE2FRAME
  2
AcDbOle2Frame
  3
""
 90
        0
280
         0
281
         1
  0
CLASS
  1
HATCH
  2
AcDbHatch
  3
"ACAD_SEDONA"
 90
        0
280
         0
281
         1
  0
CLASS
  1
DICTIONARYVAR
  2
AcDbDictionaryVar
  3
"AutoCAD"
 90
        0
280
         0
281
         0
  0
CLASS
  1
RASTERVARIABLES
  2
AcDbRasterVariables
  3
ISM
 90
        0
280
         0
281
         0
  0
CLASS
  1
IMAGEDEF
  2
AcDbRasterImageDef
  3
ISM
 90
        0
280
         0
281
         0
  0
CLASS
  1
IMAGEDEF_REACTOR
  2
AcDbRasterImageDefReactor
  3
ISM
 90
        1
280
         0
281
         0
  0
CLASS
  1
IDBUFFER
  2
AcDbIdBuffer
  3
"Acad"
 90
        0
280
         0
281
         0
  0
CLASS
  1
SPATIAL_FILTER
  2
AcDbSpatialFilter
  3
"Acad"
 90
        0
280
         0
281
         0
  0
CLASS
  1
XRECORD
  2
AcDbXrecord
  3
"<Built In>"
 90
        0
280
         0
281
         0
  0
CLASS
  1
SORTENTSTABLE
  2
AcDbSortentsTable
  3
"AutoCAD"
 90
        0
280
         0
281
         0
  0
CLASS
  1
LAYER_INDEX
  2
AcDbLayerIndex
  3
"Acad"
 90
        0
280
         0
281
         0
  0
CLASS
  1
SPATIAL_INDEX
  2
AcDbSpatialIndex
  3
"Acad"
 90
        0
280
         0
281
         0
  0
CLASS
  1
OBJECT_PTR
  2
CAseDLPNTableRecord
  3
"ASE-LPNTableRecord"
 90
        1
280
         0
281
         0
  0
CLASS
  1
LAYOUT
  2
AcDbLayout
  3
"AutoCAD 2000"
 90
        0
280
         0
281
         0
  0
CLASS
  1
PLOTSETTINGS
  2
AcDbPlotSettings
  3
"AutoCAD 2000"
 90
        0
280
         0
281
         0
  0
CLASS
  1
ACDBDICTIONARYWDFLT
  2
AcDbDictionaryWithDefault
  3
"AutoCAD 2000"
 90
        0
280
         0
281
         0
  0
CLASS
  1
ACDBPLACEHOLDER
  2
AcDbPlaceHolder
  3
"AutoCAD 2000"
 90
        0
280
         0
281
         0
  0
CLASS
  1
VBA_PROJECT
  2
AcDbVbaProject
  3
"acadvba"
 90
        0
280
         0
281
         0
  0
CLASS
  1
WIPEOUT
  2
AcDbWipeout
  3
WipeOut|AutoCAD Express Tool|expresstools@autodesk.com
 90
      127
280
         0
281
         1
  0
CLASS
  1
WIPEOUTVARIABLES
  2
AcDbWipeoutVariables
  3
WipeOut|AutoCAD Express Tool|expresstools@autodesk.com
 90
        0
280
         0
281
         0
  0
CLASS
  1
RTEXT
  2
RText
  3
RText|AutoCAD Express Tool|expresstools@autodesk.com
 90
        0
280
         0
281
         1
  0
CLASS
  1
ARCALIGNEDTEXT
  2
AcDbArcAlignedText
  3
ATEXT|AutoCAD Express Tool|expresstools@autodesk.com
 90
        0
280
         0
281
         1
  0
ENDSEC
  0
SECTION
  2
TABLES
  0
TABLE
  2
VPORT
  5
7
100
AcDbSymbolTable
 70
         1
  0
VPORT
  5
15
100
AcDbSymbolTableRecord
100
AcDbViewportTableRecord
  2
*ACTIVE
 70
         0
 10
0.0
 20
0.0
 11
1.0
 21
1.0
 12
6.591288
 22
4.579184
 13
0.0
 23
0.0
 14
1.0
 24
1.0
 15
0.0
 25
0.0
 16
0.0
 26
0.0
 36
1.0
 17
0.0
 27
0.0
 37
0.0
 40
9.158369
 41
0.688564
 42
50.0
 43
0.0
 44
0.0
 50
0.0
 51
0.0
 71
         0
 72
       100
 73
         1
 74
         1
 75
         0
 76
         0
 77
         0
 78
         0
  0
ENDTAB
  0
TABLE
  2
LTYPE
  5
4
100
AcDbSymbolTable
 70
         3
  0
LTYPE
  5
11
100
AcDbSymbolTableRecord
100
AcDbLinetypeTableRecord
  2
BYBLOCK
 70
        64
  3

 72
        65
 73
         0
 40
0.0
  0
LTYPE
  5
12
100
AcDbSymbolTableRecord
100
AcDbLinetypeTableRecord
  2
BYLAYER
 70
        64
  3

 72
        65
 73
         0
 40
0.0
  0
LTYPE
  5
13
100
AcDbSymbolTableRecord
100
AcDbLinetypeTableRecord
  2
CONTINUOUS
 70
        64
  3
Solid line
 72
        65
 73
         0
 40
0.0
  0
ENDTAB
  0
TABLE
  2
LAYER
  5
2
100
AcDbSymbolTable
 70
         7
  0
LAYER
  5
14
100
AcDbSymbolTableRecord
100
AcDbLayerTableRecord
  2
0
 70
         0
 62
         7
  6
CONTINUOUS
  0
LAYER
  5
24
100
AcDbSymbolTableRecord
100
AcDbLayerTableRecord
  2
ASSEMBLY_OUTLINES_TOP
 70
         0
 62
       102
  6
CONTINUOUS
  0
LAYER
  5
25
100
AcDbSymbolTableRecord
100
AcDbLayerTableRecord
  2
ASSEMBLY_REF_DES_TOP
 70
         0
 62
       102
  6
CONTINUOUS
  0
LAYER
  5
26
100
AcDbSymbolTableRecord
100
AcDbLayerTableRecord
  2
BOARD_OUTLINE
 70
         0
 62
        10
  6
CONTINUOUS
  0
LAYER
  5
27
100
AcDbSymbolTableRecord
100
AcDbLayerTableRecord
  2
MOUNTING_HOLES_LAYER_TOP
 70
         0
 62
        42
  6
CONTINUOUS
  0
LAYER
  5
28
100
AcDbSymbolTableRecord
100
AcDbLayerTableRecord
  2
PART_HOLES_LAYER_TOP
 70
         0
 62
        30
  6
CONTINUOUS
  0
LAYER
  5
29
100
AcDbSymbolTableRecord
100
AcDbLayerTableRecord
  2
SOLDERMASK_PADS_TOP
 70
         0
 62
       180
  6
CONTINUOUS
  0
ENDTAB
  0
TABLE
  2
STYLE
  5
3
100
AcDbSymbolTable
 70
         4
  0
STYLE
  5
17
100
AcDbSymbolTableRecord
100
AcDbTextStyleTableRecord
  2
STANDARD
 70
         0
 40
0.0
 41
1.0
 50
0.0
 71
         0
 42
0.0
  3
txt
  4

  0
STYLE
  5
7A
100
AcDbSymbolTableRecord
100
AcDbTextStyleTableRecord
  2
VERIBEST_GERBER_1
 70
         0
 40
0.0
 41
1.0
 50
0.0
 71
         0
 42
0.0
  3
C:\Windows\Fonts\VBest1.ttf
  4

  0
STYLE
  5
7C
100
AcDbSymbolTableRecord
100
AcDbTextStyleTableRecord
  2
VERIBEST_GERBER_0
 70
         0
 40
0.0
 41
1.0
 50
0.0
 71
         0
 42
0.0
  3
C:\Windows\Fonts\VBest0.ttf
  4

  0
STYLE
  5
EC
100
AcDbSymbolTableRecord
100
AcDbTextStyleTableRecord
  2
GOST_TYPE_B
 70
         0
 40
0.0
 41
1.0
 50
0.0
 71
         0
 42
0.0
  3
gost_2.ttf
  4

  0
ENDTAB
  0
TABLE
  2
VIEW
  5
5
100
AcDbSymbolTable
 70
         0
  0
ENDTAB
  0
TABLE
  2
UCS
  5
6
100
AcDbSymbolTable
 70
         0
  0
ENDTAB
  0
TABLE
  2
APPID
  5
8
100
AcDbSymbolTable
 70
         1
  0
APPID
  5
16
100
AcDbSymbolTableRecord
100
AcDbRegAppTableRecord
  2
ACAD
 70
         0
  0
ENDTAB
  0
TABLE
  2
DIMSTYLE
  5
9
100
AcDbSymbolTable
 70
         1
  0
DIMSTYLE
105
18
100
AcDbSymbolTableRecord
100
AcDbDimStyleTableRecord
  2
STANDARD
 70
         0
  3

  4

  5

  6

  7

 40
1.0
 41
0.18
 42
0.0625
 43
0.38
 44
0.18
 45
0.0
 46
0.0
 47
0.0
 48
0.0
 71
         0
 72
         0
 73
         1
 74
         1
 75
         0
 76
         0
 77
         0
 78
         0
140
0.18
141
0.09
142
0.0
143
25.4
144
1.0
145
0.0
146
1.0
147
0.09
170
         0
171
         2
172
         0
173
         0
174
         0
175
         0
176
         0
177
         0
178
         0
270
         2
271
         4
272
         4
273
         2
274
         2
275
         0
280
         0
281
         0
282
         0
283
         1
284
         0
285
         0
286
         0
287
         3
288
         0
340
17
  0
ENDTAB
  0
TABLE
  2
BLOCK_RECORD
  5
1
100
AcDbSymbolTable
 70
         0
  0
BLOCK_RECORD
  5
A
100
AcDbSymbolTableRecord
100
AcDbBlockTableRecord
  2
*MODEL_SPACE
  0
BLOCK_RECORD
  5
B
100
AcDbSymbolTableRecord
100
AcDbBlockTableRecord
  2
*PAPER_SPACE
  0
ENDTAB
  0
ENDSEC
  0
SECTION
  2
BLOCKS
  0
BLOCK
  5
D
100
AcDbEntity
  8
0
100
AcDbBlockBegin
  2
*MODEL_SPACE
 70
         0
 10
0.0
 20
0.0
 30
0.0
  3
*MODEL_SPACE
  1

  0
ENDBLK
  5
E
100
AcDbEntity
  8
0
100
AcDbBlockEnd
  0
BLOCK
  5
F
100
AcDbEntity
 67
         1
  8
0
100
AcDbBlockBegin
  2
*PAPER_SPACE
 70
         0
 10
0.0
 20
0.0
 30
0.0
  3
*PAPER_SPACE
  1

  0
ENDBLK
  5
10
100
AcDbEntity
 67
         1
  8
0
100
AcDbBlockEnd
  0
ENDSEC
  0
SECTION
  2
ENTITIES
  0
LWPOLYLINE
  5
2A
100
AcDbEntity
  8
ASSEMBLY_OUTLINES_TOP
100
AcDbPolyline
 90
        3
 70
         1
 10
23.2
 20
-10.0
 10
22.6285
 20
-8.857
 10
23.7715
 20
-8.857
  0
HATCH
  5
2B
100
AcDbEntity
  8
ASSEMBLY_OUTLINES_TOP
100
AcDbHatch
 10
0.0
 20
0.0
 30
0.0
210
0.0
220
0.0
230
1.0
  2
SOLID
 70
         1
 71
         1
 91
        1
 92
        2
 72
         0
 73
         1
 93
        3
 10
23.199999999999999
 20
-10.0
 10
22.628499999999999
 20
-8.8569999999999993
 10
23.7715
 20
-8.8569999999999993
 97
        1
330
2A
 75
         0
 76
         1
 98
        1
 10
0.0
 20
0.0
  0
LWPOLYLINE
  5
2C
100
AcDbEntity
  8
ASSEMBLY_OUTLINES_TOP
100
AcDbPolyline
 90
        3
 70
         1
 10
23.2
 20
98.0
 10
23.771499
 20
96.857
 10
22.6285
 20
96.857001
  0
HATCH
  5
2D
100
AcDbEntity
  8
ASSEMBLY_OUTLINES_TOP
100
AcDbHatch
 10
0.0
 20
0.0
 30
0.0
210
0.0
220
0.0
230
1.0
  2
SOLID
 70
         1
 71
         1
 91
        1
 92
        2
 72
         0
 73
         1
 93
        3
 10
23.199999999999999
 20
98.0
 10
23.771498999999999
 20
96.856999999999999
 10
22.628499999999999
 20
96.857000999999997
 97
        1
330
2C
 75
         0
 76
         1
 98
        1
 10
0.0
 20
0.0
  0
LWPOLYLINE
  5
2E
100
AcDbEntity
  8
ASSEMBLY_OUTLINES_TOP
100
AcDbPolyline
 90
        2
 70
         0
 43
0.2032
 10
23.2
 20
40.690666
 10
23.2
 20
-9.4285
  0
LWPOLYLINE
  5
2F
100
AcDbEntity
  8
ASSEMBLY_OUTLINES_TOP
100
AcDbPolyline
 90
        2
 70
         0
 43
0.2032
 10
23.2
 20
97.4285
 10
23.2
 20
47.309333
  0
LWPOLYLINE
  5
30
100
AcDbEntity
  8
ASSEMBLY_OUTLINES_TOP
100
AcDbPolyline
 90
        2
 70
         0
 43
0.2032
 10
28.792
 20
-10.0
 10
22.692
 20
-10.0
  0
LWPOLYLINE
  5
31
100
AcDbEntity
  8
ASSEMBLY_OUTLINES_TOP
100
AcDbPolyline
 90
        2
 70
         0
 43
0.2032
 10
28.792
 20
98.0
 10
22.692
 20
98.0
  0
LWPOLYLINE
  5
32
100
AcDbEntity
  8
ASSEMBLY_OUTLINES_TOP
100
AcDbPolyline
 90
        2
 70
         0
 43
0.2032
 10
29.3
 20
98.508
 10
29.3
 20
103.008
  0
LWPOLYLINE
  5
33
100
AcDbEntity
  8
ASSEMBLY_OUTLINES_TOP
100
AcDbPolyline
 90
        2
 70
         0
 43
0.2032
 10
89.3
 20
98.508
 10
89.3
 20
103.008
  0
LWPOLYLINE
  5
34
100
AcDbEntity
  8
ASSEMBLY_OUTLINES_TOP
100
AcDbPolyline
 90
        2
 70
         0
 43
0.2032
 10
29.8715
 20
102.5
 10
56.547402
 20
102.5
  0
LWPOLYLINE
  5
35
100
AcDbEntity
  8
ASSEMBLY_OUTLINES_TOP
100
AcDbPolyline
 90
        2
 70
         0
 43
0.2032
 10
62.052598
 20
102.5
 10
88.7285
 20
102.5
  0
LWPOLYLINE
  5
36
100
AcDbEntity
  8
ASSEMBLY_OUTLINES_TOP
100
AcDbPolyline
 90
        3
 70
         1
 10
29.3
 20
102.5
 10
30.443
 20
103.0715
 10
30.443
 20
101.9285
  0
HATCH
  5
37
100
AcDbEntity
  8
ASSEMBLY_OUTLINES_TOP
100
AcDbHatch
 10
0.0
 20
0.0
 30
0.0
210
0.0
220
0.0
230
1.0
  2
SOLID
 70
         1
 71
         1
 91
        1
 92
        2
 72
         0
 73
         1
 93
        3
 10
29.300000000000001
 20
102.5
 10
30.443000000000001
 20
103.0715
 10
30.443000000000001
 20
101.9285
 97
        1
330
36
 75
         0
 76
         1
 98
        1
 10
0.0
 20
0.0
  0
LWPOLYLINE
  5
38
100
AcDbEntity
  8
ASSEMBLY_OUTLINES_TOP
100
AcDbPolyline
 90
        3
 70
         1
 10
89.3
 20
102.5
 10
88.157
 20
101.928501
 10
88.157001
 20
103.0715
  0
HATCH
  5
39
100
AcDbEntity
  8
ASSEMBLY_OUTLINES_TOP
100
AcDbHatch
 10
0.0
 20
0.0
 30
0.0
210
0.0
220
0.0
230
1.0
  2
SOLID
 70
         1
 71
         1
 91
        1
 92
        2
 72
         0
 73
         1
 93
        3
 10
89.299999999999997
 20
102.5
 10
88.156999999999996
 20
101.928501
 10
88.157000999999994
 20
103.0715
 97
        1
330
38
 75
         0
 76
         1
 98
        1
 10
0.0
 20
0.0
  0
LWPOLYLINE
  5
3A
100
AcDbEntity
  8
ASSEMBLY_OUTLINES_TOP
100
AcDbPolyline
 90
        2
 70
         0
 43
0.2032
 10
85.3
 20
94.508
 10
85.3
 20
100.708
  0
LWPOLYLINE
  5
3B
100
AcDbEntity
  8
ASSEMBLY_OUTLINES_TOP
100
AcDbPolyline
 90
        2
 70
         0
 43
0.2032
 10
89.3
 20
98.508
 10
89.3
 20
100.708
  0
LWPOLYLINE
  5
3C
100
AcDbEntity
  8
ASSEMBLY_OUTLINES_TOP
100
AcDbPolyline
 90
        2
 70
         0
 43
0.2032
 10
84.7285
 20
100.2
 10
82.4425
 20
100.2
  0
LWPOLYLINE
  5
3D
100
AcDbEntity
  8
ASSEMBLY_OUTLINES_TOP
100
AcDbPolyline
 90
        2
 70
         0
 43
0.2032
 10
89.8715
 20
100.2
 10
92.1575
 20
100.2
  0
LWPOLYLINE
  5
3E
100
AcDbEntity
  8
ASSEMBLY_OUTLINES_TOP
100
AcDbPolyline
 90
        3
 70
         1
 10
85.3
 20
100.2
 10
84.157
 20
99.628501
 10
84.157001
 20
100.7715
  0
HATCH
  5
3F
100
AcDbEntity
  8
ASSEMBLY_OUTLINES_TOP
100
AcDbHatch
 10
0.0
 20
0.0
 30
0.0
210
0.0
220
0.0
230
1.0
  2
SOLID
 70
         1
 71
         1
 91
        1
 92
        2
 72
         0
 73
         1
 93
        3
 10
85.299999999999997
 20
100.2
 10
84.156999999999996
 20
99.628501
 10
84.157000999999994
 20
100.7715
 97
        1
330
3E
 75
         0
 76
         1
 98
        1
 10
0.0
 20
0.0
  0
LWPOLYLINE
  5
40
100
AcDbEntity
  8
ASSEMBLY_OUTLINES_TOP
100
AcDbPolyline
 90
        3
 70
         1
 10
89.3
 20
100.2
 10
90.443
 20
100.7715
 10
90.443
 20
99.6285
  0
HATCH
  5
41
100
AcDbEntity
  8
ASSEMBLY_OUTLINES_TOP
100
AcDbHatch
 10
0.0
 20
0.0
 30
0.0
210
0.0
220
0.0
230
1.0
  2
SOLID
 70
         1
 71
         1
 91
        1
 92
        2
 72
         0
 73
         1
 93
        3
 10
89.299999999999997
 20
100.2
 10
90.442999999999998
 20
100.7715
 10
90.442999999999998
 20
99.628500000000003
 97
        1
330
40
 75
         0
 76
         1
 98
        1
 10
0.0
 20
0.0
  0
LWPOLYLINE
  5
42
100
AcDbEntity
  8
ASSEMBLY_OUTLINES_TOP
100
AcDbPolyline
 90
        2
 70
         0
 43
0.2032
 10
89.808
 20
98.0
 10
93.908
 20
98.0
  0
LWPOLYLINE
  5
43
100
AcDbEntity
  8
ASSEMBLY_OUTLINES_TOP
100
AcDbPolyline
 90
        2
 70
         0
 43
0.2032
 10
85.808
 20
94.0
 10
93.908
 20
94.0
  0
LWPOLYLINE
  5
44
100
AcDbEntity
  8
ASSEMBLY_OUTLINES_TOP
100
AcDbPolyline
 90
        2
 70
         0
 43
0.2032
 10
93.4
 20
98.5715
 10
93.4
 20
100.8575
  0
LWPOLYLINE
  5
45
100
AcDbEntity
  8
ASSEMBLY_OUTLINES_TOP
100
AcDbPolyline
 90
        2
 70
         0
 43
0.2032
 10
93.4
 20
93.4285
 10
93.4
 20
91.1425
  0
LWPOLYLINE
  5
46
100
AcDbEntity
  8
ASSEMBLY_OUTLINES_TOP
100
AcDbPolyline
 90
        3
 70
         1
 10
93.4
 20
98.0
 10
92.8285
 20
99.143
 10
93.9715
 20
99.143
  0
HATCH
  5
47
100
AcDbEntity
  8
ASSEMBLY_OUTLINES_TOP
100
AcDbHatch
 10
0.0
 20
0.0
 30
0.0
210
0.0
220
0.0
230
1.0
  2
SOLID
 70
         1
 71
         1
 91
        1
 92
        2
 72
         0
 73
         1
 93
        3
 10
93.400000000000006
 20
98.0
 10
92.828500000000005
 20
99.143000000000001
 10
93.971500000000006
 20
99.143000000000001
 97
        1
330
46
 75
         0
 76
         1
 98
        1
 10
0.0
 20
0.0
  0
LWPOLYLINE
  5
48
100
AcDbEntity
  8
ASSEMBLY_OUTLINES_TOP
100
AcDbPolyline
 90
        3
 70
         1
 10
93.4
 20
94.0
 10
93.971499
 20
92.857
 10
92.8285
 20
92.857001
  0
HATCH
  5
49
100
AcDbEntity
  8
ASSEMBLY_OUTLINES_TOP
100
AcDbHatch
 10
0.0
 20
0.0
 30
0.0
210
0.0
220
0.0
230
1.0
  2
SOLID
 70
         1
 71
         1
 91
        1
 92
        2
 72
         0
 73
         1
 93
        3
 10
93.400000000000006
 20
94.0
 10
93.971498999999994
 20
92.856999999999999
 10
92.828500000000005
 20
92.857000999999997
 97
        1
330
48
 75
         0
 76
         1
 98
        1
 10
0.0
 20
0.0
  0
LWPOLYLINE
  5
4A
100
AcDbEntity
  8
ASSEMBLY_OUTLINES_TOP
100
AcDbPolyline
 90
        2
 70
         0
 43
0.2032
 10
85.808
 20
-6.0
 10
93.408
 20
-6.0
  0
LWPOLYLINE
  5
4B
100
AcDbEntity
  8
ASSEMBLY_OUTLINES_TOP
100
AcDbPolyline
 90
        2
 70
         0
 43
0.2032
 10
89.808
 20
-10.0
 10
93.408
 20
-10.0
  0
LWPOLYLINE
  5
4C
100
AcDbEntity
  8
ASSEMBLY_OUTLINES_TOP
100
AcDbPolyline
 90
        2
 70
         0
 43
0.2032
 10
92.9
 20
-5.4285
 10
92.9
 20
-3.1425
  0
LWPOLYLINE
  5
4D
100
AcDbEntity
  8
ASSEMBLY_OUTLINES_TOP
100
AcDbPolyline
 90
        2
 70
         0
 43
0.2032
 10
92.9
 20
-10.5715
 10
92.9
 20
-12.8575
  0
LWPOLYLINE
  5
4E
100
AcDbEntity
  8
ASSEMBLY_OUTLINES_TOP
100
AcDbPolyline
 90
        3
 70
         1
 10
92.9
 20
-6.0
 10
92.3285
 20
-4.857
 10
93.4715
 20
-4.857
  0
HATCH
  5
4F
100
AcDbEntity
  8
ASSEMBLY_OUTLINES_TOP
100
AcDbHatch
 10
0.0
 20
0.0
 30
0.0
210
0.0
220
0.0
230
1.0
  2
SOLID
 70
         1
 71
         1
 91
        1
 92
        2
 72
         0
 73
         1
 93
        3
 10
92.900000000000006
 20
-6.0
 10
92.328500000000005
 20
-4.8570000000000002
 10
93.471500000000006
 20
-4.8570000000000002
 97
        1
330
4E
 75
         0
 76
         1
 98
        1
 10
0.0
 20
0.0
  0
LWPOLYLINE
  5
50
100
AcDbEntity
  8
ASSEMBLY_OUTLINES_TOP
100
AcDbPolyline
 90
        3
 70
         1
 10
92.9
 20
-10.0
 10
93.471499
 20
-11.143
 10
92.3285
 20
-11.142999
  0
HATCH
  5
51
100
AcDbEntity
  8
ASSEMBLY_OUTLINES_TOP
100
AcDbHatch
 10
0.0
 20
0.0
 30
0.0
210
0.0
220
0.0
230
1.0
  2
SOLID
 70
         1
 71
         1
 91
        1
 92
        2
 72
         0
 73
         1
 93
        3
 10
92.900000000000006
 20
-10.0
 10
93.471498999999994
 20
-11.143000000000001
 10
92.328500000000005
 20
-11.142999
 97
        1
330
50
 75
         0
 76
         1
 98
        1
 10
0.0
 20
0.0
  0
LWPOLYLINE
  5
52
100
AcDbEntity
  8
ASSEMBLY_OUTLINES_TOP
100
AcDbPolyline
 90
        2
 70
         0
 43
0.2032
 10
85.3
 20
-6.508
 10
85.3
 20
-13.608
  0
LWPOLYLINE
  5
53
100
AcDbEntity
  8
ASSEMBLY_OUTLINES_TOP
100
AcDbPolyline
 90
        2
 70
         0
 43
0.2032
 10
89.3
 20
-10.508
 10
89.3
 20
-13.608
  0
LWPOLYLINE
  5
54
100
AcDbEntity
  8
ASSEMBLY_OUTLINES_TOP
100
AcDbPolyline
 90
        2
 70
         0
 43
0.2032
 10
84.7285
 20
-13.1
 10
82.4425
 20
-13.1
  0
LWPOLYLINE
  5
55
100
AcDbEntity
  8
ASSEMBLY_OUTLINES_TOP
100
AcDbPolyline
 90
        2
 70
         0
 43
0.2032
 10
89.8715
 20
-13.1
 10
92.1575
 20
-13.1
  0
LWPOLYLINE
  5
56
100
AcDbEntity
  8
ASSEMBLY_OUTLINES_TOP
100
AcDbPolyline
 90
        3
 70
         1
 10
85.3
 20
-13.1
 10
84.157
 20
-13.671499
 10
84.157001
 20
-12.5285
  0
HATCH
  5
57
100
AcDbEntity
  8
ASSEMBLY_OUTLINES_TOP
100
AcDbHatch
 10
0.0
 20
0.0
 30
0.0
210
0.0
220
0.0
230
1.0
  2
SOLID
 70
         1
 71
         1
 91
        1
 92
        2
 72
         0
 73
         1
 93
        3
 10
85.299999999999997
 20
-13.1
 10
84.156999999999996
 20
-13.671499000000001
 10
84.157000999999994
 20
-12.528499999999999
 97
        1
330
56
 75
         0
 76
         1
 98
        1
 10
0.0
 20
0.0
  0
LWPOLYLINE
  5
58
100
AcDbEntity
  8
ASSEMBLY_OUTLINES_TOP
100
AcDbPolyline
 90
        3
 70
         1
 10
89.3
 20
-13.1
 10
90.443
 20
-12.5285
 10
90.443
 20
-13.6715
  0
HATCH
  5
59
100
AcDbEntity
  8
ASSEMBLY_OUTLINES_TOP
100
AcDbHatch
 10
0.0
 20
0.0
 30
0.0
210
0.0
220
0.0
230
1.0
  2
SOLID
 70
         1
 71
         1
 91
        1
 92
        2
 72
         0
 73
         1
 93
        3
 10
89.299999999999997
 20
-13.1
 10
90.442999999999998
 20
-12.528499999999999
 10
90.442999999999998
 20
-13.6715
 97
        1
330
58
 75
         0
 76
         1
 98
        1
 10
0.0
 20
0.0
  0
LWPOLYLINE
  5
5A
100
AcDbEntity
  8
ASSEMBLY_OUTLINES_TOP
100
AcDbPolyline
 90
        2
 70
         0
 43
0.2032
 10
29.3
 20
-10.508
 10
29.3
 20
-13.108
  0
LWPOLYLINE
  5
5B
100
AcDbEntity
  8
ASSEMBLY_OUTLINES_TOP
100
AcDbPolyline
 90
        2
 70
         0
 43
0.2032
 10
33.3
 20
-6.508
 10
33.3
 20
-13.108
  0
LWPOLYLINE
  5
5C
100
AcDbEntity
  8
ASSEMBLY_OUTLINES_TOP
100
AcDbPolyline
 90
        2
 70
         0
 43
0.2032
 10
28.7285
 20
-12.6
 10
26.4425
 20
-12.6
  0
LWPOLYLINE
  5
5D
100
AcDbEntity
  8
ASSEMBLY_OUTLINES_TOP
100
AcDbPolyline
 90
        2
 70
         0
 43
0.2032
 10
33.8715
 20
-12.6
 10
36.1575
 20
-12.6
  0
LWPOLYLINE
  5
5E
100
AcDbEntity
  8
ASSEMBLY_OUTLINES_TOP
100
AcDbPolyline
 90
        3
 70
         1
 10
29.3
 20
-12.6
 10
28.157
 20
-13.171499
 10
28.157001
 20
-12.0285
  0
HATCH
  5
5F
100
AcDbEntity
  8
ASSEMBLY_OUTLINES_TOP
100
AcDbHatch
 10
0.0
 20
0.0
 30
0.0
210
0.0
220
0.0
230
1.0
  2
SOLID
 70
         1
 71
         1
 91
        1
 92
        2
 72
         0
 73
         1
 93
        3
 10
29.300000000000001
 20
-12.6
 10
28.157
 20
-13.171499000000001
 10
28.157001000000001
 20
-12.028499999999999
 97
        1
330
5E
 75
         0
 76
         1
 98
        1
 10
0.0
 20
0.0
  0
LWPOLYLINE
  5
60
100
AcDbEntity
  8
ASSEMBLY_OUTLINES_TOP
100
AcDbPolyline
 90
        3
 70
         1
 10
33.3
 20
-12.6
 10
34.443
 20
-12.0285
 10
34.443
 20
-13.1715
  0
HATCH
  5
61
100
AcDbEntity
  8
ASSEMBLY_OUTLINES_TOP
100
AcDbHatch
 10
0.0
 20
0.0
 30
0.0
210
0.0
220
0.0
230
1.0
  2
SOLID
 70
         1
 71
         1
 91
        1
 92
        2
 72
         0
 73
         1
 93
        3
 10
33.299999999999997
 20
-12.6
 10
34.442999999999998
 20
-12.028499999999999
 10
34.442999999999998
 20
-13.1715
 97
        1
330
60
 75
         0
 76
         1
 98
        1
 10
0.0
 20
0.0
  0
LWPOLYLINE
  5
62
100
AcDbEntity
  8
ASSEMBLY_OUTLINES_TOP
100
AcDbPolyline
 90
        2
 70
         0
 43
0.2032
 10
32.792
 20
-6.0
 10
26.692
 20
-6.0
  0
LWPOLYLINE
  5
63
100
AcDbEntity
  8
ASSEMBLY_OUTLINES_TOP
100
AcDbPolyline
 90
        2
 70
         0
 43
0.2032
 10
28.792
 20
-10.0
 10
26.692
 20
-10.0
  0
LWPOLYLINE
  5
64
100
AcDbEntity
  8
ASSEMBLY_OUTLINES_TOP
100
AcDbPolyline
 90
        2
 70
         0
 43
0.2032
 10
27.2
 20
-5.4285
 10
27.2
 20
-3.1425
  0
LWPOLYLINE
  5
65
100
AcDbEntity
  8
ASSEMBLY_OUTLINES_TOP
100
AcDbPolyline
 90
        2
 70
         0
 43
0.2032
 10
27.2
 20
-10.5715
 10
27.2
 20
-12.8575
  0
LWPOLYLINE
  5
66
100
AcDbEntity
  8
ASSEMBLY_OUTLINES_TOP
100
AcDbPolyline
 90
        3
 70
         1
 10
27.2
 20
-6.0
 10
26.6285
 20
-4.857
 10
27.7715
 20
-4.857
  0
HATCH
  5
67
100
AcDbEntity
  8
ASSEMBLY_OUTLINES_TOP
100
AcDbHatch
 10
0.0
 20
0.0
 30
0.0
210
0.0
220
0.0
230
1.0
  2
SOLID
 70
         1
 71
         1
 91
        1
 92
        2
 72
         0
 73
         1
 93
        3
 10
27.199999999999999
 20
-6.0
 10
26.628499999999999
 20
-4.8570000000000002
 10
27.7715
 20
-4.8570000000000002
 97
        1
330
66
 75
         0
 76
         1
 98
        1
 10
0.0
 20
0.0
  0
LWPOLYLINE
  5
68
100
AcDbEntity
  8
ASSEMBLY_OUTLINES_TOP
100
AcDbPolyline
 90
        3
 70
         1
 10
27.2
 20
-10.0
 10
27.771499
 20
-11.143
 10
26.6285
 20
-11.142999
  0
HATCH
  5
69
100
AcDbEntity
  8
ASSEMBLY_OUTLINES_TOP
100
AcDbHatch
 10
0.0
 20
0.0
 30
0.0
210
0.0
220
0.0
230
1.0
  2
SOLID
 70
         1
 71
         1
 91
        1
 92
        2
 72
         0
 73
         1
 93
        3
 10
27.199999999999999
 20
-10.0
 10
27.771498999999999
 20
-11.143000000000001
 10
26.628499999999999
 20
-11.142999
 97
        1
330
68
 75
         0
 76
         1
 98
        1
 10
0.0
 20
0.0
  0
LWPOLYLINE
  5
6A
100
AcDbEntity
  8
ASSEMBLY_OUTLINES_TOP
100
AcDbPolyline
 90
        2
 70
         0
 43
0.2032
 10
28.792
 20
98.0
 10
26.092
 20
98.0
  0
LWPOLYLINE
  5
6B
100
AcDbEntity
  8
ASSEMBLY_OUTLINES_TOP
100
AcDbPolyline
 90
        2
 70
         0
 43
0.2032
 10
32.792
 20
84.5
 10
26.092
 20
84.5
  0
LWPOLYLINE
  5
6C
100
AcDbEntity
  8
ASSEMBLY_OUTLINES_TOP
100
AcDbPolyline
 90
        2
 70
         0
 43
0.2032
 10
26.6
 20
97.4285
 10
26.6
 20
95.036061
  0
LWPOLYLINE
  5
6D
100
AcDbEntity
  8
ASSEMBLY_OUTLINES_TOP
100
AcDbPolyline
 90
        2
 70
         0
 43
0.2032
 10
26.6
 20
87.46394
 10
26.6
 20
85.0715
  0
LWPOLYLINE
  5
6E
100
AcDbEntity
  8
ASSEMBLY_OUTLINES_TOP
100
AcDbPolyline
 90
        3
 70
         1
 10
26.6
 20
98.0
 10
27.171499
 20
96.857
 10
26.0285
 20
96.857001
  0
HATCH
  5
6F
100
AcDbEntity
  8
ASSEMBLY_OUTLINES_TOP
100
AcDbHatch
 10
0.0
 20
0.0
 30
0.0
210
0.0
220
0.0
230
1.0
  2
SOLID
 70
         1
 71
         1
 91
        1
 92
        2
 72
         0
 73
         1
 93
        3
 10
26.600000000000001
 20
98.0
 10
27.171499000000001
 20
96.856999999999999
 10
26.028500000000001
 20
96.857000999999997
 97
        1
330
6E
 75
         0
 76
         1
 98
        1
 10
0.0
 20
0.0
  0
LWPOLYLINE
  5
70
100
AcDbEntity
  8
ASSEMBLY_OUTLINES_TOP
100
AcDbPolyline
 90
        3
 70
         1
 10
26.6
 20
84.5
 10
26.0285
 20
85.643
 10
27.1715
 20
85.643
  0
HATCH
  5
71
100
AcDbEntity
  8
ASSEMBLY_OUTLINES_TOP
100
AcDbHatch
 10
0.0
 20
0.0
 30
0.0
210
0.0
220
0.0
230
1.0
  2
SOLID
 70
         1
 71
         1
 91
        1
 92
        2
 72
         0
 73
         1
 93
        3
 10
26.600000000000001
 20
84.5
 10
26.028500000000001
 20
85.643000000000001
 10
27.171500000000002
 20
85.643000000000001
 97
        1
330
70
 75
         0
 76
         1
 98
        1
 10
0.0
 20
0.0
  0
LWPOLYLINE
  5
72
100
AcDbEntity
  8
ASSEMBLY_OUTLINES_TOP
100
AcDbPolyline
 90
        2
 70
         0
 43
0.2032
 10
29.3
 20
98.508
 10
29.3
 20
101.108
  0
LWPOLYLINE
  5
73
100
AcDbEntity
  8
ASSEMBLY_OUTLINES_TOP
100
AcDbPolyline
 90
        2
 70
         0
 43
0.2032
 10
33.3
 20
85.008
 10
33.3
 20
101.108
  0
LWPOLYLINE
  5
74
100
AcDbEntity
  8
ASSEMBLY_OUTLINES_TOP
100
AcDbPolyline
 90
        2
 70
         0
 43
0.2032
 10
28.7285
 20
100.6
 10
26.4425
 20
100.6
  0
LWPOLYLINE
  5
75
100
AcDbEntity
  8
ASSEMBLY_OUTLINES_TOP
100
AcDbPolyline
 90
        2
 70
         0
 43
0.2032
 10
33.8715
 20
100.6
 10
36.1575
 20
100.6
  0
LWPOLYLINE
  5
76
100
AcDbEntity
  8
ASSEMBLY_OUTLINES_TOP
100
AcDbPolyline
 90
        3
 70
         1
 10
29.3
 20
100.6
 10
28.157
 20
100.028501
 10
28.157001
 20
101.1715
  0
HATCH
  5
77
100
AcDbEntity
  8
ASSEMBLY_OUTLINES_TOP
100
AcDbHatch
 10
0.0
 20
0.0
 30
0.0
210
0.0
220
0.0
230
1.0
  2
SOLID
 70
         1
 71
         1
 91
        1
 92
        2
 72
         0
 73
         1
 93
        3
 10
29.300000000000001
 20
100.59999999999999
 10
28.157
 20
100.02850100000001
 10
28.157001000000001
 20
101.17149999999999
 97
        1
330
76
 75
         0
 76
         1
 98
        1
 10
0.0
 20
0.0
  0
LWPOLYLINE
  5
78
100
AcDbEntity
  8
ASSEMBLY_OUTLINES_TOP
100
AcDbPolyline
 90
        3
 70
         1
 10
33.3
 20
100.6
 10
34.443
 20
101.1715
 10
34.443
 20
100.0285
  0
HATCH
  5
79
100
AcDbEntity
  8
ASSEMBLY_OUTLINES_TOP
100
AcDbHatch
 10
0.0
 20
0.0
 30
0.0
210
0.0
220
0.0
230
1.0
  2
SOLID
 70
         1
 71
         1
 91
        1
 92
        2
 72
         0
 73
         1
 93
        3
 10
33.299999999999997
 20
100.59999999999999
 10
34.442999999999998
 20
101.17149999999999
 10
34.442999999999998
 20
100.02849999999999
 97
        1
330
78
 75
         0
 76
         1
 98
        1
 10
0.0
 20
0.0
  0
TEXT
  5
7B
100
AcDbEntity
  8
ASSEMBLY_OUTLINES_TOP
100
AcDbText
 10
23.835
 20
41.072016
 30
0.0
 40
1.27
  1
108mm
 50
90.0
  7
VERIBEST_GERBER_1
 72
         1
 11
23.2
 21
44.000001
 31
0.0
100
AcDbText
 73
         2
  0
TEXT
  5
7D
100
AcDbEntity
  8
ASSEMBLY_OUTLINES_TOP
100
AcDbText
 10
56.90224
 20
101.865
 30
0.0
 40
1.27
  1
60mm
  7
VERIBEST_GERBER_0
 72
         1
 11
59.3
 21
102.5
 31
0.0
100
AcDbText
 73
         2
  0
TEXT
  5
7E
100
AcDbEntity
  8
ASSEMBLY_OUTLINES_TOP
100
AcDbText
 10
78.623896
 20
99.565
 30
0.0
 40
1.27
  1
4mm
  7
VERIBEST_GERBER_1
 72
         1
 11
80.421581
 21
100.2
 31
0.0
100
AcDbText
 73
         2
  0
TEXT
  5
7F
100
AcDbEntity
  8
ASSEMBLY_OUTLINES_TOP
100
AcDbText
 10
94.035
 20
101.080734
 30
0.0
 40
1.27
  1
4mm
 50
90.0
  7
VERIBEST_GERBER_1
 72
         1
 11
93.4
 21
102.878419
 31
0.0
100
AcDbText
 73
         2
  0
TEXT
  5
80
100
AcDbEntity
  8
ASSEMBLY_OUTLINES_TOP
100
AcDbText
 10
93.535
 20
-2.919266
 30
0.0
 40
1.27
  1
4mm
 50
90.0
  7
VERIBEST_GERBER_1
 72
         1
 11
92.9
 21
-1.121581
 31
0.0
100
AcDbText
 73
         2
  0
TEXT
  5
81
100
AcDbEntity
  8
ASSEMBLY_OUTLINES_TOP
100
AcDbText
 10
78.623896
 20
-13.735
 30
0.0
 40
1.27
  1
4mm
  7
VERIBEST_GERBER_1
 72
         1
 11
80.421581
 21
-13.1
 31
0.0
100
AcDbText
 73
         2
  0
TEXT
  5
82
100
AcDbEntity
  8
ASSEMBLY_OUTLINES_TOP
100
AcDbText
 10
22.623896
 20
-13.235
 30
0.0
 40
1.27
  1
4mm
  7
VERIBEST_GERBER_1
 72
         1
 11
24.421581
 21
-12.6
 31
0.0
100
AcDbText
 73
         2
  0
TEXT
  5
83
100
AcDbEntity
  8
ASSEMBLY_OUTLINES_TOP
100
AcDbText
 10
27.835
 20
-2.919266
 30
0.0
 40
1.27
  1
4mm
 50
90.0
  7
VERIBEST_GERBER_1
 72
         1
 11
27.2
 21
-1.121581
 31
0.0
100
AcDbText
 73
         2
  0
TEXT
  5
84
100
AcDbEntity
  8
ASSEMBLY_OUTLINES_TOP
100
AcDbText
 10
27.235
 20
87.86799
 30
0.0
 40
1.27
  1
13.5mm
 50
90.0
  7
VERIBEST_GERBER_1
 72
         1
 11
26.6
 21
91.25
 31
0.0
100
AcDbText
 73
         2
  0
TEXT
  5
85
100
AcDbEntity
  8
ASSEMBLY_OUTLINES_TOP
100
AcDbText
 10
22.623896
 20
99.965
 30
0.0
 40
1.27
  1
4mm
  7
VERIBEST_GERBER_1
 72
         1
 11
24.421581
 21
100.6
 31
0.0
100
AcDbText
 73
         2
  0
LWPOLYLINE
  5
86
100
AcDbEntity
  8
ASSEMBLY_OUTLINES_TOP
100
AcDbPolyline
 90
        4
 70
         1
 10
69.45
 20
50.3
 10
69.45
 20
55.3
 10
75.75
 20
55.3
 10
75.75
 20
50.3
  0
LWPOLYLINE
  5
87
100
AcDbEntity
  8
ASSEMBLY_OUTLINES_TOP
100
AcDbPolyline
 90
        4
 70
         1
 10
65.402408
 20
-2.525538
 10
65.402408
 20
13.474462
 10
90.802408
 20
13.474462
 10
90.802408
 20
-2.525538
  0
LWPOLYLINE
  5
88
100
AcDbEntity
  8
ASSEMBLY_OUTLINES_TOP
100
AcDbPolyline
 90
        4
 70
         1
 10
33.92
 20
90.625
 10
33.92
 20
95.705
 10
59.37
 20
95.705
 10
59.37
 20
90.625
  0
LWPOLYLINE
  5
89
100
AcDbEntity
  8
ASSEMBLY_OUTLINES_TOP
100
AcDbPolyline
 90
        4
 70
         1
 43
0.1
 10
33.5
 20
3.9
 10
33.5
 20
7.9
 10
38.5
 20
7.9
 10
38.5
 20
3.9
  0
LWPOLYLINE
  5
8A
100
AcDbEntity
  8
ASSEMBLY_OUTLINES_TOP
100
AcDbPolyline
 90
        2
 70
         1
 43
0.1
 10
37.0
 20
6.9
 42
-1.0
 10
38.0
 20
6.9
 42
-1.0
  0
LWPOLYLINE
  5
8B
100
AcDbEntity
  8
ASSEMBLY_OUTLINES_TOP
100
AcDbPolyline
 90
        4
 70
         1
 43
0.1
 10
40.308548
 20
10.576804
 10
40.308548
 20
14.276804
 10
43.308548
 20
14.276804
 10
43.308548
 20
10.576804
  0
LWPOLYLINE
  5
8C
100
AcDbEntity
  8
ASSEMBLY_OUTLINES_TOP
100
AcDbPolyline
 90
        2
 70
         0
 43
0.1
 10
40.308548
 20
14.176804
 10
43.308548
 20
14.176804
  0
LWPOLYLINE
  5
8D
100
AcDbEntity
  8
ASSEMBLY_OUTLINES_TOP
100
AcDbPolyline
 90
        2
 70
         0
 43
0.1
 10
40.308548
 20
14.076804
 10
43.308548
 20
14.076804
  0
LWPOLYLINE
  5
8E
100
AcDbEntity
  8
ASSEMBLY_OUTLINES_TOP
100
AcDbPolyline
 90
        2
 70
         0
 43
0.1
 10
40.308548
 20
13.976804
 10
43.308548
 20
13.976804
  0
LWPOLYLINE
  5
8F
100
AcDbEntity
  8
ASSEMBLY_OUTLINES_TOP
100
AcDbPolyline
 90
        2
 70
         0
 43
0.1
 10
40.308548
 20
13.876804
 10
43.308548
 20
13.876804
  0
LWPOLYLINE
  5
90
100
AcDbEntity
  8
ASSEMBLY_OUTLINES_TOP
100
AcDbPolyline
 90
        2
 70
         0
 43
0.1
 10
40.308548
 20
13.776804
 10
43.308548
 20
13.776804
  0
LWPOLYLINE
  5
91
100
AcDbEntity
  8
ASSEMBLY_OUTLINES_TOP
100
AcDbPolyline
 90
        2
 70
         0
 43
0.1
 10
40.308548
 20
13.676804
 10
43.308548
 20
13.676804
  0
LWPOLYLINE
  5
92
100
AcDbEntity
  8
ASSEMBLY_OUTLINES_TOP
100
AcDbPolyline
 90
        2
 70
         0
 43
0.1
 10
40.308548
 20
13.576804
 10
43.308548
 20
13.576804
  0
LWPOLYLINE
  5
93
100
AcDbEntity
  8
ASSEMBLY_OUTLINES_TOP
100
AcDbPolyline
 90
        2
 70
         0
 43
0.1
 10
40.308548
 20
13.476804
 10
43.308548
 20
13.476804
  0
LWPOLYLINE
  5
94
100
AcDbEntity
  8
ASSEMBLY_OUTLINES_TOP
100
AcDbPolyline
 90
        2
 70
         0
 10
62.908868
 20
47.91782
 10
62.908868
 20
55.41782
  0
LWPOLYLINE
  5
95
100
AcDbEntity
  8
ASSEMBLY_OUTLINES_TOP
100
AcDbPolyline
 90
        2
 70
         0
 10
58.908868
 20
47.91782
 10
58.908868
 20
55.41782
  0
LWPOLYLINE
  5
96
100
AcDbEntity
  8
ASSEMBLY_OUTLINES_TOP
100
AcDbPolyline
 90
        2
 70
         0
 10
62.908868
 20
55.41782
 42
1.0
 10
58.908868
 20
55.41782
  0
LWPOLYLINE
  5
97
100
AcDbEntity
  8
ASSEMBLY_OUTLINES_TOP
100
AcDbPolyline
 90
        2
 70
         0
 10
58.908868
 20
47.91782
 42
1.0
 10
62.908868
 20
47.91782
  0
LWPOLYLINE
  5
98
100
AcDbEntity
  8
ASSEMBLY_OUTLINES_TOP
100
AcDbPolyline
 90
        4
 70
         1
 43
0.1
 10
64.5
 20
68.75
 10
64.5
 20
72.45
 10
67.5
 20
72.45
 10
67.5
 20
68.75
  0
LWPOLYLINE
  5
99
100
AcDbEntity
  8
ASSEMBLY_OUTLINES_TOP
100
AcDbPolyline
 90
        2
 70
         0
 43
0.1
 10
64.5
 20
72.35
 10
67.5
 20
72.35
  0
LWPOLYLINE
  5
9A
100
AcDbEntity
  8
ASSEMBLY_OUTLINES_TOP
100
AcDbPolyline
 90
        2
 70
         0
 43
0.1
 10
64.5
 20
72.25
 10
67.5
 20
72.25
  0
LWPOLYLINE
  5
9B
100
AcDbEntity
  8
ASSEMBLY_OUTLINES_TOP
100
AcDbPolyline
 90
        2
 70
         0
 43
0.1
 10
64.5
 20
72.15
 10
67.5
 20
72.15
  0
LWPOLYLINE
  5
9C
100
AcDbEntity
  8
ASSEMBLY_OUTLINES_TOP
100
AcDbPolyline
 90
        2
 70
         0
 43
0.1
 10
64.5
 20
72.05
 10
67.5
 20
72.05
  0
LWPOLYLINE
  5
9D
100
AcDbEntity
  8
ASSEMBLY_OUTLINES_TOP
100
AcDbPolyline
 90
        2
 70
         0
 43
0.1
 10
64.5
 20
71.95
 10
67.5
 20
71.95
  0
LWPOLYLINE
  5
9E
100
AcDbEntity
  8
ASSEMBLY_OUTLINES_TOP
100
AcDbPolyline
 90
        2
 70
         0
 43
0.1
 10
64.5
 20
71.85
 10
67.5
 20
71.85
  0
LWPOLYLINE
  5
9F
100
AcDbEntity
  8
ASSEMBLY_OUTLINES_TOP
100
AcDbPolyline
 90
        2
 70
         0
 43
0.1
 10
64.5
 20
71.75
 10
67.5
 20
71.75
  0
LWPOLYLINE
  5
A0
100
AcDbEntity
  8
ASSEMBLY_OUTLINES_TOP
100
AcDbPolyline
 90
        2
 70
         0
 43
0.1
 10
64.5
 20
71.65
 10
67.5
 20
71.65
  0
LWPOLYLINE
  5
A1
100
AcDbEntity
  8
ASSEMBLY_OUTLINES_TOP
100
AcDbPolyline
 90
        4
 70
         1
 43
0.1
 10
45.844352
 20
14.918194
 10
45.844352
 20
21.918194
 10
52.844352
 20
21.918194
 10
52.844352
 20
14.918194
  0
LWPOLYLINE
  5
A2
100
AcDbEntity
  8
ASSEMBLY_OUTLINES_TOP
100
AcDbPolyline
 90
        2
 70
         1
 43
0.1
 10
51.344352
 20
20.918194
 42
-1.0
 10
52.344352
 20
20.918194
 42
-1.0
  0
LWPOLYLINE
  5
A3
100
AcDbEntity
  8
ASSEMBLY_OUTLINES_TOP
100
AcDbPolyline
 90
        4
 70
         1
 43
0.1
 10
57.8
 20
79.95
 10
57.8
 20
83.65
 10
60.8
 20
83.65
 10
60.8
 20
79.95
  0
LWPOLYLINE
  5
A4
100
AcDbEntity
  8
ASSEMBLY_OUTLINES_TOP
100
AcDbPolyline
 90
        2
 70
         0
 43
0.1
 10
57.8
 20
83.55
 10
60.8
 20
83.55
  0
LWPOLYLINE
  5
A5
100
AcDbEntity
  8
ASSEMBLY_OUTLINES_TOP
100
AcDbPolyline
 90
        2
 70
         0
 43
0.1
 10
57.8
 20
83.45
 10
60.8
 20
83.45
  0
LWPOLYLINE
  5
A6
100
AcDbEntity
  8
ASSEMBLY_OUTLINES_TOP
100
AcDbPolyline
 90
        2
 70
         0
 43
0.1
 10
57.8
 20
83.35
 10
60.8
 20
83.35
  0
LWPOLYLINE
  5
A7
100
AcDbEntity
  8
ASSEMBLY_OUTLINES_TOP
100
AcDbPolyline
 90
        2
 70
         0
 43
0.1
 10
57.8
 20
83.25
 10
60.8
 20
83.25
  0
LWPOLYLINE
  5
A8
100
AcDbEntity
  8
ASSEMBLY_OUTLINES_TOP
100
AcDbPolyline
 90
        2
 70
         0
 43
0.1
 10
57.8
 20
83.15
 10
60.8
 20
83.15
  0
LWPOLYLINE
  5
A9
100
AcDbEntity
  8
ASSEMBLY_OUTLINES_TOP
100
AcDbPolyline
 90
        2
 70
         0
 43
0.1
 10
57.8
 20
83.05
 10
60.8
 20
83.05
  0
LWPOLYLINE
  5
AA
100
AcDbEntity
  8
ASSEMBLY_OUTLINES_TOP
100
AcDbPolyline
 90
        2
 70
         0
 43
0.1
 10
57.8
 20
82.95
 10
60.8
 20
82.95
  0
LWPOLYLINE
  5
AB
100
AcDbEntity
  8
ASSEMBLY_OUTLINES_TOP
100
AcDbPolyline
 90
        2
 70
         0
 43
0.1
 10
57.8
 20
82.85
 10
60.8
 20
82.85
  0
LWPOLYLINE
  5
AC
100
AcDbEntity
  8
ASSEMBLY_OUTLINES_TOP
100
AcDbPolyline
 90
        4
 70
         1
 43
0.1
 10
60.65
 20
34.1
 10
60.65
 20
37.1
 10
64.35
 20
37.1
 10
64.35
 20
34.1
  0
LWPOLYLINE
  5
AD
100
AcDbEntity
  8
ASSEMBLY_OUTLINES_TOP
100
AcDbPolyline
 90
        2
 70
         0
 43
0.1
 10
60.75
 20
34.1
 10
60.75
 20
37.1
  0
LWPOLYLINE
  5
AE
100
AcDbEntity
  8
ASSEMBLY_OUTLINES_TOP
100
AcDbPolyline
 90
        2
 70
         0
 43
0.1
 10
60.85
 20
34.1
 10
60.85
 20
37.1
  0
LWPOLYLINE
  5
AF
100
AcDbEntity
  8
ASSEMBLY_OUTLINES_TOP
100
AcDbPolyline
 90
        2
 70
         0
 43
0.1
 10
60.95
 20
34.1
 10
60.95
 20
37.1
  0
LWPOLYLINE
  5
B0
100
AcDbEntity
  8
ASSEMBLY_OUTLINES_TOP
100
AcDbPolyline
 90
        2
 70
         0
 43
0.1
 10
61.05
 20
34.1
 10
61.05
 20
37.1
  0
LWPOLYLINE
  5
B1
100
AcDbEntity
  8
ASSEMBLY_OUTLINES_TOP
100
AcDbPolyline
 90
        2
 70
         0
 43
0.1
 10
61.15
 20
34.1
 10
61.15
 20
37.1
  0
LWPOLYLINE
  5
B2
100
AcDbEntity
  8
ASSEMBLY_OUTLINES_TOP
100
AcDbPolyline
 90
        2
 70
         0
 43
0.1
 10
61.25
 20
34.1
 10
61.25
 20
37.1
  0
LWPOLYLINE
  5
B3
100
AcDbEntity
  8
ASSEMBLY_OUTLINES_TOP
100
AcDbPolyline
 90
        2
 70
         0
 43
0.1
 10
61.35
 20
34.1
 10
61.35
 20
37.1
  0
LWPOLYLINE
  5
B4
100
AcDbEntity
  8
ASSEMBLY_OUTLINES_TOP
100
AcDbPolyline
 90
        2
 70
         0
 43
0.1
 10
61.45
 20
34.1
 10
61.45
 20
37.1
  0
LWPOLYLINE
  5
B5
100
AcDbEntity
  8
ASSEMBLY_OUTLINES_TOP
100
AcDbPolyline
 90
        4
 70
         1
 10
31.275
 20
26.79
 10
31.275
 20
77.59
 10
36.355
 20
77.59
 10
36.355
 20
26.79
  0
LWPOLYLINE
  5
B6
100
AcDbEntity
  8
ASSEMBLY_OUTLINES_TOP
100
AcDbPolyline
 90
        4
 70
         1
 10
89.276439
 20
21.571487
 10
89.276439
 20
37.571487
 10
95.176439
 20
37.571487
 10
95.176439
 20
21.571487
  0
LWPOLYLINE
  5
B7
100
AcDbEntity
  8
ASSEMBLY_OUTLINES_TOP
100
AcDbPolyline
 90
        4
 70
         1
 10
76.876439
 20
14.171487
 10
76.876439
 20
44.971487
 10
89.276439
 20
44.971487
 10
89.276439
 20
14.171487
  0
LWPOLYLINE
  5
B8
100
AcDbEntity
  8
ASSEMBLY_OUTLINES_TOP
100
AcDbPolyline
 90
        4
 70
         1
 43
0.1
 10
65.35
 20
61.25
 10
65.35
 20
64.35
 10
67.05
 20
64.35
 10
67.05
 20
61.25
  0
LWPOLYLINE
  5
B9
100
AcDbEntity
  8
ASSEMBLY_OUTLINES_TOP
100
AcDbPolyline
 90
        2
 70
         0
 43
0.1
 10
65.35
 20
64.25
 10
67.05
 20
64.25
  0
LWPOLYLINE
  5
BA
100
AcDbEntity
  8
ASSEMBLY_OUTLINES_TOP
100
AcDbPolyline
 90
        2
 70
         0
 43
0.1
 10
65.35
 20
64.15
 10
67.05
 20
64.15
  0
LWPOLYLINE
  5
BB
100
AcDbEntity
  8
ASSEMBLY_OUTLINES_TOP
100
AcDbPolyline
 90
        2
 70
         0
 43
0.1
 10
65.35
 20
64.05
 10
67.05
 20
64.05
  0
LWPOLYLINE
  5
BC
100
AcDbEntity
  8
ASSEMBLY_OUTLINES_TOP
100
AcDbPolyline
 90
        2
 70
         0
 43
0.1
 10
65.35
 20
63.95
 10
67.05
 20
63.95
  0
LWPOLYLINE
  5
BD
100
AcDbEntity
  8
ASSEMBLY_OUTLINES_TOP
100
AcDbPolyline
 90
        2
 70
         0
 43
0.1
 10
65.35
 20
63.85
 10
67.05
 20
63.85
  0
LWPOLYLINE
  5
BE
100
AcDbEntity
  8
ASSEMBLY_OUTLINES_TOP
100
AcDbPolyline
 90
        2
 70
         0
 43
0.1
 10
65.35
 20
63.75
 10
67.05
 20
63.75
  0
LWPOLYLINE
  5
BF
100
AcDbEntity
  8
ASSEMBLY_OUTLINES_TOP
100
AcDbPolyline
 90
        4
 70
         1
 43
0.1
 10
61.33954
 20
22.067264
 10
61.33954
 20
32.067264
 10
65.33954
 20
32.067264
 10
65.33954
 20
22.067264
  0
LWPOLYLINE
  5
C0
100
AcDbEntity
  8
ASSEMBLY_OUTLINES_TOP
100
AcDbPolyline
 90
        2
 70
         1
 43
0.1
 10
63.83954
 20
23.067264
 42
-1.0
 10
64.83954
 20
23.067264
 42
-1.0
  0
LWPOLYLINE
  5
C1
100
AcDbEntity
  8
ASSEMBLY_OUTLINES_TOP
100
AcDbPolyline
 90
        4
 70
         1
 43
0.1
 10
42.7
 20
36.5
 10
42.7
 20
50.5
 10
56.7
 20
50.5
 10
56.7
 20
36.5
  0
LWPOLYLINE
  5
C2
100
AcDbEntity
  8
ASSEMBLY_OUTLINES_TOP
100
AcDbPolyline
 90
        2
 70
         1
 43
0.1
 10
55.2
 20
37.5
 42
-1.0
 10
56.2
 20
37.5
 42
-1.0
  0
LWPOLYLINE
  5
C3
100
AcDbEntity
  8
ASSEMBLY_OUTLINES_TOP
100
AcDbPolyline
 90
        4
 70
         1
 43
0.1
 10
69.6
 20
70.6
 10
69.6
 20
76.2
 10
73.4
 20
76.2
 10
73.4
 20
70.6
  0
LWPOLYLINE
  5
C4
100
AcDbEntity
  8
ASSEMBLY_OUTLINES_TOP
100
AcDbPolyline
 90
        2
 70
         0
 43
0.1
 10
73.4
 20
70.7
 10
69.6
 20
70.7
  0
LWPOLYLINE
  5
C5
100
AcDbEntity
  8
ASSEMBLY_OUTLINES_TOP
100
AcDbPolyline
 90
        2
 70
         0
 43
0.1
 10
73.4
 20
70.8
 10
69.6
 20
70.8
  0
LWPOLYLINE
  5
C6
100
AcDbEntity
  8
ASSEMBLY_OUTLINES_TOP
100
AcDbPolyline
 90
        2
 70
         0
 43
0.1
 10
73.4
 20
70.9
 10
69.6
 20
70.9
  0
LWPOLYLINE
  5
C7
100
AcDbEntity
  8
ASSEMBLY_OUTLINES_TOP
100
AcDbPolyline
 90
        2
 70
         0
 43
0.1
 10
73.4
 20
71.0
 10
69.6
 20
71.0
  0
LWPOLYLINE
  5
C8
100
AcDbEntity
  8
ASSEMBLY_OUTLINES_TOP
100
AcDbPolyline
 90
        2
 70
         0
 43
0.1
 10
73.4
 20
71.1
 10
69.6
 20
71.1
  0
LWPOLYLINE
  5
C9
100
AcDbEntity
  8
ASSEMBLY_OUTLINES_TOP
100
AcDbPolyline
 90
        2
 70
         0
 43
0.1
 10
73.4
 20
71.2
 10
69.6
 20
71.2
  0
LWPOLYLINE
  5
CA
100
AcDbEntity
  8
ASSEMBLY_OUTLINES_TOP
100
AcDbPolyline
 90
        2
 70
         0
 43
0.1
 10
73.4
 20
71.3
 10
69.6
 20
71.3
  0
LWPOLYLINE
  5
CB
100
AcDbEntity
  8
ASSEMBLY_OUTLINES_TOP
100
AcDbPolyline
 90
        2
 70
         0
 43
0.1
 10
73.4
 20
71.4
 10
69.6
 20
71.4
  0
LWPOLYLINE
  5
CC
100
AcDbEntity
  8
ASSEMBLY_OUTLINES_TOP
100
AcDbPolyline
 90
        4
 70
         1
 10
68.99
 20
61.13
 10
68.99
 20
63.67
 10
76.49
 20
63.67
 10
76.49
 20
61.13
  0
LWPOLYLINE
  5
CD
100
AcDbEntity
  8
ASSEMBLY_OUTLINES_TOP
100
AcDbPolyline
 90
        4
 70
         1
 43
0.1
 10
63.5
 20
85.132
 10
63.5
 20
94.782
 10
73.9
 20
94.782
 10
73.9
 20
85.132
  0
LWPOLYLINE
  5
CE
100
AcDbEntity
  8
ASSEMBLY_OUTLINES_TOP
100
AcDbPolyline
 90
        4
 70
         1
 10
67.609364
 20
14.326332
 10
67.609364
 20
47.326332
 10
76.309364
 20
47.326332
 10
76.309364
 20
14.326332
  0
LWPOLYLINE
  5
CF
100
AcDbEntity
  8
ASSEMBLY_OUTLINES_TOP
100
AcDbPolyline
 90
        4
 70
         1
 10
67.609364
 20
27.756332
 10
67.609364
 20
34.256332
 10
68.189364
 20
34.256332
 10
68.189364
 20
27.756332
  0
LWPOLYLINE
  5
D0
100
AcDbEntity
  8
ASSEMBLY_OUTLINES_TOP
100
AcDbPolyline
 90
        4
 70
         1
 43
0.1
 10
72.0
 20
64.4
 10
72.0
 20
68.2
 10
77.6
 20
68.2
 10
77.6
 20
64.4
  0
LWPOLYLINE
  5
D1
100
AcDbEntity
  8
ASSEMBLY_OUTLINES_TOP
100
AcDbPolyline
 90
        2
 70
         0
 43
0.1
 10
72.1
 20
64.4
 10
72.1
 20
68.2
  0
LWPOLYLINE
  5
D2
100
AcDbEntity
  8
ASSEMBLY_OUTLINES_TOP
100
AcDbPolyline
 90
        2
 70
         0
 43
0.1
 10
72.2
 20
64.4
 10
72.2
 20
68.2
  0
LWPOLYLINE
  5
D3
100
AcDbEntity
  8
ASSEMBLY_OUTLINES_TOP
100
AcDbPolyline
 90
        2
 70
         0
 43
0.1
 10
72.3
 20
64.4
 10
72.3
 20
68.2
  0
LWPOLYLINE
  5
D4
100
AcDbEntity
  8
ASSEMBLY_OUTLINES_TOP
100
AcDbPolyline
 90
        2
 70
         0
 43
0.1
 10
72.4
 20
64.4
 10
72.4
 20
68.2
  0
LWPOLYLINE
  5
D5
100
AcDbEntity
  8
ASSEMBLY_OUTLINES_TOP
100
AcDbPolyline
 90
        2
 70
         0
 43
0.1
 10
72.5
 20
64.4
 10
72.5
 20
68.2
  0
LWPOLYLINE
  5
D6
100
AcDbEntity
  8
ASSEMBLY_OUTLINES_TOP
100
AcDbPolyline
 90
        2
 70
         0
 43
0.1
 10
72.6
 20
64.4
 10
72.6
 20
68.2
  0
LWPOLYLINE
  5
D7
100
AcDbEntity
  8
ASSEMBLY_OUTLINES_TOP
100
AcDbPolyline
 90
        2
 70
         0
 43
0.1
 10
72.7
 20
64.4
 10
72.7
 20
68.2
  0
LWPOLYLINE
  5
D8
100
AcDbEntity
  8
ASSEMBLY_OUTLINES_TOP
100
AcDbPolyline
 90
        2
 70
         0
 43
0.1
 10
72.8
 20
64.4
 10
72.8
 20
68.2
  0
CIRCLE
  5
D9
100
AcDbEntity
  8
ASSEMBLY_OUTLINES_TOP
100
AcDbCircle
 10
63.876528
 20
43.393726
 30
0.0
 40
2.0
  0
LWPOLYLINE
  5
DA
100
AcDbEntity
  8
ASSEMBLY_OUTLINES_TOP
100
AcDbPolyline
 90
        4
 70
         1
 10
68.99
 20
58.43
 10
68.99
 20
60.97
 10
76.49
 20
60.97
 10
76.49
 20
58.43
  0
LWPOLYLINE
  5
DB
100
AcDbEntity
  8
ASSEMBLY_OUTLINES_TOP
100
AcDbPolyline
 90
        4
 70
         1
 10
40.53
 20
-2.87
 10
40.53
 20
2.21
 10
43.07
 20
2.21
 10
43.07
 20
-2.87
  0
LWPOLYLINE
  5
DC
100
AcDbEntity
  8
ASSEMBLY_OUTLINES_TOP
100
AcDbPolyline
 90
        4
 70
         1
 10
81.09
 20
65.03
 10
81.09
 20
67.57
 10
86.17
 20
67.57
 10
86.17
 20
65.03
  0
LWPOLYLINE
  5
DD
100
AcDbEntity
  8
ASSEMBLY_OUTLINES_TOP
100
AcDbPolyline
 90
        4
 70
         1
 10
76.8
 20
50.4
 10
76.8
 20
63.6
 10
90.8
 20
63.6
 10
90.8
 20
50.4
  0
LWPOLYLINE
  5
DE
100
AcDbEntity
  8
ASSEMBLY_OUTLINES_TOP
100
AcDbPolyline
 90
        4
 70
         1
 10
76.63
 20
45.63
 10
76.63
 20
48.17
 10
81.71
 20
48.17
 10
81.71
 20
45.63
  0
LWPOLYLINE
  5
DF
100
AcDbEntity
  8
ASSEMBLY_OUTLINES_TOP
100
AcDbPolyline
 90
        4
 70
         1
 10
83.29
 20
45.63
 10
83.29
 20
48.17
 10
88.37
 20
48.17
 10
88.37
 20
45.63
  0
LWPOLYLINE
  5
E0
100
AcDbEntity
  8
ASSEMBLY_OUTLINES_TOP
100
AcDbPolyline
 90
        4
 70
         1
 10
38.29
 20
-8.27
 10
38.29
 20
-5.73
 10
43.37
 20
-5.73
 10
43.37
 20
-8.27
  0
LWPOLYLINE
  5
E1
100
AcDbEntity
  8
ASSEMBLY_OUTLINES_TOP
100
AcDbPolyline
 90
        4
 70
         1
 10
74.415227
 20
69.142035
 10
74.415227
 20
81.142035
 10
90.365227
 20
81.142035
 10
90.365227
 20
69.142035
  0
LWPOLYLINE
  5
E2
100
AcDbEntity
  8
ASSEMBLY_OUTLINES_TOP
100
AcDbPolyline
 90
        4
 70
         1
 10
76.350002
 20
81.649998
 10
76.350002
 20
90.649998
 10
90.850002
 20
90.649998
 10
90.850002
 20
81.649998
  0
LWPOLYLINE
  5
E3
100
AcDbEntity
  8
ASSEMBLY_OUTLINES_TOP
100
AcDbPolyline
 90
        4
 70
         1
 43
0.1
 10
33.617932
 20
15.103426
 10
33.617932
 20
22.803426
 10
38.897932
 20
22.803426
 10
38.897932
 20
15.103426
  0
LWPOLYLINE
  5
E4
100
AcDbEntity
  8
ASSEMBLY_OUTLINES_TOP
100
AcDbPolyline
 90
        2
 70
         0
 43
0.1
 10
38.897932
 20
15.203426
 10
38.797932
 20
15.103426
  0
LWPOLYLINE
  5
E5
100
AcDbEntity
  8
ASSEMBLY_OUTLINES_TOP
100
AcDbPolyline
 90
        2
 70
         0
 43
0.1
 10
38.897932
 20
15.303426
 10
38.697932
 20
15.103426
  0
LWPOLYLINE
  5
E6
100
AcDbEntity
  8
ASSEMBLY_OUTLINES_TOP
100
AcDbPolyline
 90
        2
 70
         0
 43
0.1
 10
38.897932
 20
15.403426
 10
38.597932
 20
15.103426
  0
LWPOLYLINE
  5
E7
100
AcDbEntity
  8
ASSEMBLY_OUTLINES_TOP
100
AcDbPolyline
 90
        2
 70
         0
 43
0.1
 10
38.897932
 20
15.503426
 10
38.497932
 20
15.103426
  0
LWPOLYLINE
  5
E8
100
AcDbEntity
  8
ASSEMBLY_OUTLINES_TOP
100
AcDbPolyline
 90
        2
 70
         0
 43
0.1
 10
38.897932
 20
15.603426
 10
38.397932
 20
15.103426
  0
LWPOLYLINE
  5
E9
100
AcDbEntity
  8
ASSEMBLY_OUTLINES_TOP
100
AcDbPolyline
 90
        2
 70
         0
 43
0.1
 10
38.897932
 20
15.703426
 10
38.297932
 20
15.103426
  0
TEXT
  5
EA
100
AcDbEntity
  8
ASSEMBLY_REF_DES_TOP
100
AcDbText
 10
73.05
 20
52.3
 30
0.0
 40
1.0
  1
SW1
  7
VERIBEST_GERBER_0
 72
         2
 11
75.85
 21
52.3
 31
0.0
100
AcDbText
 73
         1
  0
TEXT
  5
EB
100
AcDbEntity
  8
ASSEMBLY_REF_DES_TOP
100
AcDbText
 10
75.552408
 20
6.337462
 30
0.0
 40
1.2
  1
T1
 50
270.0
  7
VERIBEST_GERBER_0
 72
         1
 11
76.152408
 21
5.224462
 31
0.0
100
AcDbText
 73
         2
  0
TEXT
  5
ED
100
AcDbEntity
  8
ASSEMBLY_REF_DES_TOP
100
AcDbText
 10
45.8565
 20
93.0815
 30
0.0
 40
1.0
  1
X1
  7
GOST_TYPE_B
 72
         1
 11
46.54
 21
93.575
 31
0.0
100
AcDbText
 73
         2
  0
TEXT
  5
EE
100
AcDbEntity
  8
ASSEMBLY_REF_DES_TOP
100
AcDbText
 10
35.4
 20
7.6022
 30
0.0
 40
1.2
  1
DA4
 50
270.0
  7
VERIBEST_GERBER_0
 72
         1
 11
36.0
 21
5.9
 31
0.0
100
AcDbText
 73
         2
  0
TEXT
  5
EF
100
AcDbEntity
  8
ASSEMBLY_REF_DES_TOP
100
AcDbText
 10
40.675748
 20
11.826804
 30
0.0
 40
1.2
  1
C3
  7
VERIBEST_GERBER_0
 72
         1
 11
41.808548
 21
12.426804
 31
0.0
100
AcDbText
 73
         2
  0
TEXT
  5
F0
100
AcDbEntity
  8
ASSEMBLY_REF_DES_TOP
100
AcDbText
 10
59.728868
 20
51.06782
 30
0.0
 40
1.2
  1
ZQ1
  7
VERIBEST_GERBER_0
 72
         1
 11
61.408868
 21
51.66782
 31
0.0
100
AcDbText
 73
         2
  0
TEXT
  5
F1
100
AcDbEntity
  8
ASSEMBLY_REF_DES_TOP
100
AcDbText
 10
65.25975
 20
72.139
 30
0.0
 40
1.5
  1
C29
 50
270.0
  7
GOST_TYPE_B
 72
         1
 11
66.0
 21
70.6
 31
0.0
100
AcDbText
 73
         2
  0
TEXT
  5
F2
100
AcDbEntity
  8
ASSEMBLY_REF_DES_TOP
100
AcDbText
 10
48.744352
 20
20.119194
 30
0.0
 40
1.2
  1
DD2
 50
270.0
  7
VERIBEST_GERBER_0
 72
         1
 11
49.344352
 21
18.418194
 31
0.0
100
AcDbText
 73
         2
  0
TEXT
  5
F3
100
AcDbEntity
  8
ASSEMBLY_REF_DES_TOP
100
AcDbText
 10
58.7
 20
82.9328
 30
0.0
 40
1.2
  1
C2
 50
270.0
  7
VERIBEST_GERBER_0
 72
         1
 11
59.3
 21
81.8
 31
0.0
100
AcDbText
 73
         2
  0
TEXT
  5
F4
100
AcDbEntity
  8
ASSEMBLY_REF_DES_TOP
100
AcDbText
 10
61.11025
 20
34.85
 30
0.0
 40
1.5
  1
C1
  7
VERIBEST_GERBER_0
 72
         1
 11
62.5
 21
35.6
 31
0.0
100
AcDbText
 73
         2
  0
TEXT
  5
F5
100
AcDbEntity
  8
ASSEMBLY_REF_DES_TOP
100
AcDbText
 10
33.7315
 20
53.0015
 30
0.0
 40
1.0
  1
X5
 50
270.0
  7
GOST_TYPE_B
 72
         1
 11
34.225
 21
52.22
 31
0.0
100
AcDbText
 73
         2
  0
TEXT
  5
F6
100
AcDbEntity
  8
ASSEMBLY_REF_DES_TOP
100
AcDbText
 10
83.726439
 20
30.729487
 30
0.0
 40
1.2
  1
X7
 50
270.0
  7
VERIBEST_GERBER_0
 72
         2
 11
83.726439
 21
28.461487
 31
0.0
100
AcDbText
 73
         1
  0
TEXT
  5
F7
100
AcDbEntity
  8
ASSEMBLY_REF_DES_TOP
100
AcDbText
 10
64.52
 20
62.2
 30
0.0
 40
1.2
  1
HL1
  7
VERIBEST_GERBER_0
 72
         1
 11
66.2
 21
62.8
 31
0.0
100
AcDbText
 73
         2
  0
TEXT
  5
F8
100
AcDbEntity
  8
ASSEMBLY_REF_DES_TOP
100
AcDbText
 10
62.73954
 20
28.769464
 30
0.0
 40
1.2
  1
DA2
 50
270.0
  7
VERIBEST_GERBER_0
 72
         1
 11
63.33954
 21
27.067264
 31
0.0
100
AcDbText
 73
         2
  0
TEXT
  5
F9
100
AcDbEntity
  8
ASSEMBLY_REF_DES_TOP
100
AcDbText
 10
47.6
 20
42.75
 30
0.0
 40
1.5
  1
DD1
  7
VERIBEST_GERBER_0
 72
         1
 11
49.7
 21
43.5
 31
0.0
100
AcDbText
 73
         2
  0
TEXT
  5
FA
100
AcDbEntity
  8
ASSEMBLY_REF_DES_TOP
100
AcDbText
 10
69.82
 20
72.8
 30
0.0
 40
1.2
  1
VD1
  7
VERIBEST_GERBER_0
 72
         1
 11
71.5
 21
73.4
 31
0.0
100
AcDbText
 73
         2
  0
TEXT
  5
FB
100
AcDbEntity
  8
ASSEMBLY_REF_DES_TOP
100
AcDbText
 10
74.06
 20
61.9
 30
0.0
 40
1.0
  1
J2
  7
VERIBEST_GERBER_0
 72
         2
 11
75.95
 21
61.9
 31
0.0
100
AcDbText
 73
         1
  0
TEXT
  5
FC
100
AcDbEntity
  8
ASSEMBLY_REF_DES_TOP
100
AcDbText
 10
66.5985
 20
87.25
 30
0.0
 40
1.5
  1
DA1
  7
VERIBEST_GERBER_0
 72
         1
 11
68.7
 21
88.0
 31
0.0
100
AcDbText
 73
         2
  0
TEXT
  5
FD
100
AcDbEntity
  8
ASSEMBLY_REF_DES_TOP
100
AcDbText
 10
69.421364
 20
27.506332
 30
0.0
 40
1.2
  1
X6
  7
VERIBEST_GERBER_0
 72
         2
 11
71.689364
 21
27.506332
 31
0.0
100
AcDbText
 73
         1
  0
TEXT
  5
FE
100
AcDbEntity
  8
ASSEMBLY_REF_DES_TOP
100
AcDbText
 10
73.099
 20
65.7
 30
0.0
 40
1.2
  1
VD2
  7
VERIBEST_GERBER_0
 72
         1
 11
74.8
 21
66.3
 31
0.0
100
AcDbText
 73
         2
  0
TEXT
  5
FF
100
AcDbEntity
  8
ASSEMBLY_REF_DES_TOP
100
AcDbText
 10
63.326528
 20
44.995726
 30
0.0
 40
1.2
  1
ZQ2
 50
270.0
  7
VERIBEST_GERBER_0
 72
         2
 11
63.326528
 21
41.593726
 31
0.0
100
AcDbText
 73
         1
  0
TEXT
  5
100
100
AcDbEntity
  8
ASSEMBLY_REF_DES_TOP
100
AcDbText
 10
74.06
 20
59.2
 30
0.0
 40
1.0
  1
J3
  7
VERIBEST_GERBER_0
 72
         2
 11
75.95
 21
59.2
 31
0.0
100
AcDbText
 73
         1
  0
TEXT
  5
101
100
AcDbEntity
  8
ASSEMBLY_REF_DES_TOP
100
AcDbText
 10
38.532
 20
0.2
 30
0.0
 40
1.2
  1
J6
  7
VERIBEST_GERBER_0
 72
         2
 11
40.8
 21
0.2
 31
0.0
100
AcDbText
 73
         1
  0
TEXT
  5
102
100
AcDbEntity
  8
ASSEMBLY_REF_DES_TOP
100
AcDbText
 10
82.9
 20
67.626
 30
0.0
 40
1.2
  1
J1
 50
270.0
  7
VERIBEST_GERBER_0
 72
         2
 11
82.9
 21
65.4
 31
0.0
100
AcDbText
 73
         1
  0
TEXT
  5
103
100
AcDbEntity
  8
ASSEMBLY_REF_DES_TOP
100
AcDbText
 10
84.1
 20
55.74
 30
0.0
 40
1.0
  1
X4
 50
270.0
  7
VERIBEST_GERBER_0
 72
         2
 11
84.1
 21
53.85
 31
0.0
100
AcDbText
 73
         1
  0
TEXT
  5
104
100
AcDbEntity
  8
ASSEMBLY_REF_DES_TOP
100
AcDbText
 10
75.832
 20
47.4
 30
0.0
 40
1.2
  1
J4
  7
VERIBEST_GERBER_0
 72
         2
 11
78.1
 21
47.4
 31
0.0
100
AcDbText
 73
         1
  0
TEXT
  5
105
100
AcDbEntity
  8
ASSEMBLY_REF_DES_TOP
100
AcDbText
 10
84.632
 20
46.4
 30
0.0
 40
1.2
  1
J5
  7
VERIBEST_GERBER_0
 72
         2
 11
86.9
 21
46.4
 31
0.0
100
AcDbText
 73
         1
  0
TEXT
  5
106
100
AcDbEntity
  8
ASSEMBLY_REF_DES_TOP
100
AcDbText
 10
37.432
 20
-6.4
 30
0.0
 40
1.2
  1
J7
  7
VERIBEST_GERBER_0
 72
         2
 11
39.7
 21
-6.4
 31
0.0
100
AcDbText
 73
         1
  0
TEXT
  5
107
100
AcDbEntity
  8
ASSEMBLY_REF_DES_TOP
100
AcDbText
 10
82.347227
 20
74.192035
 30
0.0
 40
1.2
  1
X3
  7
VERIBEST_GERBER_0
 72
         2
 11
84.615227
 21
74.192035
 31
0.0
100
AcDbText
 73
         1
  0
TEXT
  5
108
100
AcDbEntity
  8
ASSEMBLY_REF_DES_TOP
100
AcDbText
 10
86.150002
 20
86.967998
 30
0.0
 40
1.2
  1
X2
 50
270.0
  7
VERIBEST_GERBER_0
 72
         2
 11
86.150002
 21
84.699998
 31
0.0
100
AcDbText
 73
         1
  0
TEXT
  5
109
100
AcDbEntity
  8
ASSEMBLY_REF_DES_TOP
100
AcDbText
 10
34.555732
 20
18.353426
 30
0.0
 40
1.2
  1
DA3
  7
VERIBEST_GERBER_0
 72
         1
 11
36.257932
 21
18.953426
 31
0.0
100
AcDbText
 73
         2
  0
LWPOLYLINE
  5
10A
100
AcDbEntity
  8
BOARD_OUTLINE
100
AcDbPolyline
 90
        4
 70
         1
 43
0.25
 10
29.3
 20
-10.0
 10
29.3
 20
98.0
 10
89.3
 20
98.0
 10
89.3
 20
-10.0
  0
CIRCLE
  5
10B
100
AcDbEntity
  8
MOUNTING_HOLES_LAYER_TOP
100
AcDbCircle
 10
33.3
 20
-6.0
 30
0.0
 40
2.25
  0
HATCH
  5
10C
100
AcDbEntity
  8
MOUNTING_HOLES_LAYER_TOP
100
AcDbHatch
 10
0.0
 20
0.0
 30
0.0
210
0.0
220
0.0
230
1.0
  2
SOLID
 70
         1
 71
         1
 91
        1
 92
        1
 93
        1
 72
         2
 10
33.299999999999997
 20
-6.0
 40
2.25
 50
0.0
 51
360.0
 73
         1
 97
        1
330
10B
 75
         0
 76
         1
 98
        1
 10
0.0
 20
0.0
  0
CIRCLE
  5
10D
100
AcDbEntity
  8
MOUNTING_HOLES_LAYER_TOP
100
AcDbCircle
 10
33.3
 20
84.5
 30
0.0
 40
2.25
  0
HATCH
  5
10E
100
AcDbEntity
  8
MOUNTING_HOLES_LAYER_TOP
100
AcDbHatch
 10
0.0
 20
0.0
 30
0.0
210
0.0
220
0.0
230
1.0
  2
SOLID
 70
         1
 71
         1
 91
        1
 92
        1
 93
        1
 72
         2
 10
33.299999999999997
 20
84.5
 40
2.25
 50
0.0
 51
360.0
 73
         1
 97
        1
330
10D
 75
         0
 76
         1
 98
        1
 10
0.0
 20
0.0
  0
CIRCLE
  5
10F
100
AcDbEntity
  8
MOUNTING_HOLES_LAYER_TOP
100
AcDbCircle
 10
85.3
 20
94.0
 30
0.0
 40
2.25
  0
HATCH
  5
110
100
AcDbEntity
  8
MOUNTING_HOLES_LAYER_TOP
100
AcDbHatch
 10
0.0
 20
0.0
 30
0.0
210
0.0
220
0.0
230
1.0
  2
SOLID
 70
         1
 71
         1
 91
        1
 92
        1
 93
        1
 72
         2
 10
85.299999999999997
 20
94.0
 40
2.25
 50
0.0
 51
360.0
 73
         1
 97
        1
330
10F
 75
         0
 76
         1
 98
        1
 10
0.0
 20
0.0
  0
CIRCLE
  5
111
100
AcDbEntity
  8
MOUNTING_HOLES_LAYER_TOP
100
AcDbCircle
 10
85.3
 20
-6.0
 30
0.0
 40
2.25
  0
HATCH
  5
112
100
AcDbEntity
  8
MOUNTING_HOLES_LAYER_TOP
100
AcDbHatch
 10
0.0
 20
0.0
 30
0.0
210
0.0
220
0.0
230
1.0
  2
SOLID
 70
         1
 71
         1
 91
        1
 92
        1
 93
        1
 72
         2
 10
85.299999999999997
 20
-6.0
 40
2.25
 50
0.0
 51
360.0
 73
         1
 97
        1
330
111
 75
         0
 76
         1
 98
        1
 10
0.0
 20
0.0
  0
CIRCLE
  5
113
100
AcDbEntity
  8
MOUNTING_HOLES_LAYER_TOP
100
AcDbCircle
 10
33.8
 20
29.33
 30
0.0
 40
0.9
  0
HATCH
  5
114
100
AcDbEntity
  8
MOUNTING_HOLES_LAYER_TOP
100
AcDbHatch
 10
0.0
 20
0.0
 30
0.0
210
0.0
220
0.0
230
1.0
  2
SOLID
 70
         1
 71
         1
 91
        1
 92
        1
 93
        1
 72
         2
 10
33.799999999999997
 20
29.329999999999998
 40
0.9
 50
0.0
 51
360.0
 73
         1
 97
        1
330
113
 75
         0
 76
         1
 98
        1
 10
0.0
 20
0.0
  0
CIRCLE
  5
115
100
AcDbEntity
  8
MOUNTING_HOLES_LAYER_TOP
100
AcDbCircle
 10
33.8
 20
75.05
 30
0.0
 40
0.9
  0
HATCH
  5
116
100
AcDbEntity
  8
MOUNTING_HOLES_LAYER_TOP
100
AcDbHatch
 10
0.0
 20
0.0
 30
0.0
210
0.0
220
0.0
230
1.0
  2
SOLID
 70
         1
 71
         1
 91
        1
 92
        1
 93
        1
 72
         2
 10
33.799999999999997
 20
75.049999999999997
 40
0.9
 50
0.0
 51
360.0
 73
         1
 97
        1
330
115
 75
         0
 76
         1
 98
        1
 10
0.0
 20
0.0
  0
CIRCLE
  5
117
100
AcDbEntity
  8
PART_HOLES_LAYER_TOP
100
AcDbCircle
 10
73.652408
 20
1.029462
 30
0.0
 40
0.45
  0
HATCH
  5
118
100
AcDbEntity
  8
PART_HOLES_LAYER_TOP
100
AcDbHatch
 10
0.0
 20
0.0
 30
0.0
210
0.0
220
0.0
230
1.0
  2
SOLID
 70
         1
 71
         1
 91
        1
 92
        1
 93
        1
 72
         2
 10
73.652407999999994
 20
1.0294620000000001
 40
0.45
 50
0.0
 51
360.0
 73
         1
 97
        1
330
117
 75
         0
 76
         1
 98
        1
 10
0.0
 20
0.0
  0
CIRCLE
  5
119
100
AcDbEntity
  8
PART_HOLES_LAYER_TOP
100
AcDbCircle
 10
73.652408
 20
6.109462
 30
0.0
 40
0.45
  0
HATCH
  5
11A
100
AcDbEntity
  8
PART_HOLES_LAYER_TOP
100
AcDbHatch
 10
0.0
 20
0.0
 30
0.0
210
0.0
220
0.0
230
1.0
  2
SOLID
 70
         1
 71
         1
 91
        1
 92
        1
 93
        1
 72
         2
 10
73.652407999999994
 20
6.1094619999999997
 40
0.45
 50
0.0
 51
360.0
 73
         1
 97
        1
330
119
 75
         0
 76
         1
 98
        1
 10
0.0
 20
0.0
  0
CIRCLE
  5
11B
100
AcDbEntity
  8
PART_HOLES_LAYER_TOP
100
AcDbCircle
 10
71.112408
 20
4.839462
 30
0.0
 40
0.45
  0
HATCH
  5
11C
100
AcDbEntity
  8
PART_HOLES_LAYER_TOP
100
AcDbHatch
 10
0.0
 20
0.0
 30
0.0
210
0.0
220
0.0
230
1.0
  2
SOLID
 70
         1
 71
         1
 91
        1
 92
        1
 93
        1
 72
         2
 10
71.112408000000002
 20
4.8394620000000002
 40
0.45
 50
0.0
 51
360.0
 73
         1
 97
        1
330
11B
 75
         0
 76
         1
 98
        1
 10
0.0
 20
0.0
  0
CIRCLE
  5
11D
100
AcDbEntity
  8
PART_HOLES_LAYER_TOP
100
AcDbCircle
 10
80.002408
 20
-0.235538
 30
0.0
 40
1.625
  0
HATCH
  5
11E
100
AcDbEntity
  8
PART_HOLES_LAYER_TOP
100
AcDbHatch
 10
0.0
 20
0.0
 30
0.0
210
0.0
220
0.0
230
1.0
  2
SOLID
 70
         1
 71
         1
 91
        1
 92
        1
 93
        1
 72
         2
 10
80.002408000000003
 20
-0.235538
 40
1.625
 50
0.0
 51
360.0
 73
         1
 97
        1
330
11D
 75
         0
 76
         1
 98
        1
 10
0.0
 20
0.0
  0
CIRCLE
  5
11F
100
AcDbEntity
  8
PART_HOLES_LAYER_TOP
100
AcDbCircle
 10
80.002408
 20
11.184462
 30
0.0
 40
1.625
  0
HATCH
  5
120
100
AcDbEntity
  8
PART_HOLES_LAYER_TOP
100
AcDbHatch
 10
0.0
 20
0.0
 30
0.0
210
0.0
220
0.0
230
1.0
  2
SOLID
 70
         1
 71
         1
 91
        1
 92
        1
 93
        1
 72
         2
 10
80.002408000000003
 20
11.184462
 40
1.625
 50
0.0
 51
360.0
 73
         1
 97
        1
330
11F
 75
         0
 76
         1
 98
        1
 10
0.0
 20
0.0
  0
CIRCLE
  5
121
100
AcDbEntity
  8
PART_HOLES_LAYER_TOP
100
AcDbCircle
 10
76.952408
 20
13.344462
 30
0.0
 40
0.95
  0
HATCH
  5
122
100
AcDbEntity
  8
PART_HOLES_LAYER_TOP
100
AcDbHatch
 10
0.0
 20
0.0
 30
0.0
210
0.0
220
0.0
230
1.0
  2
SOLID
 70
         1
 71
         1
 91
        1
 92
        1
 93
        1
 72
         2
 10
76.952408000000005
 20
13.344462
 40
0.95
 50
0.0
 51
360.0
 73
         1
 97
        1
330
121
 75
         0
 76
         1
 98
        1
 10
0.0
 20
0.0
  0
CIRCLE
  5
123
100
AcDbEntity
  8
PART_HOLES_LAYER_TOP
100
AcDbCircle
 10
73.652408
 20
8.649462
 30
0.0
 40
0.45
  0
HATCH
  5
124
100
AcDbEntity
  8
PART_HOLES_LAYER_TOP
100
AcDbHatch
 10
0.0
 20
0.0
 30
0.0
210
0.0
220
0.0
230
1.0
  2
SOLID
 70
         1
 71
         1
 91
        1
 92
        1
 93
        1
 72
         2
 10
73.652407999999994
 20
8.6494619999999998
 40
0.45
 50
0.0
 51
360.0
 73
         1
 97
        1
330
123
 75
         0
 76
         1
 98
        1
 10
0.0
 20
0.0
  0
CIRCLE
  5
125
100
AcDbEntity
  8
PART_HOLES_LAYER_TOP
100
AcDbCircle
 10
71.112408
 20
9.919462
 30
0.0
 40
0.45
  0
HATCH
  5
126
100
AcDbEntity
  8
PART_HOLES_LAYER_TOP
100
AcDbHatch
 10
0.0
 20
0.0
 30
0.0
210
0.0
220
0.0
230
1.0
  2
SOLID
 70
         1
 71
         1
 91
        1
 92
        1
 93
        1
 72
         2
 10
71.112408000000002
 20
9.9194619999999993
 40
0.45
 50
0.0
 51
360.0
 73
         1
 97
        1
330
125
 75
         0
 76
         1
 98
        1
 10
0.0
 20
0.0
  0
CIRCLE
  5
127
100
AcDbEntity
  8
PART_HOLES_LAYER_TOP
100
AcDbCircle
 10
71.112408
 20
2.299462
 30
0.0
 40
0.45
  0
HATCH
  5
128
100
AcDbEntity
  8
PART_HOLES_LAYER_TOP
100
AcDbHatch
 10
0.0
 20
0.0
 30
0.0
210
0.0
220
0.0
230
1.0
  2
SOLID
 70
         1
 71
         1
 91
        1
 92
        1
 93
        1
 72
         2
 10
71.112408000000002
 20
2.2994620000000001
 40
0.45
 50
0.0
 51
360.0
 73
         1
 97
        1
330
127
 75
         0
 76
         1
 98
        1
 10
0.0
 20
0.0
  0
CIRCLE
  5
129
100
AcDbEntity
  8
PART_HOLES_LAYER_TOP
100
AcDbCircle
 10
71.112408
 20
7.379462
 30
0.0
 40
0.45
  0
HATCH
  5
12A
100
AcDbEntity
  8
PART_HOLES_LAYER_TOP
100
AcDbHatch
 10
0.0
 20
0.0
 30
0.0
210
0.0
220
0.0
230
1.0
  2
SOLID
 70
         1
 71
         1
 91
        1
 92
        1
 93
        1
 72
         2
 10
71.112408000000002
 20
7.3794620000000002
 40
0.45
 50
0.0
 51
360.0
 73
         1
 97
        1
330
129
 75
         0
 76
         1
 98
        1
 10
0.0
 20
0.0
  0
CIRCLE
  5
12B
100
AcDbEntity
  8
PART_HOLES_LAYER_TOP
100
AcDbCircle
 10
66.282408
 20
0.014462
 30
0.0
 40
0.75
  0
HATCH
  5
12C
100
AcDbEntity
  8
PART_HOLES_LAYER_TOP
100
AcDbHatch
 10
0.0
 20
0.0
 30
0.0
210
0.0
220
0.0
230
1.0
  2
SOLID
 70
         1
 71
         1
 91
        1
 92
        1
 93
        1
 72
         2
 10
66.282408000000004
 20
0.014462
 40
0.75
 50
0.0
 51
360.0
 73
         1
 97
        1
330
12B
 75
         0
 76
         1
 98
        1
 10
0.0
 20
0.0
  0
CIRCLE
  5
12D
100
AcDbEntity
  8
PART_HOLES_LAYER_TOP
100
AcDbCircle
 10
66.282408
 20
2.554462
 30
0.0
 40
0.75
  0
HATCH
  5
12E
100
AcDbEntity
  8
PART_HOLES_LAYER_TOP
100
AcDbHatch
 10
0.0
 20
0.0
 30
0.0
210
0.0
220
0.0
230
1.0
  2
SOLID
 70
         1
 71
         1
 91
        1
 92
        1
 93
        1
 72
         2
 10
66.282408000000004
 20
2.554462
 40
0.75
 50
0.0
 51
360.0
 73
         1
 97
        1
330
12D
 75
         0
 76
         1
 98
        1
 10
0.0
 20
0.0
  0
CIRCLE
  5
12F
100
AcDbEntity
  8
PART_HOLES_LAYER_TOP
100
AcDbCircle
 10
83.382408
 20
1.684462
 30
0.0
 40
0.6
  0
HATCH
  5
130
100
AcDbEntity
  8
PART_HOLES_LAYER_TOP
100
AcDbHatch
 10
0.0
 20
0.0
 30
0.0
210
0.0
220
0.0
230
1.0
  2
SOLID
 70
         1
 71
         1
 91
        1
 92
        1
 93
        1
 72
         2
 10
83.382407999999998
 20
1.6844619999999999
 40
0.6
 50
0.0
 51
360.0
 73
         1
 97
        1
330
12F
 75
         0
 76
         1
 98
        1
 10
0.0
 20
0.0
  0
CIRCLE
  5
131
100
AcDbEntity
  8
PART_HOLES_LAYER_TOP
100
AcDbCircle
 10
66.282408
 20
8.394462
 30
0.0
 40
0.75
  0
HATCH
  5
132
100
AcDbEntity
  8
PART_HOLES_LAYER_TOP
100
AcDbHatch
 10
0.0
 20
0.0
 30
0.0
210
0.0
220
0.0
230
1.0
  2
SOLID
 70
         1
 71
         1
 91
        1
 92
        1
 93
        1
 72
         2
 10
66.282408000000004
 20
8.3944620000000008
 40
0.75
 50
0.0
 51
360.0
 73
         1
 97
        1
330
131
 75
         0
 76
         1
 98
        1
 10
0.0
 20
0.0
  0
CIRCLE
  5
133
100
AcDbEntity
  8
PART_HOLES_LAYER_TOP
100
AcDbCircle
 10
85.082408
 20
9.264462
 30
0.0
 40
0.6
  0
HATCH
  5
134
100
AcDbEntity
  8
PART_HOLES_LAYER_TOP
100
AcDbHatch
 10
0.0
 20
0.0
 30
0.0
210
0.0
220
0.0
230
1.0
  2
SOLID
 70
         1
 71
         1
 91
        1
 92
        1
 93
        1
 72
         2
 10
85.082408000000001
 20
9.264462
 40
0.6
 50
0.0
 51
360.0
 73
         1
 97
        1
330
133
 75
         0
 76
         1
 98
        1
 10
0.0
 20
0.0
  0
CIRCLE
  5
135
100
AcDbEntity
  8
PART_HOLES_LAYER_TOP
100
AcDbCircle
 10
66.282408
 20
10.934462
 30
0.0
 40
0.75
  0
HATCH
  5
136
100
AcDbEntity
  8
PART_HOLES_LAYER_TOP
100
AcDbHatch
 10
0.0
 20
0.0
 30
0.0
210
0.0
220
0.0
230
1.0
  2
SOLID
 70
         1
 71
         1
 91
        1
 92
        1
 93
        1
 72
         2
 10
66.282408000000004
 20
10.934462
 40
0.75
 50
0.0
 51
360.0
 73
         1
 97
        1
330
135
 75
         0
 76
         1
 98
        1
 10
0.0
 20
0.0
  0
CIRCLE
  5
137
100
AcDbEntity
  8
PART_HOLES_LAYER_TOP
100
AcDbCircle
 10
83.382408
 20
11.804462
 30
0.0
 40
0.6
  0
HATCH
  5
138
100
AcDbEntity
  8
PART_HOLES_LAYER_TOP
100
AcDbHatch
 10
0.0
 20
0.0
 30
0.0
210
0.0
220
0.0
230
1.0
  2
SOLID
 70
         1
 71
         1
 91
        1
 92
        1
 93
        1
 72
         2
 10
83.382407999999998
 20
11.804461999999999
 40
0.6
 50
0.0
 51
360.0
 73
         1
 97
        1
330
137
 75
         0
 76
         1
 98
        1
 10
0.0
 20
0.0
  0
CIRCLE
  5
139
100
AcDbEntity
  8
PART_HOLES_LAYER_TOP
100
AcDbCircle
 10
73.652408
 20
3.569462
 30
0.0
 40
0.45
  0
HATCH
  5
13A
100
AcDbEntity
  8
PART_HOLES_LAYER_TOP
100
AcDbHatch
 10
0.0
 20
0.0
 30
0.0
210
0.0
220
0.0
230
1.0
  2
SOLID
 70
         1
 71
         1
 91
        1
 92
        1
 93
        1
 72
         2
 10
73.652407999999994
 20
3.5694620000000001
 40
0.45
 50
0.0
 51
360.0
 73
         1
 97
        1
330
139
 75
         0
 76
         1
 98
        1
 10
0.0
 20
0.0
  0
CIRCLE
  5
13B
100
AcDbEntity
  8
PART_HOLES_LAYER_TOP
100
AcDbCircle
 10
76.952408
 20
-2.395538
 30
0.0
 40
0.95
  0
HATCH
  5
13C
100
AcDbEntity
  8
PART_HOLES_LAYER_TOP
100
AcDbHatch
 10
0.0
 20
0.0
 30
0.0
210
0.0
220
0.0
230
1.0
  2
SOLID
 70
         1
 71
         1
 91
        1
 92
        1
 93
        1
 72
         2
 10
76.952408000000005
 20
-2.3955380000000002
 40
0.95
 50
0.0
 51
360.0
 73
         1
 97
        1
330
13B
 75
         0
 76
         1
 98
        1
 10
0.0
 20
0.0
  0
CIRCLE
  5
13D
100
AcDbEntity
  8
PART_HOLES_LAYER_TOP
100
AcDbCircle
 10
85.082408
 20
-0.855538
 30
0.0
 40
0.6
  0
HATCH
  5
13E
100
AcDbEntity
  8
PART_HOLES_LAYER_TOP
100
AcDbHatch
 10
0.0
 20
0.0
 30
0.0
210
0.0
220
0.0
230
1.0
  2
SOLID
 70
         1
 71
         1
 91
        1
 92
        1
 93
        1
 72
         2
 10
85.082408000000001
 20
-0.855538
 40
0.6
 50
0.0
 51
360.0
 73
         1
 97
        1
330
13D
 75
         0
 76
         1
 98
        1
 10
0.0
 20
0.0
  0
CIRCLE
  5
13F
100
AcDbEntity
  8
PART_HOLES_LAYER_TOP
100
AcDbCircle
 10
60.908868
 20
49.22782
 30
0.0
 40
0.45
  0
HATCH
  5
140
100
AcDbEntity
  8
PART_HOLES_LAYER_TOP
100
AcDbHatch
 10
0.0
 20
0.0
 30
0.0
210
0.0
220
0.0
230
1.0
  2
SOLID
 70
         1
 71
         1
 91
        1
 92
        1
 93
        1
 72
         2
 10
60.908867999999998
 20
49.227820000000001
 40
0.45
 50
0.0
 51
360.0
 73
         1
 97
        1
330
13F
 75
         0
 76
         1
 98
        1
 10
0.0
 20
0.0
  0
CIRCLE
  5
141
100
AcDbEntity
  8
PART_HOLES_LAYER_TOP
100
AcDbCircle
 10
60.908868
 20
54.10782
 30
0.0
 40
0.45
  0
HATCH
  5
142
100
AcDbEntity
  8
PART_HOLES_LAYER_TOP
100
AcDbHatch
 10
0.0
 20
0.0
 30
0.0
210
0.0
220
0.0
230
1.0
  2
SOLID
 70
         1
 71
         1
 91
        1
 92
        1
 93
        1
 72
         2
 10
60.908867999999998
 20
54.107819999999997
 40
0.45
 50
0.0
 51
360.0
 73
         1
 97
        1
330
141
 75
         0
 76
         1
 98
        1
 10
0.0
 20
0.0
  0
CIRCLE
  5
143
100
AcDbEntity
  8
PART_HOLES_LAYER_TOP
100
AcDbCircle
 10
81.166439
 20
30.906487
 30
0.0
 40
0.6
  0
HATCH
  5
144
100
AcDbEntity
  8
PART_HOLES_LAYER_TOP
100
AcDbHatch
 10
0.0
 20
0.0
 30
0.0
210
0.0
220
0.0
230
1.0
  2
SOLID
 70
         1
 71
         1
 91
        1
 92
        1
 93
        1
 72
         2
 10
81.166438999999997
 20
30.906486999999998
 40
0.6
 50
0.0
 51
360.0
 73
         1
 97
        1
330
143
 75
         0
 76
         1
 98
        1
 10
0.0
 20
0.0
  0
CIRCLE
  5
145
100
AcDbEntity
  8
PART_HOLES_LAYER_TOP
100
AcDbCircle
 10
81.166439
 20
33.676487
 30
0.0
 40
0.6
  0
HATCH
  5
146
100
AcDbEntity
  8
PART_HOLES_LAYER_TOP
100
AcDbHatch
 10
0.0
 20
0.0
 30
0.0
210
0.0
220
0.0
230
1.0
  2
SOLID
 70
         1
 71
         1
 91
        1
 92
        1
 93
        1
 72
         2
 10
81.166438999999997
 20
33.676487000000002
 40
0.6
 50
0.0
 51
360.0
 73
         1
 97
        1
330
145
 75
         0
 76
         1
 98
        1
 10
0.0
 20
0.0
  0
CIRCLE
  5
147
100
AcDbEntity
  8
PART_HOLES_LAYER_TOP
100
AcDbCircle
 10
79.746439
 20
42.021487
 30
0.0
 40
1.5
  0
HATCH
  5
148
100
AcDbEntity
  8
PART_HOLES_LAYER_TOP
100
AcDbHatch
 10
0.0
 20
0.0
 30
0.0
210
0.0
220
0.0
230
1.0
  2
SOLID
 70
         1
 71
         1
 91
        1
 92
        1
 93
        1
 72
         2
 10
79.746438999999995
 20
42.021487
 40
1.5
 50
0.0
 51
360.0
 73
         1
 97
        1
330
147
 75
         0
 76
         1
 98
        1
 10
0.0
 20
0.0
  0
CIRCLE
  5
149
100
AcDbEntity
  8
PART_HOLES_LAYER_TOP
100
AcDbCircle
 10
79.746439
 20
17.021487
 30
0.0
 40
1.5
  0
HATCH
  5
14A
100
AcDbEntity
  8
PART_HOLES_LAYER_TOP
100
AcDbHatch
 10
0.0
 20
0.0
 30
0.0
210
0.0
220
0.0
230
1.0
  2
SOLID
 70
         1
 71
         1
 91
        1
 92
        1
 93
        1
 72
         2
 10
79.746438999999995
 20
17.021487
 40
1.5
 50
0.0
 51
360.0
 73
         1
 97
        1
330
149
 75
         0
 76
         1
 98
        1
 10
0.0
 20
0.0
  0
CIRCLE
  5
14B
100
AcDbEntity
  8
PART_HOLES_LAYER_TOP
100
AcDbCircle
 10
78.326439
 20
35.061487
 30
0.0
 40
0.6
  0
HATCH
  5
14C
100
AcDbEntity
  8
PART_HOLES_LAYER_TOP
100
AcDbHatch
 10
0.0
 20
0.0
 30
0.0
210
0.0
220
0.0
230
1.0
  2
SOLID
 70
         1
 71
         1
 91
        1
 92
        1
 93
        1
 72
         2
 10
78.326438999999993
 20
35.061487
 40
0.6
 50
0.0
 51
360.0
 73
         1
 97
        1
330
14B
 75
         0
 76
         1
 98
        1
 10
0.0
 20
0.0
  0
CIRCLE
  5
14D
100
AcDbEntity
  8
PART_HOLES_LAYER_TOP
100
AcDbCircle
 10
81.166439
 20
25.366487
 30
0.0
 40
0.6
  0
HATCH
  5
14E
100
AcDbEntity
  8
PART_HOLES_LAYER_TOP
100
AcDbHatch
 10
0.0
 20
0.0
 30
0.0
210
0.0
220
0.0
230
1.0
  2
SOLID
 70
         1
 71
         1
 91
        1
 92
        1
 93
        1
 72
         2
 10
81.166438999999997
 20
25.366486999999999
 40
0.6
 50
0.0
 51
360.0
 73
         1
 97
        1
330
14D
 75
         0
 76
         1
 98
        1
 10
0.0
 20
0.0
  0
CIRCLE
  5
14F
100
AcDbEntity
  8
PART_HOLES_LAYER_TOP
100
AcDbCircle
 10
78.326439
 20
23.981487
 30
0.0
 40
0.6
  0
HATCH
  5
150
100
AcDbEntity
  8
PART_HOLES_LAYER_TOP
100
AcDbHatch
 10
0.0
 20
0.0
 30
0.0
210
0.0
220
0.0
230
1.0
  2
SOLID
 70
         1
 71
         1
 91
        1
 92
        1
 93
        1
 72
         2
 10
78.326438999999993
 20
23.981487000000001
 40
0.6
 50
0.0
 51
360.0
 73
         1
 97
        1
330
14F
 75
         0
 76
         1
 98
        1
 10
0.0
 20
0.0
  0
CIRCLE
  5
151
100
AcDbEntity
  8
PART_HOLES_LAYER_TOP
100
AcDbCircle
 10
81.166439
 20
28.136487
 30
0.0
 40
0.6
  0
HATCH
  5
152
100
AcDbEntity
  8
PART_HOLES_LAYER_TOP
100
AcDbHatch
 10
0.0
 20
0.0
 30
0.0
210
0.0
220
0.0
230
1.0
  2
SOLID
 70
         1
 71
         1
 91
        1
 92
        1
 93
        1
 72
         2
 10
81.166438999999997
 20
28.136486999999999
 40
0.6
 50
0.0
 51
360.0
 73
         1
 97
        1
330
151
 75
         0
 76
         1
 98
        1
 10
0.0
 20
0.0
  0
CIRCLE
  5
153
100
AcDbEntity
  8
PART_HOLES_LAYER_TOP
100
AcDbCircle
 10
78.326439
 20
26.751487
 30
0.0
 40
0.6
  0
HATCH
  5
154
100
AcDbEntity
  8
PART_HOLES_LAYER_TOP
100
AcDbHatch
 10
0.0
 20
0.0
 30
0.0
210
0.0
220
0.0
230
1.0
  2
SOLID
 70
         1
 71
         1
 91
        1
 92
        1
 93
        1
 72
         2
 10
78.326438999999993
 20
26.751487000000001
 40
0.6
 50
0.0
 51
360.0
 73
         1
 97
        1
330
153
 75
         0
 76
         1
 98
        1
 10
0.0
 20
0.0
  0
CIRCLE
  5
155
100
AcDbEntity
  8
PART_HOLES_LAYER_TOP
100
AcDbCircle
 10
78.326439
 20
32.291487
 30
0.0
 40
0.6
  0
HATCH
  5
156
100
AcDbEntity
  8
PART_HOLES_LAYER_TOP
100
AcDbHatch
 10
0.0
 20
0.0
 30
0.0
210
0.0
220
0.0
230
1.0
  2
SOLID
 70
         1
 71
         1
 91
        1
 92
        1
 93
        1
 72
         2
 10
78.326438999999993
 20
32.291486999999996
 40
0.6
 50
0.0
 51
360.0
 73
         1
 97
        1
330
155
 75
         0
 76
         1
 98
        1
 10
0.0
 20
0.0
  0
CIRCLE
  5
157
100
AcDbEntity
  8
PART_HOLES_LAYER_TOP
100
AcDbCircle
 10
78.326439
 20
29.521487
 30
0.0
 40
0.6
  0
HATCH
  5
158
100
AcDbEntity
  8
PART_HOLES_LAYER_TOP
100
AcDbHatch
 10
0.0
 20
0.0
 30
0.0
210
0.0
220
0.0
230
1.0
  2
SOLID
 70
         1
 71
         1
 91
        1
 92
        1
 93
        1
 72
         2
 10
78.326438999999993
 20
29.521487
 40
0.6
 50
0.0
 51
360.0
 73
         1
 97
        1
330
157
 75
         0
 76
         1
 98
        1
 10
0.0
 20
0.0
  0
CIRCLE
  5
159
100
AcDbEntity
  8
PART_HOLES_LAYER_TOP
100
AcDbCircle
 10
70.2
 20
62.4
 30
0.0
 40
0.45
  0
HATCH
  5
15A
100
AcDbEntity
  8
PART_HOLES_LAYER_TOP
100
AcDbHatch
 10
0.0
 20
0.0
 30
0.0
210
0.0
220
0.0
230
1.0
  2
SOLID
 70
         1
 71
         1
 91
        1
 92
        1
 93
        1
 72
         2
 10
70.200000000000003
 20
62.399999999999999
 40
0.45
 50
0.0
 51
360.0
 73
         1
 97
        1
330
159
 75
         0
 76
         1
 98
        1
 10
0.0
 20
0.0
  0
CIRCLE
  5
15B
100
AcDbEntity
  8
PART_HOLES_LAYER_TOP
100
AcDbCircle
 10
75.28
 20
62.4
 30
0.0
 40
0.45
  0
HATCH
  5
15C
100
AcDbEntity
  8
PART_HOLES_LAYER_TOP
100
AcDbHatch
 10
0.0
 20
0.0
 30
0.0
210
0.0
220
0.0
230
1.0
  2
SOLID
 70
         1
 71
         1
 91
        1
 92
        1
 93
        1
 72
         2
 10
75.280000000000001
 20
62.399999999999999
 40
0.45
 50
0.0
 51
360.0
 73
         1
 97
        1
330
15B
 75
         0
 76
         1
 98
        1
 10
0.0
 20
0.0
  0
CIRCLE
  5
15D
100
AcDbEntity
  8
PART_HOLES_LAYER_TOP
100
AcDbCircle
 10
72.74
 20
62.4
 30
0.0
 40
0.45
  0
HATCH
  5
15E
100
AcDbEntity
  8
PART_HOLES_LAYER_TOP
100
AcDbHatch
 10
0.0
 20
0.0
 30
0.0
210
0.0
220
0.0
230
1.0
  2
SOLID
 70
         1
 71
         1
 91
        1
 92
        1
 93
        1
 72
         2
 10
72.739999999999995
 20
62.399999999999999
 40
0.45
 50
0.0
 51
360.0
 73
         1
 97
        1
330
15D
 75
         0
 76
         1
 98
        1
 10
0.0
 20
0.0
  0
CIRCLE
  5
15F
100
AcDbEntity
  8
PART_HOLES_LAYER_TOP
100
AcDbCircle
 10
70.689364
 20
42.256332
 30
0.0
 40
0.45
  0
HATCH
  5
160
100
AcDbEntity
  8
PART_HOLES_LAYER_TOP
100
AcDbHatch
 10
0.0
 20
0.0
 30
0.0
210
0.0
220
0.0
230
1.0
  2
SOLID
 70
         1
 71
         1
 91
        1
 92
        1
 93
        1
 72
         2
 10
70.689363999999998
 20
42.256332
 40
0.45
 50
0.0
 51
360.0
 73
         1
 97
        1
330
15F
 75
         0
 76
         1
 98
        1
 10
0.0
 20
0.0
  0
CIRCLE
  5
161
100
AcDbEntity
  8
PART_HOLES_LAYER_TOP
100
AcDbCircle
 10
73.229364
 20
21.936332
 30
0.0
 40
0.45
  0
HATCH
  5
162
100
AcDbEntity
  8
PART_HOLES_LAYER_TOP
100
AcDbHatch
 10
0.0
 20
0.0
 30
0.0
210
0.0
220
0.0
230
1.0
  2
SOLID
 70
         1
 71
         1
 91
        1
 92
        1
 93
        1
 72
         2
 10
73.229364000000004
 20
21.936332
 40
0.45
 50
0.0
 51
360.0
 73
         1
 97
        1
330
161
 75
         0
 76
         1
 98
        1
 10
0.0
 20
0.0
  0
CIRCLE
  5
163
100
AcDbEntity
  8
PART_HOLES_LAYER_TOP
100
AcDbCircle
 10
73.229364
 20
19.396332
 30
0.0
 40
0.45
  0
HATCH
  5
164
100
AcDbEntity
  8
PART_HOLES_LAYER_TOP
100
AcDbHatch
 10
0.0
 20
0.0
 30
0.0
210
0.0
220
0.0
230
1.0
  2
SOLID
 70
         1
 71
         1
 91
        1
 92
        1
 93
        1
 72
         2
 10
73.229364000000004
 20
19.396332000000001
 40
0.45
 50
0.0
 51
360.0
 73
         1
 97
        1
330
163
 75
         0
 76
         1
 98
        1
 10
0.0
 20
0.0
  0
CIRCLE
  5
165
100
AcDbEntity
  8
PART_HOLES_LAYER_TOP
100
AcDbCircle
 10
73.229364
 20
24.476332
 30
0.0
 40
0.45
  0
HATCH
  5
166
100
AcDbEntity
  8
PART_HOLES_LAYER_TOP
100
AcDbHatch
 10
0.0
 20
0.0
 30
0.0
210
0.0
220
0.0
230
1.0
  2
SOLID
 70
         1
 71
         1
 91
        1
 92
        1
 93
        1
 72
         2
 10
73.229364000000004
 20
24.476331999999999
 40
0.45
 50
0.0
 51
360.0
 73
         1
 97
        1
330
165
 75
         0
 76
         1
 98
        1
 10
0.0
 20
0.0
  0
CIRCLE
  5
167
100
AcDbEntity
  8
PART_HOLES_LAYER_TOP
100
AcDbCircle
 10
73.229364
 20
27.016332
 30
0.0
 40
0.45
  0
HATCH
  5
168
100
AcDbEntity
  8
PART_HOLES_LAYER_TOP
100
AcDbHatch
 10
0.0
 20
0.0
 30
0.0
210
0.0
220
0.0
230
1.0
  2
SOLID
 70
         1
 71
         1
 91
        1
 92
        1
 93
        1
 72
         2
 10
73.229364000000004
 20
27.016331999999998
 40
0.45
 50
0.0
 51
360.0
 73
         1
 97
        1
330
167
 75
         0
 76
         1
 98
        1
 10
0.0
 20
0.0
  0
CIRCLE
  5
169
100
AcDbEntity
  8
PART_HOLES_LAYER_TOP
100
AcDbCircle
 10
73.229364
 20
29.556332
 30
0.0
 40
0.45
  0
HATCH
  5
16A
100
AcDbEntity
  8
PART_HOLES_LAYER_TOP
100
AcDbHatch
 10
0.0
 20
0.0
 30
0.0
210
0.0
220
0.0
230
1.0
  2
SOLID
 70
         1
 71
         1
 91
        1
 92
        1
 93
        1
 72
         2
 10
73.229364000000004
 20
29.556332000000001
 40
0.45
 50
0.0
 51
360.0
 73
         1
 97
        1
330
169
 75
         0
 76
         1
 98
        1
 10
0.0
 20
0.0
  0
CIRCLE
  5
16B
100
AcDbEntity
  8
PART_HOLES_LAYER_TOP
100
AcDbCircle
 10
73.229364
 20
32.096332
 30
0.0
 40
0.45
  0
HATCH
  5
16C
100
AcDbEntity
  8
PART_HOLES_LAYER_TOP
100
AcDbHatch
 10
0.0
 20
0.0
 30
0.0
210
0.0
220
0.0
230
1.0
  2
SOLID
 70
         1
 71
         1
 91
        1
 92
        1
 93
        1
 72
         2
 10
73.229364000000004
 20
32.096331999999997
 40
0.45
 50
0.0
 51
360.0
 73
         1
 97
        1
330
16B
 75
         0
 76
         1
 98
        1
 10
0.0
 20
0.0
  0
CIRCLE
  5
16D
100
AcDbEntity
  8
PART_HOLES_LAYER_TOP
100
AcDbCircle
 10
73.229364
 20
34.636332
 30
0.0
 40
0.45
  0
HATCH
  5
16E
100
AcDbEntity
  8
PART_HOLES_LAYER_TOP
100
AcDbHatch
 10
0.0
 20
0.0
 30
0.0
210
0.0
220
0.0
230
1.0
  2
SOLID
 70
         1
 71
         1
 91
        1
 92
        1
 93
        1
 72
         2
 10
73.229364000000004
 20
34.636332000000003
 40
0.45
 50
0.0
 51
360.0
 73
         1
 97
        1
330
16D
 75
         0
 76
         1
 98
        1
 10
0.0
 20
0.0
  0
CIRCLE
  5
16F
100
AcDbEntity
  8
PART_HOLES_LAYER_TOP
100
AcDbCircle
 10
73.229364
 20
37.176332
 30
0.0
 40
0.45
  0
HATCH
  5
170
100
AcDbEntity
  8
PART_HOLES_LAYER_TOP
100
AcDbHatch
 10
0.0
 20
0.0
 30
0.0
210
0.0
220
0.0
230
1.0
  2
SOLID
 70
         1
 71
         1
 91
        1
 92
        1
 93
        1
 72
         2
 10
73.229364000000004
 20
37.176332000000002
 40
0.45
 50
0.0
 51
360.0
 73
         1
 97
        1
330
16F
 75
         0
 76
         1
 98
        1
 10
0.0
 20
0.0
  0
CIRCLE
  5
171
100
AcDbEntity
  8
PART_HOLES_LAYER_TOP
100
AcDbCircle
 10
73.229364
 20
39.716332
 30
0.0
 40
0.45
  0
HATCH
  5
172
100
AcDbEntity
  8
PART_HOLES_LAYER_TOP
100
AcDbHatch
 10
0.0
 20
0.0
 30
0.0
210
0.0
220
0.0
230
1.0
  2
SOLID
 70
         1
 71
         1
 91
        1
 92
        1
 93
        1
 72
         2
 10
73.229364000000004
 20
39.716332000000001
 40
0.45
 50
0.0
 51
360.0
 73
         1
 97
        1
330
171
 75
         0
 76
         1
 98
        1
 10
0.0
 20
0.0
  0
CIRCLE
  5
173
100
AcDbEntity
  8
PART_HOLES_LAYER_TOP
100
AcDbCircle
 10
73.229364
 20
42.256332
 30
0.0
 40
0.45
  0
HATCH
  5
174
100
AcDbEntity
  8
PART_HOLES_LAYER_TOP
100
AcDbHatch
 10
0.0
 20
0.0
 30
0.0
210
0.0
220
0.0
230
1.0
  2
SOLID
 70
         1
 71
         1
 91
        1
 92
        1
 93
        1
 72
         2
 10
73.229364000000004
 20
42.256332
 40
0.45
 50
0.0
 51
360.0
 73
         1
 97
        1
330
173
 75
         0
 76
         1
 98
        1
 10
0.0
 20
0.0
  0
CIRCLE
  5
175
100
AcDbEntity
  8
PART_HOLES_LAYER_TOP
100
AcDbCircle
 10
70.689364
 20
24.476332
 30
0.0
 40
0.45
  0
HATCH
  5
176
100
AcDbEntity
  8
PART_HOLES_LAYER_TOP
100
AcDbHatch
 10
0.0
 20
0.0
 30
0.0
210
0.0
220
0.0
230
1.0
  2
SOLID
 70
         1
 71
         1
 91
        1
 92
        1
 93
        1
 72
         2
 10
70.689363999999998
 20
24.476331999999999
 40
0.45
 50
0.0
 51
360.0
 73
         1
 97
        1
330
175
 75
         0
 76
         1
 98
        1
 10
0.0
 20
0.0
  0
CIRCLE
  5
177
100
AcDbEntity
  8
PART_HOLES_LAYER_TOP
100
AcDbCircle
 10
70.689364
 20
29.556332
 30
0.0
 40
0.45
  0
HATCH
  5
178
100
AcDbEntity
  8
PART_HOLES_LAYER_TOP
100
AcDbHatch
 10
0.0
 20
0.0
 30
0.0
210
0.0
220
0.0
230
1.0
  2
SOLID
 70
         1
 71
         1
 91
        1
 92
        1
 93
        1
 72
         2
 10
70.689363999999998
 20
29.556332000000001
 40
0.45
 50
0.0
 51
360.0
 73
         1
 97
        1
330
177
 75
         0
 76
         1
 98
        1
 10
0.0
 20
0.0
  0
CIRCLE
  5
179
100
AcDbEntity
  8
PART_HOLES_LAYER_TOP
100
AcDbCircle
 10
70.689364
 20
32.096332
 30
0.0
 40
0.45
  0
HATCH
  5
17A
100
AcDbEntity
  8
PART_HOLES_LAYER_TOP
100
AcDbHatch
 10
0.0
 20
0.0
 30
0.0
210
0.0
220
0.0
230
1.0
  2
SOLID
 70
         1
 71
         1
 91
        1
 92
        1
 93
        1
 72
         2
 10
70.689363999999998
 20
32.096331999999997
 40
0.45
 50
0.0
 51
360.0
 73
         1
 97
        1
330
179
 75
         0
 76
         1
 98
        1
 10
0.0
 20
0.0
  0
CIRCLE
  5
17B
100
AcDbEntity
  8
PART_HOLES_LAYER_TOP
100
AcDbCircle
 10
70.689364
 20
37.176332
 30
0.0
 40
0.45
  0
HATCH
  5
17C
100
AcDbEntity
  8
PART_HOLES_LAYER_TOP
100
AcDbHatch
 10
0.0
 20
0.0
 30
0.0
210
0.0
220
0.0
230
1.0
  2
SOLID
 70
         1
 71
         1
 91
        1
 92
        1
 93
        1
 72
         2
 10
70.689363999999998
 20
37.176332000000002
 40
0.45
 50
0.0
 51
360.0
 73
         1
 97
        1
330
17B
 75
         0
 76
         1
 98
        1
 10
0.0
 20
0.0
  0
CIRCLE
  5
17D
100
AcDbEntity
  8
PART_HOLES_LAYER_TOP
100
AcDbCircle
 10
70.689364
 20
27.016332
 30
0.0
 40
0.45
  0
HATCH
  5
17E
100
AcDbEntity
  8
PART_HOLES_LAYER_TOP
100
AcDbHatch
 10
0.0
 20
0.0
 30
0.0
210
0.0
220
0.0
230
1.0
  2
SOLID
 70
         1
 71
         1
 91
        1
 92
        1
 93
        1
 72
         2
 10
70.689363999999998
 20
27.016331999999998
 40
0.45
 50
0.0
 51
360.0
 73
         1
 97
        1
330
17D
 75
         0
 76
         1
 98
        1
 10
0.0
 20
0.0
  0
CIRCLE
  5
17F
100
AcDbEntity
  8
PART_HOLES_LAYER_TOP
100
AcDbCircle
 10
70.689364
 20
34.636332
 30
0.0
 40
0.45
  0
HATCH
  5
180
100
AcDbEntity
  8
PART_HOLES_LAYER_TOP
100
AcDbHatch
 10
0.0
 20
0.0
 30
0.0
210
0.0
220
0.0
230
1.0
  2
SOLID
 70
         1
 71
         1
 91
        1
 92
        1
 93
        1
 72
         2
 10
70.689363999999998
 20
34.636332000000003
 40
0.45
 50
0.0
 51
360.0
 73
         1
 97
        1
330
17F
 75
         0
 76
         1
 98
        1
 10
0.0
 20
0.0
  0
CIRCLE
  5
181
100
AcDbEntity
  8
PART_HOLES_LAYER_TOP
100
AcDbCircle
 10
70.689364
 20
39.716332
 30
0.0
 40
0.45
  0
HATCH
  5
182
100
AcDbEntity
  8
PART_HOLES_LAYER_TOP
100
AcDbHatch
 10
0.0
 20
0.0
 30
0.0
210
0.0
220
0.0
230
1.0
  2
SOLID
 70
         1
 71
         1
 91
        1
 92
        1
 93
        1
 72
         2
 10
70.689363999999998
 20
39.716332000000001
 40
0.45
 50
0.0
 51
360.0
 73
         1
 97
        1
330
181
 75
         0
 76
         1
 98
        1
 10
0.0
 20
0.0
  0
CIRCLE
  5
183
100
AcDbEntity
  8
PART_HOLES_LAYER_TOP
100
AcDbCircle
 10
70.689364
 20
19.396332
 30
0.0
 40
0.45
  0
HATCH
  5
184
100
AcDbEntity
  8
PART_HOLES_LAYER_TOP
100
AcDbHatch
 10
0.0
 20
0.0
 30
0.0
210
0.0
220
0.0
230
1.0
  2
SOLID
 70
         1
 71
         1
 91
        1
 92
        1
 93
        1
 72
         2
 10
70.689363999999998
 20
19.396332000000001
 40
0.45
 50
0.0
 51
360.0
 73
         1
 97
        1
330
183
 75
         0
 76
         1
 98
        1
 10
0.0
 20
0.0
  0
CIRCLE
  5
185
100
AcDbEntity
  8
PART_HOLES_LAYER_TOP
100
AcDbCircle
 10
70.689364
 20
21.936332
 30
0.0
 40
0.45
  0
HATCH
  5
186
100
AcDbEntity
  8
PART_HOLES_LAYER_TOP
100
AcDbHatch
 10
0.0
 20
0.0
 30
0.0
210
0.0
220
0.0
230
1.0
  2
SOLID
 70
         1
 71
         1
 91
        1
 92
        1
 93
        1
 72
         2
 10
70.689363999999998
 20
21.936332
 40
0.45
 50
0.0
 51
360.0
 73
         1
 97
        1
330
185
 75
         0
 76
         1
 98
        1
 10
0.0
 20
0.0
  0
CIRCLE
  5
187
100
AcDbEntity
  8
PART_HOLES_LAYER_TOP
100
AcDbCircle
 10
62.606528
 20
43.393726
 30
0.0
 40
0.45
  0
HATCH
  5
188
100
AcDbEntity
  8
PART_HOLES_LAYER_TOP
100
AcDbHatch
 10
0.0
 20
0.0
 30
0.0
210
0.0
220
0.0
230
1.0
  2
SOLID
 70
         1
 71
         1
 91
        1
 92
        1
 93
        1
 72
         2
 10
62.606527999999997
 20
43.393726000000001
 40
0.45
 50
0.0
 51
360.0
 73
         1
 97
        1
330
187
 75
         0
 76
         1
 98
        1
 10
0.0
 20
0.0
  0
CIRCLE
  5
189
100
AcDbEntity
  8
PART_HOLES_LAYER_TOP
100
AcDbCircle
 10
65.14653
 20
43.393726
 30
0.0
 40
0.45
  0
HATCH
  5
18A
100
AcDbEntity
  8
PART_HOLES_LAYER_TOP
100
AcDbHatch
 10
0.0
 20
0.0
 30
0.0
210
0.0
220
0.0
230
1.0
  2
SOLID
 70
         1
 71
         1
 91
        1
 92
        1
 93
        1
 72
         2
 10
65.146529999999998
 20
43.393726000000001
 40
0.45
 50
0.0
 51
360.0
 73
         1
 97
        1
330
189
 75
         0
 76
         1
 98
        1
 10
0.0
 20
0.0
  0
CIRCLE
  5
18B
100
AcDbEntity
  8
PART_HOLES_LAYER_TOP
100
AcDbCircle
 10
70.2
 20
59.7
 30
0.0
 40
0.45
  0
HATCH
  5
18C
100
AcDbEntity
  8
PART_HOLES_LAYER_TOP
100
AcDbHatch
 10
0.0
 20
0.0
 30
0.0
210
0.0
220
0.0
230
1.0
  2
SOLID
 70
         1
 71
         1
 91
        1
 92
        1
 93
        1
 72
         2
 10
70.200000000000003
 20
59.700000000000003
 40
0.45
 50
0.0
 51
360.0
 73
         1
 97
        1
330
18B
 75
         0
 76
         1
 98
        1
 10
0.0
 20
0.0
  0
CIRCLE
  5
18D
100
AcDbEntity
  8
PART_HOLES_LAYER_TOP
100
AcDbCircle
 10
75.28
 20
59.7
 30
0.0
 40
0.45
  0
HATCH
  5
18E
100
AcDbEntity
  8
PART_HOLES_LAYER_TOP
100
AcDbHatch
 10
0.0
 20
0.0
 30
0.0
210
0.0
220
0.0
230
1.0
  2
SOLID
 70
         1
 71
         1
 91
        1
 92
        1
 93
        1
 72
         2
 10
75.280000000000001
 20
59.700000000000003
 40
0.45
 50
0.0
 51
360.0
 73
         1
 97
        1
330
18D
 75
         0
 76
         1
 98
        1
 10
0.0
 20
0.0
  0
CIRCLE
  5
18F
100
AcDbEntity
  8
PART_HOLES_LAYER_TOP
100
AcDbCircle
 10
72.74
 20
59.7
 30
0.0
 40
0.45
  0
HATCH
  5
190
100
AcDbEntity
  8
PART_HOLES_LAYER_TOP
100
AcDbHatch
 10
0.0
 20
0.0
 30
0.0
210
0.0
220
0.0
230
1.0
  2
SOLID
 70
         1
 71
         1
 91
        1
 92
        1
 93
        1
 72
         2
 10
72.739999999999995
 20
59.700000000000003
 40
0.45
 50
0.0
 51
360.0
 73
         1
 97
        1
330
18F
 75
         0
 76
         1
 98
        1
 10
0.0
 20
0.0
  0
CIRCLE
  5
191
100
AcDbEntity
  8
PART_HOLES_LAYER_TOP
100
AcDbCircle
 10
41.8
 20
-1.6
 30
0.0
 40
0.45
  0
HATCH
  5
192
100
AcDbEntity
  8
PART_HOLES_LAYER_TOP
100
AcDbHatch
 10
0.0
 20
0.0
 30
0.0
210
0.0
220
0.0
230
1.0
  2
SOLID
 70
         1
 71
         1
 91
        1
 92
        1
 93
        1
 72
         2
 10
41.799999999999997
 20
-1.6000000000000001
 40
0.45
 50
0.0
 51
360.0
 73
         1
 97
        1
330
191
 75
         0
 76
         1
 98
        1
 10
0.0
 20
0.0
  0
CIRCLE
  5
193
100
AcDbEntity
  8
PART_HOLES_LAYER_TOP
100
AcDbCircle
 10
41.8
 20
0.94
 30
0.0
 40
0.45
  0
HATCH
  5
194
100
AcDbEntity
  8
PART_HOLES_LAYER_TOP
100
AcDbHatch
 10
0.0
 20
0.0
 30
0.0
210
0.0
220
0.0
230
1.0
  2
SOLID
 70
         1
 71
         1
 91
        1
 92
        1
 93
        1
 72
         2
 10
41.799999999999997
 20
0.94
 40
0.45
 50
0.0
 51
360.0
 73
         1
 97
        1
330
193
 75
         0
 76
         1
 98
        1
 10
0.0
 20
0.0
  0
CIRCLE
  5
195
100
AcDbEntity
  8
PART_HOLES_LAYER_TOP
100
AcDbCircle
 10
84.9
 20
66.3
 30
0.0
 40
0.45
  0
HATCH
  5
196
100
AcDbEntity
  8
PART_HOLES_LAYER_TOP
100
AcDbHatch
 10
0.0
 20
0.0
 30
0.0
210
0.0
220
0.0
230
1.0
  2
SOLID
 70
         1
 71
         1
 91
        1
 92
        1
 93
        1
 72
         2
 10
84.900000000000006
 20
66.299999999999997
 40
0.45
 50
0.0
 51
360.0
 73
         1
 97
        1
330
195
 75
         0
 76
         1
 98
        1
 10
0.0
 20
0.0
  0
CIRCLE
  5
197
100
AcDbEntity
  8
PART_HOLES_LAYER_TOP
100
AcDbCircle
 10
82.36
 20
66.3
 30
0.0
 40
0.45
  0
HATCH
  5
198
100
AcDbEntity
  8
PART_HOLES_LAYER_TOP
100
AcDbHatch
 10
0.0
 20
0.0
 30
0.0
210
0.0
220
0.0
230
1.0
  2
SOLID
 70
         1
 71
         1
 91
        1
 92
        1
 93
        1
 72
         2
 10
82.359999999999999
 20
66.299999999999997
 40
0.45
 50
0.0
 51
360.0
 73
         1
 97
        1
330
197
 75
         0
 76
         1
 98
        1
 10
0.0
 20
0.0
  0
CIRCLE
  5
199
100
AcDbEntity
  8
PART_HOLES_LAYER_TOP
100
AcDbCircle
 10
77.8
 20
53.5
 30
0.0
 40
0.45
  0
HATCH
  5
19A
100
AcDbEntity
  8
PART_HOLES_LAYER_TOP
100
AcDbHatch
 10
0.0
 20
0.0
 30
0.0
210
0.0
220
0.0
230
1.0
  2
SOLID
 70
         1
 71
         1
 91
        1
 92
        1
 93
        1
 72
         2
 10
77.799999999999997
 20
53.5
 40
0.45
 50
0.0
 51
360.0
 73
         1
 97
        1
330
199
 75
         0
 76
         1
 98
        1
 10
0.0
 20
0.0
  0
CIRCLE
  5
19B
100
AcDbEntity
  8
PART_HOLES_LAYER_TOP
100
AcDbCircle
 10
77.8
 20
60.5
 30
0.0
 40
0.45
  0
HATCH
  5
19C
100
AcDbEntity
  8
PART_HOLES_LAYER_TOP
100
AcDbHatch
 10
0.0
 20
0.0
 30
0.0
210
0.0
220
0.0
230
1.0
  2
SOLID
 70
         1
 71
         1
 91
        1
 92
        1
 93
        1
 72
         2
 10
77.799999999999997
 20
60.5
 40
0.45
 50
0.0
 51
360.0
 73
         1
 97
        1
330
19B
 75
         0
 76
         1
 98
        1
 10
0.0
 20
0.0
  0
CIRCLE
  5
19D
100
AcDbEntity
  8
PART_HOLES_LAYER_TOP
100
AcDbCircle
 10
80.52
 20
50.4
 30
0.0
 40
1.25
  0
HATCH
  5
19E
100
AcDbEntity
  8
PART_HOLES_LAYER_TOP
100
AcDbHatch
 10
0.0
 20
0.0
 30
0.0
210
0.0
220
0.0
230
1.0
  2
SOLID
 70
         1
 71
         1
 91
        1
 92
        1
 93
        1
 72
         2
 10
80.519999999999996
 20
50.399999999999999
 40
1.25
 50
0.0
 51
360.0
 73
         1
 97
        1
330
19D
 75
         0
 76
         1
 98
        1
 10
0.0
 20
0.0
  0
CIRCLE
  5
19F
100
AcDbEntity
  8
PART_HOLES_LAYER_TOP
100
AcDbCircle
 10
77.8
 20
56.0
 30
0.0
 40
0.45
  0
HATCH
  5
1A0
100
AcDbEntity
  8
PART_HOLES_LAYER_TOP
100
AcDbHatch
 10
0.0
 20
0.0
 30
0.0
210
0.0
220
0.0
230
1.0
  2
SOLID
 70
         1
 71
         1
 91
        1
 92
        1
 93
        1
 72
         2
 10
77.799999999999997
 20
56.0
 40
0.45
 50
0.0
 51
360.0
 73
         1
 97
        1
330
19F
 75
         0
 76
         1
 98
        1
 10
0.0
 20
0.0
  0
CIRCLE
  5
1A1
100
AcDbEntity
  8
PART_HOLES_LAYER_TOP
100
AcDbCircle
 10
77.8
 20
58.0
 30
0.0
 40
0.45
  0
HATCH
  5
1A2
100
AcDbEntity
  8
PART_HOLES_LAYER_TOP
100
AcDbHatch
 10
0.0
 20
0.0
 30
0.0
210
0.0
220
0.0
230
1.0
  2
SOLID
 70
         1
 71
         1
 91
        1
 92
        1
 93
        1
 72
         2
 10
77.799999999999997
 20
58.0
 40
0.45
 50
0.0
 51
360.0
 73
         1
 97
        1
330
1A1
 75
         0
 76
         1
 98
        1
 10
0.0
 20
0.0
  0
CIRCLE
  5
1A3
100
AcDbEntity
  8
PART_HOLES_LAYER_TOP
100
AcDbCircle
 10
80.52
 20
63.6
 30
0.0
 40
1.25
  0
HATCH
  5
1A4
100
AcDbEntity
  8
PART_HOLES_LAYER_TOP
100
AcDbHatch
 10
0.0
 20
0.0
 30
0.0
210
0.0
220
0.0
230
1.0
  2
SOLID
 70
         1
 71
         1
 91
        1
 92
        1
 93
        1
 72
         2
 10
80.519999999999996
 20
63.600000000000001
 40
1.25
 50
0.0
 51
360.0
 73
         1
 97
        1
330
1A3
 75
         0
 76
         1
 98
        1
 10
0.0
 20
0.0
  0
CIRCLE
  5
1A5
100
AcDbEntity
  8
PART_HOLES_LAYER_TOP
100
AcDbCircle
 10
77.9
 20
46.9
 30
0.0
 40
0.45
  0
HATCH
  5
1A6
100
AcDbEntity
  8
PART_HOLES_LAYER_TOP
100
AcDbHatch
 10
0.0
 20
0.0
 30
0.0
210
0.0
220
0.0
230
1.0
  2
SOLID
 70
         1
 71
         1
 91
        1
 92
        1
 93
        1
 72
         2
 10
77.900000000000006
 20
46.899999999999999
 40
0.45
 50
0.0
 51
360.0
 73
         1
 97
        1
330
1A5
 75
         0
 76
         1
 98
        1
 10
0.0
 20
0.0
  0
CIRCLE
  5
1A7
100
AcDbEntity
  8
PART_HOLES_LAYER_TOP
100
AcDbCircle
 10
80.44
 20
46.9
 30
0.0
 40
0.45
  0
HATCH
  5
1A8
100
AcDbEntity
  8
PART_HOLES_LAYER_TOP
100
AcDbHatch
 10
0.0
 20
0.0
 30
0.0
210
0.0
220
0.0
230
1.0
  2
SOLID
 70
         1
 71
         1
 91
        1
 92
        1
 93
        1
 72
         2
 10
80.439999999999998
 20
46.899999999999999
 40
0.45
 50
0.0
 51
360.0
 73
         1
 97
        1
330
1A7
 75
         0
 76
         1
 98
        1
 10
0.0
 20
0.0
  0
CIRCLE
  5
1A9
100
AcDbEntity
  8
PART_HOLES_LAYER_TOP
100
AcDbCircle
 10
87.1
 20
46.9
 30
0.0
 40
0.45
  0
HATCH
  5
1AA
100
AcDbEntity
  8
PART_HOLES_LAYER_TOP
100
AcDbHatch
 10
0.0
 20
0.0
 30
0.0
210
0.0
220
0.0
230
1.0
  2
SOLID
 70
         1
 71
         1
 91
        1
 92
        1
 93
        1
 72
         2
 10
87.099999999999994
 20
46.899999999999999
 40
0.45
 50
0.0
 51
360.0
 73
         1
 97
        1
330
1A9
 75
         0
 76
         1
 98
        1
 10
0.0
 20
0.0
  0
CIRCLE
  5
1AB
100
AcDbEntity
  8
PART_HOLES_LAYER_TOP
100
AcDbCircle
 10
84.56
 20
46.9
 30
0.0
 40
0.45
  0
HATCH
  5
1AC
100
AcDbEntity
  8
PART_HOLES_LAYER_TOP
100
AcDbHatch
 10
0.0
 20
0.0
 30
0.0
210
0.0
220
0.0
230
1.0
  2
SOLID
 70
         1
 71
         1
 91
        1
 92
        1
 93
        1
 72
         2
 10
84.560000000000002
 20
46.899999999999999
 40
0.45
 50
0.0
 51
360.0
 73
         1
 97
        1
330
1AB
 75
         0
 76
         1
 98
        1
 10
0.0
 20
0.0
  0
CIRCLE
  5
1AD
100
AcDbEntity
  8
PART_HOLES_LAYER_TOP
100
AcDbCircle
 10
42.1
 20
-7.0
 30
0.0
 40
0.45
  0
HATCH
  5
1AE
100
AcDbEntity
  8
PART_HOLES_LAYER_TOP
100
AcDbHatch
 10
0.0
 20
0.0
 30
0.0
210
0.0
220
0.0
230
1.0
  2
SOLID
 70
         1
 71
         1
 91
        1
 92
        1
 93
        1
 72
         2
 10
42.100000000000001
 20
-7.0
 40
0.45
 50
0.0
 51
360.0
 73
         1
 97
        1
330
1AD
 75
         0
 76
         1
 98
        1
 10
0.0
 20
0.0
  0
CIRCLE
  5
1AF
100
AcDbEntity
  8
PART_HOLES_LAYER_TOP
100
AcDbCircle
 10
39.56
 20
-7.0
 30
0.0
 40
0.45
  0
HATCH
  5
1B0
100
AcDbEntity
  8
PART_HOLES_LAYER_TOP
100
AcDbHatch
 10
0.0
 20
0.0
 30
0.0
210
0.0
220
0.0
230
1.0
  2
SOLID
 70
         1
 71
         1
 91
        1
 92
        1
 93
        1
 72
         2
 10
39.560000000000002
 20
-7.0
 40
0.45
 50
0.0
 51
360.0
 73
         1
 97
        1
330
1AF
 75
         0
 76
         1
 98
        1
 10
0.0
 20
0.0
  0
CIRCLE
  5
1B1
100
AcDbEntity
  8
PART_HOLES_LAYER_TOP
100
AcDbCircle
 10
75.615227
 20
76.342035
 30
0.0
 40
0.45
  0
HATCH
  5
1B2
100
AcDbEntity
  8
PART_HOLES_LAYER_TOP
100
AcDbHatch
 10
0.0
 20
0.0
 30
0.0
210
0.0
220
0.0
230
1.0
  2
SOLID
 70
         1
 71
         1
 91
        1
 92
        1
 93
        1
 72
         2
 10
75.615227000000004
 20
76.342034999999996
 40
0.45
 50
0.0
 51
360.0
 73
         1
 97
        1
330
1B1
 75
         0
 76
         1
 98
        1
 10
0.0
 20
0.0
  0
CIRCLE
  5
1B3
100
AcDbEntity
  8
PART_HOLES_LAYER_TOP
100
AcDbCircle
 10
78.155227
 20
76.342035
 30
0.0
 40
0.45
  0
HATCH
  5
1B4
100
AcDbEntity
  8
PART_HOLES_LAYER_TOP
100
AcDbHatch
 10
0.0
 20
0.0
 30
0.0
210
0.0
220
0.0
230
1.0
  2
SOLID
 70
         1
 71
         1
 91
        1
 92
        1
 93
        1
 72
         2
 10
78.155226999999996
 20
76.342034999999996
 40
0.45
 50
0.0
 51
360.0
 73
         1
 97
        1
330
1B3
 75
         0
 76
         1
 98
        1
 10
0.0
 20
0.0
  0
CIRCLE
  5
1B5
100
AcDbEntity
  8
PART_HOLES_LAYER_TOP
100
AcDbCircle
 10
75.615227
 20
73.802035
 30
0.0
 40
0.45
  0
HATCH
  5
1B6
100
AcDbEntity
  8
PART_HOLES_LAYER_TOP
100
AcDbHatch
 10
0.0
 20
0.0
 30
0.0
210
0.0
220
0.0
230
1.0
  2
SOLID
 70
         1
 71
         1
 91
        1
 92
        1
 93
        1
 72
         2
 10
75.615227000000004
 20
73.802035000000004
 40
0.45
 50
0.0
 51
360.0
 73
         1
 97
        1
330
1B5
 75
         0
 76
         1
 98
        1
 10
0.0
 20
0.0
  0
CIRCLE
  5
1B7
100
AcDbEntity
  8
PART_HOLES_LAYER_TOP
100
AcDbCircle
 10
78.155227
 20
73.802035
 30
0.0
 40
0.45
  0
HATCH
  5
1B8
100
AcDbEntity
  8
PART_HOLES_LAYER_TOP
100
AcDbHatch
 10
0.0
 20
0.0
 30
0.0
210
0.0
220
0.0
230
1.0
  2
SOLID
 70
         1
 71
         1
 91
        1
 92
        1
 93
        1
 72
         2
 10
78.155226999999996
 20
73.802035000000004
 40
0.45
 50
0.0
 51
360.0
 73
         1
 97
        1
330
1B7
 75
         0
 76
         1
 98
        1
 10
0.0
 20
0.0
  0
CIRCLE
  5
1B9
100
AcDbEntity
  8
PART_HOLES_LAYER_TOP
100
AcDbCircle
 10
80.415227
 20
69.142035
 30
0.0
 40
1.25
  0
HATCH
  5
1BA
100
AcDbEntity
  8
PART_HOLES_LAYER_TOP
100
AcDbHatch
 10
0.0
 20
0.0
 30
0.0
210
0.0
220
0.0
230
1.0
  2
SOLID
 70
         1
 71
         1
 91
        1
 92
        1
 93
        1
 72
         2
 10
80.415227000000002
 20
69.142035000000007
 40
1.25
 50
0.0
 51
360.0
 73
         1
 97
        1
330
1B9
 75
         0
 76
         1
 98
        1
 10
0.0
 20
0.0
  0
CIRCLE
  5
1BB
100
AcDbEntity
  8
PART_HOLES_LAYER_TOP
100
AcDbCircle
 10
80.415227
 20
81.142035
 30
0.0
 40
1.25
  0
HATCH
  5
1BC
100
AcDbEntity
  8
PART_HOLES_LAYER_TOP
100
AcDbHatch
 10
0.0
 20
0.0
 30
0.0
210
0.0
220
0.0
230
1.0
  2
SOLID
 70
         1
 71
         1
 91
        1
 92
        1
 93
        1
 72
         2
 10
80.415227000000002
 20
81.142035000000007
 40
1.25
 50
0.0
 51
360.0
 73
         1
 97
        1
330
1BB
 75
         0
 76
         1
 98
        1
 10
0.0
 20
0.0
  0
CIRCLE
  5
1BD
100
AcDbEntity
  8
PART_HOLES_LAYER_TOP
100
AcDbCircle
 10
80.150002
 20
90.649998
 30
0.0
 40
1.4
  0
HATCH
  5
1BE
100
AcDbEntity
  8
PART_HOLES_LAYER_TOP
100
AcDbHatch
 10
0.0
 20
0.0
 30
0.0
210
0.0
220
0.0
230
1.0
  2
SOLID
 70
         1
 71
         1
 91
        1
 92
        1
 93
        1
 72
         2
 10
80.150002000000001
 20
90.649997999999997
 40
1.3999999999999999
 50
0.0
 51
360.0
 73
         1
 97
        1
330
1BD
 75
         0
 76
         1
 98
        1
 10
0.0
 20
0.0
  0
CIRCLE
  5
1BF
100
AcDbEntity
  8
PART_HOLES_LAYER_TOP
100
AcDbCircle
 10
83.15
 20
85.949998
 30
0.0
 40
1.4
  0
HATCH
  5
1C0
100
AcDbEntity
  8
PART_HOLES_LAYER_TOP
100
AcDbHatch
 10
0.0
 20
0.0
 30
0.0
210
0.0
220
0.0
230
1.0
  2
SOLID
 70
         1
 71
         1
 91
        1
 92
        1
 93
        1
 72
         2
 10
83.150000000000006
 20
85.949997999999994
 40
1.3999999999999999
 50
0.0
 51
360.0
 73
         1
 97
        1
330
1BF
 75
         0
 76
         1
 98
        1
 10
0.0
 20
0.0
  0
CIRCLE
  5
1C1
100
AcDbEntity
  8
PART_HOLES_LAYER_TOP
100
AcDbCircle
 10
76.95
 20
85.949998
 30
0.0
 40
1.4
  0
HATCH
  5
1C2
100
AcDbEntity
  8
PART_HOLES_LAYER_TOP
100
AcDbHatch
 10
0.0
 20
0.0
 30
0.0
210
0.0
220
0.0
230
1.0
  2
SOLID
 70
         1
 71
         1
 91
        1
 92
        1
 93
        1
 72
         2
 10
76.950000000000003
 20
85.949997999999994
 40
1.3999999999999999
 50
0.0
 51
360.0
 73
         1
 97
        1
330
1C1
 75
         0
 76
         1
 98
        1
 10
0.0
 20
0.0
  0
LWPOLYLINE
  5
1C3
100
AcDbEntity
  8
SOLDERMASK_PADS_TOP
100
AcDbPolyline
 90
        4
 70
         1
 10
69.85
 20
57.5
 42
-1.0
 10
70.85
 20
57.5
 10
70.85
 20
55.5
 42
-1.0
 10
69.85
 20
55.5
  0
LWPOLYLINE
  5
1C4
100
AcDbEntity
  8
SOLDERMASK_PADS_TOP
100
AcDbPolyline
 90
        4
 70
         1
 10
69.85
 20
50.1
 42
-1.0
 10
70.85
 20
50.1
 10
70.85
 20
48.1
 42
-1.0
 10
69.85
 20
48.1
  0
LWPOLYLINE
  5
1C5
100
AcDbEntity
  8
SOLDERMASK_PADS_TOP
100
AcDbPolyline
 90
        4
 70
         1
 10
74.35
 20
57.5
 42
-1.0
 10
75.35
 20
57.5
 10
75.35
 20
55.5
 42
-1.0
 10
74.35
 20
55.5
  0
LWPOLYLINE
  5
1C6
100
AcDbEntity
  8
SOLDERMASK_PADS_TOP
100
AcDbPolyline
 90
        4
 70
         1
 10
74.35
 20
50.1
 42
-1.0
 10
75.35
 20
50.1
 10
75.35
 20
48.1
 42
-1.0
 10
74.35
 20
48.1
  0
LWPOLYLINE
  5
1C7
100
AcDbEntity
  8
SOLDERMASK_PADS_TOP
100
AcDbPolyline
 90
        4
 70
         1
 10
72.852408
 20
0.229462
 10
72.852408
 20
1.829462
 10
74.452408
 20
1.829462
 10
74.452408
 20
0.229462
  0
CIRCLE
  5
1C8
100
AcDbEntity
  8
SOLDERMASK_PADS_TOP
100
AcDbCircle
 10
73.652408
 20
6.109462
 30
0.0
 40
0.75
  0
CIRCLE
  5
1C9
100
AcDbEntity
  8
SOLDERMASK_PADS_TOP
100
AcDbCircle
 10
71.112408
 20
4.839462
 30
0.0
 40
0.75
  0
CIRCLE
  5
1CA
100
AcDbEntity
  8
SOLDERMASK_PADS_TOP
100
AcDbCircle
 10
76.952408
 20
13.344462
 30
0.0
 40
1.25
  0
CIRCLE
  5
1CB
100
AcDbEntity
  8
SOLDERMASK_PADS_TOP
100
AcDbCircle
 10
73.652408
 20
8.649462
 30
0.0
 40
0.75
  0
CIRCLE
  5
1CC
100
AcDbEntity
  8
SOLDERMASK_PADS_TOP
100
AcDbCircle
 10
71.112408
 20
9.919462
 30
0.0
 40
0.75
  0
CIRCLE
  5
1CD
100
AcDbEntity
  8
SOLDERMASK_PADS_TOP
100
AcDbCircle
 10
71.112408
 20
2.299462
 30
0.0
 40
0.75
  0
CIRCLE
  5
1CE
100
AcDbEntity
  8
SOLDERMASK_PADS_TOP
100
AcDbCircle
 10
71.112408
 20
7.379462
 30
0.0
 40
0.75
  0
CIRCLE
  5
1CF
100
AcDbEntity
  8
SOLDERMASK_PADS_TOP
100
AcDbCircle
 10
66.282408
 20
0.014462
 30
0.0
 40
1.05
  0
CIRCLE
  5
1D0
100
AcDbEntity
  8
SOLDERMASK_PADS_TOP
100
AcDbCircle
 10
66.282408
 20
2.554462
 30
0.0
 40
1.05
  0
CIRCLE
  5
1D1
100
AcDbEntity
  8
SOLDERMASK_PADS_TOP
100
AcDbCircle
 10
83.382408
 20
1.684462
 30
0.0
 40
0.9
  0
CIRCLE
  5
1D2
100
AcDbEntity
  8
SOLDERMASK_PADS_TOP
100
AcDbCircle
 10
66.282408
 20
8.394462
 30
0.0
 40
1.05
  0
CIRCLE
  5
1D3
100
AcDbEntity
  8
SOLDERMASK_PADS_TOP
100
AcDbCircle
 10
85.082408
 20
9.264462
 30
0.0
 40
0.9
  0
CIRCLE
  5
1D4
100
AcDbEntity
  8
SOLDERMASK_PADS_TOP
100
AcDbCircle
 10
66.282408
 20
10.934462
 30
0.0
 40
1.05
  0
CIRCLE
  5
1D5
100
AcDbEntity
  8
SOLDERMASK_PADS_TOP
100
AcDbCircle
 10
83.382408
 20
11.804462
 30
0.0
 40
0.9
  0
CIRCLE
  5
1D6
100
AcDbEntity
  8
SOLDERMASK_PADS_TOP
100
AcDbCircle
 10
73.652408
 20
3.569462
 30
0.0
 40
0.75
  0
CIRCLE
  5
1D7
100
AcDbEntity
  8
SOLDERMASK_PADS_TOP
100
AcDbCircle
 10
76.952408
 20
-2.395538
 30
0.0
 40
1.25
  0
CIRCLE
  5
1D8
100
AcDbEntity
  8
SOLDERMASK_PADS_TOP
100
AcDbCircle
 10
85.082408
 20
-0.855538
 30
0.0
 40
0.9
  0
LWPOLYLINE
  5
1D9
100
AcDbEntity
  8
SOLDERMASK_PADS_TOP
100
AcDbPolyline
 90
        4
 70
         1
 10
34.69
 20
96.63
 42
-1.0
 10
35.69
 20
96.63
 10
35.69
 20
94.13
 42
-1.0
 10
34.69
 20
94.13
  0
LWPOLYLINE
  5
1DA
100
AcDbEntity
  8
SOLDERMASK_PADS_TOP
100
AcDbPolyline
 90
        4
 70
         1
 10
37.23
 20
96.63
 42
-1.0
 10
38.23
 20
96.63
 10
38.23
 20
94.13
 42
-1.0
 10
37.23
 20
94.13
  0
LWPOLYLINE
  5
1DB
100
AcDbEntity
  8
SOLDERMASK_PADS_TOP
100
AcDbPolyline
 90
        4
 70
         1
 10
39.77
 20
96.63
 42
-1.0
 10
40.77
 20
96.63
 10
40.77
 20
94.13
 42
-1.0
 10
39.77
 20
94.13
  0
LWPOLYLINE
  5
1DC
100
AcDbEntity
  8
SOLDERMASK_PADS_TOP
100
AcDbPolyline
 90
        4
 70
         1
 10
42.31
 20
96.63
 42
-1.0
 10
43.31
 20
96.63
 10
43.31
 20
94.13
 42
-1.0
 10
42.31
 20
94.13
  0
LWPOLYLINE
  5
1DD
100
AcDbEntity
  8
SOLDERMASK_PADS_TOP
100
AcDbPolyline
 90
        4
 70
         1
 10
44.85
 20
96.63
 42
-1.0
 10
45.85
 20
96.63
 10
45.85
 20
94.13
 42
-1.0
 10
44.85
 20
94.13
  0
LWPOLYLINE
  5
1DE
100
AcDbEntity
  8
SOLDERMASK_PADS_TOP
100
AcDbPolyline
 90
        4
 70
         1
 10
47.39
 20
96.63
 42
-1.0
 10
48.39
 20
96.63
 10
48.39
 20
94.13
 42
-1.0
 10
47.39
 20
94.13
  0
LWPOLYLINE
  5
1DF
100
AcDbEntity
  8
SOLDERMASK_PADS_TOP
100
AcDbPolyline
 90
        4
 70
         1
 10
49.93
 20
96.63
 42
-1.0
 10
50.93
 20
96.63
 10
50.93
 20
94.13
 42
-1.0
 10
49.93
 20
94.13
  0
LWPOLYLINE
  5
1E0
100
AcDbEntity
  8
SOLDERMASK_PADS_TOP
100
AcDbPolyline
 90
        4
 70
         1
 10
52.47
 20
96.63
 42
-1.0
 10
53.47
 20
96.63
 10
53.47
 20
94.13
 42
-1.0
 10
52.47
 20
94.13
  0
LWPOLYLINE
  5
1E1
100
AcDbEntity
  8
SOLDERMASK_PADS_TOP
100
AcDbPolyline
 90
        4
 70
         1
 10
55.01
 20
96.63
 42
-1.0
 10
56.01
 20
96.63
 10
56.01
 20
94.13
 42
-1.0
 10
55.01
 20
94.13
  0
LWPOLYLINE
  5
1E2
100
AcDbEntity
  8
SOLDERMASK_PADS_TOP
100
AcDbPolyline
 90
        4
 70
         1
 10
57.55
 20
96.63
 42
-1.0
 10
58.55
 20
96.63
 10
58.55
 20
94.13
 42
-1.0
 10
57.55
 20
94.13
  0
LWPOLYLINE
  5
1E3
100
AcDbEntity
  8
SOLDERMASK_PADS_TOP
100
AcDbPolyline
 90
        4
 70
         1
 10
34.69
 20
92.17
 42
-1.0
 10
35.69
 20
92.17
 10
35.69
 20
89.67
 42
-1.0
 10
34.69
 20
89.67
  0
LWPOLYLINE
  5
1E4
100
AcDbEntity
  8
SOLDERMASK_PADS_TOP
100
AcDbPolyline
 90
        4
 70
         1
 10
37.23
 20
92.17
 42
-1.0
 10
38.23
 20
92.17
 10
38.23
 20
89.67
 42
-1.0
 10
37.23
 20
89.67
  0
LWPOLYLINE
  5
1E5
100
AcDbEntity
  8
SOLDERMASK_PADS_TOP
100
AcDbPolyline
 90
        4
 70
         1
 10
39.77
 20
92.17
 42
-1.0
 10
40.77
 20
92.17
 10
40.77
 20
89.67
 42
-1.0
 10
39.77
 20
89.67
  0
LWPOLYLINE
  5
1E6
100
AcDbEntity
  8
SOLDERMASK_PADS_TOP
100
AcDbPolyline
 90
        4
 70
         1
 10
42.31
 20
92.17
 42
-1.0
 10
43.31
 20
92.17
 10
43.31
 20
89.67
 42
-1.0
 10
42.31
 20
89.67
  0
LWPOLYLINE
  5
1E7
100
AcDbEntity
  8
SOLDERMASK_PADS_TOP
100
AcDbPolyline
 90
        4
 70
         1
 10
44.85
 20
92.17
 42
-1.0
 10
45.85
 20
92.17
 10
45.85
 20
89.67
 42
-1.0
 10
44.85
 20
89.67
  0
LWPOLYLINE
  5
1E8
100
AcDbEntity
  8
SOLDERMASK_PADS_TOP
100
AcDbPolyline
 90
        4
 70
         1
 10
47.39
 20
92.17
 42
-1.0
 10
48.39
 20
92.17
 10
48.39
 20
89.67
 42
-1.0
 10
47.39
 20
89.67
  0
LWPOLYLINE
  5
1E9
100
AcDbEntity
  8
SOLDERMASK_PADS_TOP
100
AcDbPolyline
 90
        4
 70
         1
 10
49.93
 20
92.17
 42
-1.0
 10
50.93
 20
92.17
 10
50.93
 20
89.67
 42
-1.0
 10
49.93
 20
89.67
  0
LWPOLYLINE
  5
1EA
100
AcDbEntity
  8
SOLDERMASK_PADS_TOP
100
AcDbPolyline
 90
        4
 70
         1
 10
52.47
 20
92.17
 42
-1.0
 10
53.47
 20
92.17
 10
53.47
 20
89.67
 42
-1.0
 10
52.47
 20
89.67
  0
LWPOLYLINE
  5
1EB
100
AcDbEntity
  8
SOLDERMASK_PADS_TOP
100
AcDbPolyline
 90
        4
 70
         1
 10
55.01
 20
92.17
 42
-1.0
 10
56.01
 20
92.17
 10
56.01
 20
89.67
 42
-1.0
 10
55.01
 20
89.67
  0
LWPOLYLINE
  5
1EC
100
AcDbEntity
  8
SOLDERMASK_PADS_TOP
100
AcDbPolyline
 90
        4
 70
         1
 10
57.55
 20
92.17
 42
-1.0
 10
58.55
 20
92.17
 10
58.55
 20
89.67
 42
-1.0
 10
57.55
 20
89.67
  0
LWPOLYLINE
  5
1ED
100
AcDbEntity
  8
SOLDERMASK_PADS_TOP
100
AcDbPolyline
 90
        4
 70
         1
 10
38.205
 20
7.65
 42
-1.0
 10
37.605
 20
7.65
 10
37.605
 20
9.05
 42
-1.0
 10
38.205
 20
9.05
  0
LWPOLYLINE
  5
1EE
100
AcDbEntity
  8
SOLDERMASK_PADS_TOP
100
AcDbPolyline
 90
        4
 70
         1
 10
36.935
 20
7.65
 42
-1.0
 10
36.335
 20
7.65
 10
36.335
 20
9.05
 42
-1.0
 10
36.935
 20
9.05
  0
LWPOLYLINE
  5
1EF
100
AcDbEntity
  8
SOLDERMASK_PADS_TOP
100
AcDbPolyline
 90
        4
 70
         1
 10
35.665
 20
7.65
 42
-1.0
 10
35.065
 20
7.65
 10
35.065
 20
9.05
 42
-1.0
 10
35.665
 20
9.05
  0
LWPOLYLINE
  5
1F0
100
AcDbEntity
  8
SOLDERMASK_PADS_TOP
100
AcDbPolyline
 90
        4
 70
         1
 10
34.395
 20
7.65
 42
-1.0
 10
33.795
 20
7.65
 10
33.795
 20
9.05
 42
-1.0
 10
34.395
 20
9.05
  0
LWPOLYLINE
  5
1F1
100
AcDbEntity
  8
SOLDERMASK_PADS_TOP
100
AcDbPolyline
 90
        4
 70
         1
 10
34.395
 20
2.75
 42
-1.0
 10
33.795
 20
2.75
 10
33.795
 20
4.15
 42
-1.0
 10
34.395
 20
4.15
  0
LWPOLYLINE
  5
1F2
100
AcDbEntity
  8
SOLDERMASK_PADS_TOP
100
AcDbPolyline
 90
        4
 70
         1
 10
35.665
 20
2.75
 42
-1.0
 10
35.065
 20
2.75
 10
35.065
 20
4.15
 42
-1.0
 10
35.665
 20
4.15
  0
LWPOLYLINE
  5
1F3
100
AcDbEntity
  8
SOLDERMASK_PADS_TOP
100
AcDbPolyline
 90
        4
 70
         1
 10
36.935
 20
2.75
 42
-1.0
 10
36.335
 20
2.75
 10
36.335
 20
4.15
 42
-1.0
 10
36.935
 20
4.15
  0
LWPOLYLINE
  5
1F4
100
AcDbEntity
  8
SOLDERMASK_PADS_TOP
100
AcDbPolyline
 90
        4
 70
         1
 10
38.205
 20
2.75
 42
-1.0
 10
37.605
 20
2.75
 10
37.605
 20
4.15
 42
-1.0
 10
38.205
 20
4.15
  0
LWPOLYLINE
  5
1F5
100
AcDbEntity
  8
SOLDERMASK_PADS_TOP
100
AcDbPolyline
 90
        4
 70
         1
 10
40.683548
 20
12.976804
 10
40.683548
 20
14.776804
 10
42.933548
 20
14.776804
 10
42.933548
 20
12.976804
  0
LWPOLYLINE
  5
1F6
100
AcDbEntity
  8
SOLDERMASK_PADS_TOP
100
AcDbPolyline
 90
        4
 70
         1
 10
40.683548
 20
10.076804
 10
40.683548
 20
11.876804
 10
42.933548
 20
11.876804
 10
42.933548
 20
10.076804
  0
CIRCLE
  5
1F7
100
AcDbEntity
  8
SOLDERMASK_PADS_TOP
100
AcDbCircle
 10
31.602482
 20
-2.401812
 30
0.0
 40
0.5
  0
CIRCLE
  5
1F8
100
AcDbEntity
  8
SOLDERMASK_PADS_TOP
100
AcDbCircle
 10
79.602482
 20
95.398188
 30
0.0
 40
0.5
  0
CIRCLE
  5
1F9
100
AcDbEntity
  8
SOLDERMASK_PADS_TOP
100
AcDbCircle
 10
60.908868
 20
49.22782
 30
0.0
 40
0.75
  0
CIRCLE
  5
1FA
100
AcDbEntity
  8
SOLDERMASK_PADS_TOP
100
AcDbCircle
 10
60.908868
 20
54.10782
 30
0.0
 40
0.75
  0
LWPOLYLINE
  5
1FB
100
AcDbEntity
  8
SOLDERMASK_PADS_TOP
100
AcDbPolyline
 90
        4
 70
         1
 10
81.997539
 20
95.499549
 42
-1.0
 10
81.997539
 20
95.299549
 10
81.197539
 20
95.299549
 42
-1.0
 10
81.197539
 20
95.499549
  0
LWPOLYLINE
  5
1FC
100
AcDbEntity
  8
SOLDERMASK_PADS_TOP
100
AcDbPolyline
 90
        4
 70
         1
 10
81.5
 20
95.8
 42
-1.0
 10
81.7
 20
95.8
 10
81.7
 20
95.0
 42
-1.0
 10
81.5
 20
95.0
  0
LWPOLYLINE
  5
1FD
100
AcDbEntity
  8
SOLDERMASK_PADS_TOP
100
AcDbPolyline
 90
        4
 70
         1
 10
81.997539
 20
-8.100451
 42
-1.0
 10
81.997539
 20
-8.300451
 10
81.197539
 20
-8.300451
 42
-1.0
 10
81.197539
 20
-8.100451
  0
LWPOLYLINE
  5
1FE
100
AcDbEntity
  8
SOLDERMASK_PADS_TOP
100
AcDbPolyline
 90
        4
 70
         1
 10
81.5
 20
-7.8
 42
-1.0
 10
81.7
 20
-7.8
 10
81.7
 20
-8.6
 42
-1.0
 10
81.5
 20
-8.6
  0
LWPOLYLINE
  5
1FF
100
AcDbEntity
  8
SOLDERMASK_PADS_TOP
100
AcDbPolyline
 90
        4
 70
         1
 10
36.597539
 20
-8.100451
 42
-1.0
 10
36.597539
 20
-8.300451
 10
35.797539
 20
-8.300451
 42
-1.0
 10
35.797539
 20
-8.100451
  0
LWPOLYLINE
  5
200
100
AcDbEntity
  8
SOLDERMASK_PADS_TOP
100
AcDbPolyline
 90
        4
 70
         1
 10
36.1
 20
-7.8
 42
-1.0
 10
36.3
 20
-7.8
 10
36.3
 20
-8.6
 42
-1.0
 10
36.1
 20
-8.6
  0
LWPOLYLINE
  5
201
100
AcDbEntity
  8
SOLDERMASK_PADS_TOP
100
AcDbPolyline
 90
        4
 70
         1
 10
64.875
 20
68.25
 10
64.875
 20
70.05
 10
67.125
 20
70.05
 10
67.125
 20
68.25
  0
LWPOLYLINE
  5
202
100
AcDbEntity
  8
SOLDERMASK_PADS_TOP
100
AcDbPolyline
 90
        4
 70
         1
 10
64.875
 20
71.15
 10
64.875
 20
72.95
 10
67.125
 20
72.95
 10
67.125
 20
71.15
  0
LWPOLYLINE
  5
203
100
AcDbEntity
  8
SOLDERMASK_PADS_TOP
100
AcDbPolyline
 90
        4
 70
         1
 10
51.244352
 20
21.993194
 42
-1.0
 10
50.944352
 20
21.993194
 10
50.944352
 20
23.243194
 42
-1.0
 10
51.244352
 20
23.243194
  0
LWPOLYLINE
  5
204
100
AcDbEntity
  8
SOLDERMASK_PADS_TOP
100
AcDbPolyline
 90
        4
 70
         1
 10
50.744352
 20
21.993194
 42
-1.0
 10
50.444352
 20
21.993194
 10
50.444352
 20
23.243194
 42
-1.0
 10
50.744352
 20
23.243194
  0
LWPOLYLINE
  5
205
100
AcDbEntity
  8
SOLDERMASK_PADS_TOP
100
AcDbPolyline
 90
        4
 70
         1
 10
47.744352
 20
21.993194
 42
-1.0
 10
47.444352
 20
21.993194
 10
47.444352
 20
23.243194
 42
-1.0
 10
47.744352
 20
23.243194
  0
LWPOLYLINE
  5
206
100
AcDbEntity
  8
SOLDERMASK_PADS_TOP
100
AcDbPolyline
 90
        4
 70
         1
 10
45.769352
 20
20.818194
 42
-1.0
 10
45.769352
 20
20.518194
 10
44.519352
 20
20.518194
 42
-1.0
 10
44.519352
 20
20.818194
  0
LWPOLYLINE
  5
207
100
AcDbEntity
  8
SOLDERMASK_PADS_TOP
100
AcDbPolyline
 90
        4
 70
         1
 10
45.769352
 20
18.318194
 42
-1.0
 10
45.769352
 20
18.018194
 10
44.519352
 20
18.018194
 42
-1.0
 10
44.519352
 20
18.318194
  0
LWPOLYLINE
  5
208
100
AcDbEntity
  8
SOLDERMASK_PADS_TOP
100
AcDbPolyline
 90
        4
 70
         1
 10
45.769352
 20
17.818194
 42
-1.0
 10
45.769352
 20
17.518194
 10
44.519352
 20
17.518194
 42
-1.0
 10
44.519352
 20
17.818194
  0
LWPOLYLINE
  5
209
100
AcDbEntity
  8
SOLDERMASK_PADS_TOP
100
AcDbPolyline
 90
        4
 70
         1
 10
45.769352
 20
16.818194
 42
-1.0
 10
45.769352
 20
16.518194
 10
44.519352
 20
16.518194
 42
-1.0
 10
44.519352
 20
16.818194
  0
LWPOLYLINE
  5
20A
100
AcDbEntity
  8
SOLDERMASK_PADS_TOP
100
AcDbPolyline
 90
        4
 70
         1
 10
46.744352
 20
13.593194
 42
-1.0
 10
46.444352
 20
13.593194
 10
46.444352
 20
14.843194
 42
-1.0
 10
46.744352
 20
14.843194
  0
LWPOLYLINE
  5
20B
100
AcDbEntity
  8
SOLDERMASK_PADS_TOP
100
AcDbPolyline
 90
        4
 70
         1
 10
48.244352
 20
13.593194
 42
-1.0
 10
47.944352
 20
13.593194
 10
47.944352
 20
14.843194
 42
-1.0
 10
48.244352
 20
14.843194
  0
LWPOLYLINE
  5
20C
100
AcDbEntity
  8
SOLDERMASK_PADS_TOP
100
AcDbPolyline
 90
        4
 70
         1
 10
48.744352
 20
13.593194
 42
-1.0
 10
48.444352
 20
13.593194
 10
48.444352
 20
14.843194
 42
-1.0
 10
48.744352
 20
14.843194
  0
LWPOLYLINE
  5
20D
100
AcDbEntity
  8
SOLDERMASK_PADS_TOP
100
AcDbPolyline
 90
        4
 70
         1
 10
51.244352
 20
13.593194
 42
-1.0
 10
50.944352
 20
13.593194
 10
50.944352
 20
14.843194
 42
-1.0
 10
51.244352
 20
14.843194
  0
LWPOLYLINE
  5
20E
100
AcDbEntity
  8
SOLDERMASK_PADS_TOP
100
AcDbPolyline
 90
        4
 70
         1
 10
54.169352
 20
19.818194
 42
-1.0
 10
54.169352
 20
19.518194
 10
52.919352
 20
19.518194
 42
-1.0
 10
52.919352
 20
19.818194
  0
CIRCLE
  5
20F
100
AcDbEntity
  8
SOLDERMASK_PADS_TOP
100
AcDbCircle
 10
45.144352
 20
22.618194
 30
0.0
 40
1.0
  0
CIRCLE
  5
210
100
AcDbEntity
  8
SOLDERMASK_PADS_TOP
100
AcDbCircle
 10
53.544352
 20
14.218194
 30
0.0
 40
1.0
  0
LWPOLYLINE
  5
211
100
AcDbEntity
  8
SOLDERMASK_PADS_TOP
100
AcDbPolyline
 90
        4
 70
         1
 10
52.244352
 20
13.593194
 42
-1.0
 10
51.944352
 20
13.593194
 10
51.944352
 20
14.843194
 42
-1.0
 10
52.244352
 20
14.843194
  0
LWPOLYLINE
  5
212
100
AcDbEntity
  8
SOLDERMASK_PADS_TOP
100
AcDbPolyline
 90
        4
 70
         1
 10
51.744352
 20
13.593194
 42
-1.0
 10
51.444352
 20
13.593194
 10
51.444352
 20
14.843194
 42
-1.0
 10
51.744352
 20
14.843194
  0
LWPOLYLINE
  5
213
100
AcDbEntity
  8
SOLDERMASK_PADS_TOP
100
AcDbPolyline
 90
        4
 70
         1
 10
54.169352
 20
16.818194
 42
-1.0
 10
54.169352
 20
16.518194
 10
52.919352
 20
16.518194
 42
-1.0
 10
52.919352
 20
16.818194
  0
LWPOLYLINE
  5
214
100
AcDbEntity
  8
SOLDERMASK_PADS_TOP
100
AcDbPolyline
 90
        4
 70
         1
 10
54.169352
 20
18.818194
 42
-1.0
 10
54.169352
 20
18.518194
 10
52.919352
 20
18.518194
 42
-1.0
 10
52.919352
 20
18.818194
  0
LWPOLYLINE
  5
215
100
AcDbEntity
  8
SOLDERMASK_PADS_TOP
100
AcDbPolyline
 90
        4
 70
         1
 10
54.169352
 20
19.318194
 42
-1.0
 10
54.169352
 20
19.018194
 10
52.919352
 20
19.018194
 42
-1.0
 10
52.919352
 20
19.318194
  0
LWPOLYLINE
  5
216
100
AcDbEntity
  8
SOLDERMASK_PADS_TOP
100
AcDbPolyline
 90
        4
 70
         1
 10
48.744352
 20
21.993194
 42
-1.0
 10
48.444352
 20
21.993194
 10
48.444352
 20
23.243194
 42
-1.0
 10
48.744352
 20
23.243194
  0
LWPOLYLINE
  5
217
100
AcDbEntity
  8
SOLDERMASK_PADS_TOP
100
AcDbPolyline
 90
        4
 70
         1
 10
46.744352
 20
21.993194
 42
-1.0
 10
46.444352
 20
21.993194
 10
46.444352
 20
23.243194
 42
-1.0
 10
46.744352
 20
23.243194
  0
LWPOLYLINE
  5
218
100
AcDbEntity
  8
SOLDERMASK_PADS_TOP
100
AcDbPolyline
 90
        4
 70
         1
 10
45.769352
 20
15.818194
 42
-1.0
 10
45.769352
 20
15.518194
 10
44.519352
 20
15.518194
 42
-1.0
 10
44.519352
 20
15.818194
  0
LWPOLYLINE
  5
219
100
AcDbEntity
  8
SOLDERMASK_PADS_TOP
100
AcDbPolyline
 90
        4
 70
         1
 10
49.244352
 20
21.993194
 42
-1.0
 10
48.944352
 20
21.993194
 10
48.944352
 20
23.243194
 42
-1.0
 10
49.244352
 20
23.243194
  0
LWPOLYLINE
  5
21A
100
AcDbEntity
  8
SOLDERMASK_PADS_TOP
100
AcDbPolyline
 90
        4
 70
         1
 10
45.769352
 20
21.318194
 42
-1.0
 10
45.769352
 20
21.018194
 10
44.519352
 20
21.018194
 42
-1.0
 10
44.519352
 20
21.318194
  0
LWPOLYLINE
  5
21B
100
AcDbEntity
  8
SOLDERMASK_PADS_TOP
100
AcDbPolyline
 90
        4
 70
         1
 10
50.744352
 20
13.593194
 42
-1.0
 10
50.444352
 20
13.593194
 10
50.444352
 20
14.843194
 42
-1.0
 10
50.744352
 20
14.843194
  0
LWPOLYLINE
  5
21C
100
AcDbEntity
  8
SOLDERMASK_PADS_TOP
100
AcDbPolyline
 90
        4
 70
         1
 10
54.169352
 20
17.818194
 42
-1.0
 10
54.169352
 20
17.518194
 10
52.919352
 20
17.518194
 42
-1.0
 10
52.919352
 20
17.818194
  0
LWPOLYLINE
  5
21D
100
AcDbEntity
  8
SOLDERMASK_PADS_TOP
100
AcDbPolyline
 90
        4
 70
         1
 10
50.244352
 20
13.593194
 42
-1.0
 10
49.944352
 20
13.593194
 10
49.944352
 20
14.843194
 42
-1.0
 10
50.244352
 20
14.843194
  0
LWPOLYLINE
  5
21E
100
AcDbEntity
  8
SOLDERMASK_PADS_TOP
100
AcDbPolyline
 90
        4
 70
         1
 10
54.169352
 20
16.318194
 42
-1.0
 10
54.169352
 20
16.018194
 10
52.919352
 20
16.018194
 42
-1.0
 10
52.919352
 20
16.318194
  0
LWPOLYLINE
  5
21F
100
AcDbEntity
  8
SOLDERMASK_PADS_TOP
100
AcDbPolyline
 90
        4
 70
         1
 10
54.169352
 20
15.818194
 42
-1.0
 10
54.169352
 20
15.518194
 10
52.919352
 20
15.518194
 42
-1.0
 10
52.919352
 20
15.818194
  0
LWPOLYLINE
  5
220
100
AcDbEntity
  8
SOLDERMASK_PADS_TOP
100
AcDbPolyline
 90
        4
 70
         1
 10
54.169352
 20
18.318194
 42
-1.0
 10
54.169352
 20
18.018194
 10
52.919352
 20
18.018194
 42
-1.0
 10
52.919352
 20
18.318194
  0
LWPOLYLINE
  5
221
100
AcDbEntity
  8
SOLDERMASK_PADS_TOP
100
AcDbPolyline
 90
        4
 70
         1
 10
49.744352
 20
13.593194
 42
-1.0
 10
49.444352
 20
13.593194
 10
49.444352
 20
14.843194
 42
-1.0
 10
49.744352
 20
14.843194
  0
LWPOLYLINE
  5
222
100
AcDbEntity
  8
SOLDERMASK_PADS_TOP
100
AcDbPolyline
 90
        4
 70
         1
 10
54.169352
 20
17.318194
 42
-1.0
 10
54.169352
 20
17.018194
 10
52.919352
 20
17.018194
 42
-1.0
 10
52.919352
 20
17.318194
  0
LWPOLYLINE
  5
223
100
AcDbEntity
  8
SOLDERMASK_PADS_TOP
100
AcDbPolyline
 90
        4
 70
         1
 10
54.169352
 20
20.818194
 42
-1.0
 10
54.169352
 20
20.518194
 10
52.919352
 20
20.518194
 42
-1.0
 10
52.919352
 20
20.818194
  0
LWPOLYLINE
  5
224
100
AcDbEntity
  8
SOLDERMASK_PADS_TOP
100
AcDbPolyline
 90
        4
 70
         1
 10
48.244352
 20
21.993194
 42
-1.0
 10
47.944352
 20
21.993194
 10
47.944352
 20
23.243194
 42
-1.0
 10
48.244352
 20
23.243194
  0
LWPOLYLINE
  5
225
100
AcDbEntity
  8
SOLDERMASK_PADS_TOP
100
AcDbPolyline
 90
        4
 70
         1
 10
51.744352
 20
21.993194
 42
-1.0
 10
51.444352
 20
21.993194
 10
51.444352
 20
23.243194
 42
-1.0
 10
51.744352
 20
23.243194
  0
LWPOLYLINE
  5
226
100
AcDbEntity
  8
SOLDERMASK_PADS_TOP
100
AcDbPolyline
 90
        4
 70
         1
 10
52.244352
 20
21.993194
 42
-1.0
 10
51.944352
 20
21.993194
 10
51.944352
 20
23.243194
 42
-1.0
 10
52.244352
 20
23.243194
  0
LWPOLYLINE
  5
227
100
AcDbEntity
  8
SOLDERMASK_PADS_TOP
100
AcDbPolyline
 90
        4
 70
         1
 10
49.244352
 20
13.593194
 42
-1.0
 10
48.944352
 20
13.593194
 10
48.944352
 20
14.843194
 42
-1.0
 10
49.244352
 20
14.843194
  0
LWPOLYLINE
  5
228
100
AcDbEntity
  8
SOLDERMASK_PADS_TOP
100
AcDbPolyline
 90
        4
 70
         1
 10
49.744352
 20
21.993194
 42
-1.0
 10
49.444352
 20
21.993194
 10
49.444352
 20
23.243194
 42
-1.0
 10
49.744352
 20
23.243194
  0
LWPOLYLINE
  5
229
100
AcDbEntity
  8
SOLDERMASK_PADS_TOP
100
AcDbPolyline
 90
        4
 70
         1
 10
50.244352
 20
21.993194
 42
-1.0
 10
49.944352
 20
21.993194
 10
49.944352
 20
23.243194
 42
-1.0
 10
50.244352
 20
23.243194
  0
LWPOLYLINE
  5
22A
100
AcDbEntity
  8
SOLDERMASK_PADS_TOP
100
AcDbPolyline
 90
        4
 70
         1
 10
45.769352
 20
20.318194
 42
-1.0
 10
45.769352
 20
20.018194
 10
44.519352
 20
20.018194
 42
-1.0
 10
44.519352
 20
20.318194
  0
LWPOLYLINE
  5
22B
100
AcDbEntity
  8
SOLDERMASK_PADS_TOP
100
AcDbPolyline
 90
        4
 70
         1
 10
47.244352
 20
21.993194
 42
-1.0
 10
46.944352
 20
21.993194
 10
46.944352
 20
23.243194
 42
-1.0
 10
47.244352
 20
23.243194
  0
LWPOLYLINE
  5
22C
100
AcDbEntity
  8
SOLDERMASK_PADS_TOP
100
AcDbPolyline
 90
        4
 70
         1
 10
45.769352
 20
19.318194
 42
-1.0
 10
45.769352
 20
19.018194
 10
44.519352
 20
19.018194
 42
-1.0
 10
44.519352
 20
19.318194
  0
LWPOLYLINE
  5
22D
100
AcDbEntity
  8
SOLDERMASK_PADS_TOP
100
AcDbPolyline
 90
        4
 70
         1
 10
45.769352
 20
18.818194
 42
-1.0
 10
45.769352
 20
18.518194
 10
44.519352
 20
18.518194
 42
-1.0
 10
44.519352
 20
18.818194
  0
LWPOLYLINE
  5
22E
100
AcDbEntity
  8
SOLDERMASK_PADS_TOP
100
AcDbPolyline
 90
        4
 70
         1
 10
45.769352
 20
19.818194
 42
-1.0
 10
45.769352
 20
19.518194
 10
44.519352
 20
19.518194
 42
-1.0
 10
44.519352
 20
19.818194
  0
LWPOLYLINE
  5
22F
100
AcDbEntity
  8
SOLDERMASK_PADS_TOP
100
AcDbPolyline
 90
        4
 70
         1
 10
47.244352
 20
13.593194
 42
-1.0
 10
46.944352
 20
13.593194
 10
46.944352
 20
14.843194
 42
-1.0
 10
47.244352
 20
14.843194
  0
LWPOLYLINE
  5
230
100
AcDbEntity
  8
SOLDERMASK_PADS_TOP
100
AcDbPolyline
 90
        4
 70
         1
 10
47.744352
 20
13.593194
 42
-1.0
 10
47.444352
 20
13.593194
 10
47.444352
 20
14.843194
 42
-1.0
 10
47.744352
 20
14.843194
  0
LWPOLYLINE
  5
231
100
AcDbEntity
  8
SOLDERMASK_PADS_TOP
100
AcDbPolyline
 90
        4
 70
         1
 10
54.169352
 20
21.318194
 42
-1.0
 10
54.169352
 20
21.018194
 10
52.919352
 20
21.018194
 42
-1.0
 10
52.919352
 20
21.318194
  0
LWPOLYLINE
  5
232
100
AcDbEntity
  8
SOLDERMASK_PADS_TOP
100
AcDbPolyline
 90
        4
 70
         1
 10
54.169352
 20
20.318194
 42
-1.0
 10
54.169352
 20
20.018194
 10
52.919352
 20
20.018194
 42
-1.0
 10
52.919352
 20
20.318194
  0
LWPOLYLINE
  5
233
100
AcDbEntity
  8
SOLDERMASK_PADS_TOP
100
AcDbPolyline
 90
        4
 70
         1
 10
45.769352
 20
17.318194
 42
-1.0
 10
45.769352
 20
17.018194
 10
44.519352
 20
17.018194
 42
-1.0
 10
44.519352
 20
17.318194
  0
LWPOLYLINE
  5
234
100
AcDbEntity
  8
SOLDERMASK_PADS_TOP
100
AcDbPolyline
 90
        4
 70
         1
 10
45.769352
 20
16.318194
 42
-1.0
 10
45.769352
 20
16.018194
 10
44.519352
 20
16.018194
 42
-1.0
 10
44.519352
 20
16.318194
  0
LWPOLYLINE
  5
235
100
AcDbEntity
  8
SOLDERMASK_PADS_TOP
100
AcDbPolyline
 90
        4
 70
         1
 10
58.175
 20
79.45
 10
58.175
 20
81.25
 10
60.425
 20
81.25
 10
60.425
 20
79.45
  0
LWPOLYLINE
  5
236
100
AcDbEntity
  8
SOLDERMASK_PADS_TOP
100
AcDbPolyline
 90
        4
 70
         1
 10
58.175
 20
82.35
 10
58.175
 20
84.15
 10
60.425
 20
84.15
 10
60.425
 20
82.35
  0
LWPOLYLINE
  5
237
100
AcDbEntity
  8
SOLDERMASK_PADS_TOP
100
AcDbPolyline
 90
        4
 70
         1
 10
63.05
 20
34.475
 10
63.05
 20
36.725
 10
64.85
 20
36.725
 10
64.85
 20
34.475
  0
LWPOLYLINE
  5
238
100
AcDbEntity
  8
SOLDERMASK_PADS_TOP
100
AcDbPolyline
 90
        4
 70
         1
 10
60.15
 20
34.475
 10
60.15
 20
36.725
 10
61.95
 20
36.725
 10
61.95
 20
34.475
  0
LWPOLYLINE
  5
239
100
AcDbEntity
  8
SOLDERMASK_PADS_TOP
100
AcDbPolyline
 90
        4
 70
         1
 10
37.28
 20
71.74
 42
-1.0
 10
37.28
 20
70.74
 10
34.78
 20
70.74
 42
-1.0
 10
34.78
 20
71.74
  0
LWPOLYLINE
  5
23A
100
AcDbEntity
  8
SOLDERMASK_PADS_TOP
100
AcDbPolyline
 90
        4
 70
         1
 10
37.28
 20
69.2
 42
-1.0
 10
37.28
 20
68.2
 10
34.78
 20
68.2
 42
-1.0
 10
34.78
 20
69.2
  0
LWPOLYLINE
  5
23B
100
AcDbEntity
  8
SOLDERMASK_PADS_TOP
100
AcDbPolyline
 90
        4
 70
         1
 10
37.28
 20
66.66
 42
-1.0
 10
37.28
 20
65.66
 10
34.78
 20
65.66
 42
-1.0
 10
34.78
 20
66.66
  0
LWPOLYLINE
  5
23C
100
AcDbEntity
  8
SOLDERMASK_PADS_TOP
100
AcDbPolyline
 90
        4
 70
         1
 10
37.28
 20
64.12
 42
-1.0
 10
37.28
 20
63.12
 10
34.78
 20
63.12
 42
-1.0
 10
34.78
 20
64.12
  0
LWPOLYLINE
  5
23D
100
AcDbEntity
  8
SOLDERMASK_PADS_TOP
100
AcDbPolyline
 90
        4
 70
         1
 10
37.28
 20
61.58
 42
-1.0
 10
37.28
 20
60.58
 10
34.78
 20
60.58
 42
-1.0
 10
34.78
 20
61.58
  0
LWPOLYLINE
  5
23E
100
AcDbEntity
  8
SOLDERMASK_PADS_TOP
100
AcDbPolyline
 90
        4
 70
         1
 10
37.28
 20
59.04
 42
-1.0
 10
37.28
 20
58.04
 10
34.78
 20
58.04
 42
-1.0
 10
34.78
 20
59.04
  0
LWPOLYLINE
  5
23F
100
AcDbEntity
  8
SOLDERMASK_PADS_TOP
100
AcDbPolyline
 90
        4
 70
         1
 10
37.28
 20
56.5
 42
-1.0
 10
37.28
 20
55.5
 10
34.78
 20
55.5
 42
-1.0
 10
34.78
 20
56.5
  0
LWPOLYLINE
  5
240
100
AcDbEntity
  8
SOLDERMASK_PADS_TOP
100
AcDbPolyline
 90
        4
 70
         1
 10
37.28
 20
53.96
 42
-1.0
 10
37.28
 20
52.96
 10
34.78
 20
52.96
 42
-1.0
 10
34.78
 20
53.96
  0
LWPOLYLINE
  5
241
100
AcDbEntity
  8
SOLDERMASK_PADS_TOP
100
AcDbPolyline
 90
        4
 70
         1
 10
37.28
 20
51.42
 42
-1.0
 10
37.28
 20
50.42
 10
34.78
 20
50.42
 42
-1.0
 10
34.78
 20
51.42
  0
LWPOLYLINE
  5
242
100
AcDbEntity
  8
SOLDERMASK_PADS_TOP
100
AcDbPolyline
 90
        4
 70
         1
 10
37.28
 20
48.88
 42
-1.0
 10
37.28
 20
47.88
 10
34.78
 20
47.88
 42
-1.0
 10
34.78
 20
48.88
  0
LWPOLYLINE
  5
243
100
AcDbEntity
  8
SOLDERMASK_PADS_TOP
100
AcDbPolyline
 90
        4
 70
         1
 10
37.28
 20
46.34
 42
-1.0
 10
37.28
 20
45.34
 10
34.78
 20
45.34
 42
-1.0
 10
34.78
 20
46.34
  0
LWPOLYLINE
  5
244
100
AcDbEntity
  8
SOLDERMASK_PADS_TOP
100
AcDbPolyline
 90
        4
 70
         1
 10
37.28
 20
43.8
 42
-1.0
 10
37.28
 20
42.8
 10
34.78
 20
42.8
 42
-1.0
 10
34.78
 20
43.8
  0
LWPOLYLINE
  5
245
100
AcDbEntity
  8
SOLDERMASK_PADS_TOP
100
AcDbPolyline
 90
        4
 70
         1
 10
37.28
 20
41.26
 42
-1.0
 10
37.28
 20
40.26
 10
34.78
 20
40.26
 42
-1.0
 10
34.78
 20
41.26
  0
LWPOLYLINE
  5
246
100
AcDbEntity
  8
SOLDERMASK_PADS_TOP
100
AcDbPolyline
 90
        4
 70
         1
 10
37.28
 20
38.72
 42
-1.0
 10
37.28
 20
37.72
 10
34.78
 20
37.72
 42
-1.0
 10
34.78
 20
38.72
  0
LWPOLYLINE
  5
247
100
AcDbEntity
  8
SOLDERMASK_PADS_TOP
100
AcDbPolyline
 90
        4
 70
         1
 10
37.28
 20
36.18
 42
-1.0
 10
37.28
 20
35.18
 10
34.78
 20
35.18
 42
-1.0
 10
34.78
 20
36.18
  0
LWPOLYLINE
  5
248
100
AcDbEntity
  8
SOLDERMASK_PADS_TOP
100
AcDbPolyline
 90
        4
 70
         1
 10
37.28
 20
33.64
 42
-1.0
 10
37.28
 20
32.64
 10
34.78
 20
32.64
 42
-1.0
 10
34.78
 20
33.64
  0
LWPOLYLINE
  5
249
100
AcDbEntity
  8
SOLDERMASK_PADS_TOP
100
AcDbPolyline
 90
        4
 70
         1
 10
37.28
 20
31.1
 42
-1.0
 10
37.28
 20
30.1
 10
34.78
 20
30.1
 42
-1.0
 10
34.78
 20
31.1
  0
LWPOLYLINE
  5
24A
100
AcDbEntity
  8
SOLDERMASK_PADS_TOP
100
AcDbPolyline
 90
        4
 70
         1
 10
37.28
 20
28.56
 42
-1.0
 10
37.28
 20
27.56
 10
34.78
 20
27.56
 42
-1.0
 10
34.78
 20
28.56
  0
LWPOLYLINE
  5
24B
100
AcDbEntity
  8
SOLDERMASK_PADS_TOP
100
AcDbPolyline
 90
        4
 70
         1
 10
32.82
 20
28.56
 42
-1.0
 10
32.82
 20
27.56
 10
30.32
 20
27.56
 42
-1.0
 10
30.32
 20
28.56
  0
LWPOLYLINE
  5
24C
100
AcDbEntity
  8
SOLDERMASK_PADS_TOP
100
AcDbPolyline
 90
        4
 70
         1
 10
32.82
 20
31.1
 42
-1.0
 10
32.82
 20
30.1
 10
30.32
 20
30.1
 42
-1.0
 10
30.32
 20
31.1
  0
LWPOLYLINE
  5
24D
100
AcDbEntity
  8
SOLDERMASK_PADS_TOP
100
AcDbPolyline
 90
        4
 70
         1
 10
32.82
 20
74.28
 42
-1.0
 10
32.82
 20
73.28
 10
30.32
 20
73.28
 42
-1.0
 10
30.32
 20
74.28
  0
LWPOLYLINE
  5
24E
100
AcDbEntity
  8
SOLDERMASK_PADS_TOP
100
AcDbPolyline
 90
        4
 70
         1
 10
32.82
 20
71.74
 42
-1.0
 10
32.82
 20
70.74
 10
30.32
 20
70.74
 42
-1.0
 10
30.32
 20
71.74
  0
LWPOLYLINE
  5
24F
100
AcDbEntity
  8
SOLDERMASK_PADS_TOP
100
AcDbPolyline
 90
        4
 70
         1
 10
32.82
 20
69.2
 42
-1.0
 10
32.82
 20
68.2
 10
30.32
 20
68.2
 42
-1.0
 10
30.32
 20
69.2
  0
LWPOLYLINE
  5
250
100
AcDbEntity
  8
SOLDERMASK_PADS_TOP
100
AcDbPolyline
 90
        4
 70
         1
 10
32.82
 20
66.66
 42
-1.0
 10
32.82
 20
65.66
 10
30.32
 20
65.66
 42
-1.0
 10
30.32
 20
66.66
  0
LWPOLYLINE
  5
251
100
AcDbEntity
  8
SOLDERMASK_PADS_TOP
100
AcDbPolyline
 90
        4
 70
         1
 10
32.82
 20
64.12
 42
-1.0
 10
32.82
 20
63.12
 10
30.32
 20
63.12
 42
-1.0
 10
30.32
 20
64.12
  0
LWPOLYLINE
  5
252
100
AcDbEntity
  8
SOLDERMASK_PADS_TOP
100
AcDbPolyline
 90
        4
 70
         1
 10
32.82
 20
61.58
 42
-1.0
 10
32.82
 20
60.58
 10
30.32
 20
60.58
 42
-1.0
 10
30.32
 20
61.58
  0
LWPOLYLINE
  5
253
100
AcDbEntity
  8
SOLDERMASK_PADS_TOP
100
AcDbPolyline
 90
        4
 70
         1
 10
32.82
 20
59.04
 42
-1.0
 10
32.82
 20
58.04
 10
30.32
 20
58.04
 42
-1.0
 10
30.32
 20
59.04
  0
LWPOLYLINE
  5
254
100
AcDbEntity
  8
SOLDERMASK_PADS_TOP
100
AcDbPolyline
 90
        4
 70
         1
 10
32.82
 20
56.5
 42
-1.0
 10
32.82
 20
55.5
 10
30.32
 20
55.5
 42
-1.0
 10
30.32
 20
56.5
  0
LWPOLYLINE
  5
255
100
AcDbEntity
  8
SOLDERMASK_PADS_TOP
100
AcDbPolyline
 90
        4
 70
         1
 10
32.82
 20
53.96
 42
-1.0
 10
32.82
 20
52.96
 10
30.32
 20
52.96
 42
-1.0
 10
30.32
 20
53.96
  0
LWPOLYLINE
  5
256
100
AcDbEntity
  8
SOLDERMASK_PADS_TOP
100
AcDbPolyline
 90
        4
 70
         1
 10
32.82
 20
51.42
 42
-1.0
 10
32.82
 20
50.42
 10
30.32
 20
50.42
 42
-1.0
 10
30.32
 20
51.42
  0
LWPOLYLINE
  5
257
100
AcDbEntity
  8
SOLDERMASK_PADS_TOP
100
AcDbPolyline
 90
        4
 70
         1
 10
32.82
 20
48.88
 42
-1.0
 10
32.82
 20
47.88
 10
30.32
 20
47.88
 42
-1.0
 10
30.32
 20
48.88
  0
LWPOLYLINE
  5
258
100
AcDbEntity
  8
SOLDERMASK_PADS_TOP
100
AcDbPolyline
 90
        4
 70
         1
 10
32.82
 20
46.34
 42
-1.0
 10
32.82
 20
45.34
 10
30.32
 20
45.34
 42
-1.0
 10
30.32
 20
46.34
  0
LWPOLYLINE
  5
259
100
AcDbEntity
  8
SOLDERMASK_PADS_TOP
100
AcDbPolyline
 90
        4
 70
         1
 10
32.82
 20
43.8
 42
-1.0
 10
32.82
 20
42.8
 10
30.32
 20
42.8
 42
-1.0
 10
30.32
 20
43.8
  0
LWPOLYLINE
  5
25A
100
AcDbEntity
  8
SOLDERMASK_PADS_TOP
100
AcDbPolyline
 90
        4
 70
         1
 10
32.82
 20
41.26
 42
-1.0
 10
32.82
 20
40.26
 10
30.32
 20
40.26
 42
-1.0
 10
30.32
 20
41.26
  0
LWPOLYLINE
  5
25B
100
AcDbEntity
  8
SOLDERMASK_PADS_TOP
100
AcDbPolyline
 90
        4
 70
         1
 10
32.82
 20
38.72
 42
-1.0
 10
32.82
 20
37.72
 10
30.32
 20
37.72
 42
-1.0
 10
30.32
 20
38.72
  0
LWPOLYLINE
  5
25C
100
AcDbEntity
  8
SOLDERMASK_PADS_TOP
100
AcDbPolyline
 90
        4
 70
         1
 10
32.82
 20
36.18
 42
-1.0
 10
32.82
 20
35.18
 10
30.32
 20
35.18
 42
-1.0
 10
30.32
 20
36.18
  0
LWPOLYLINE
  5
25D
100
AcDbEntity
  8
SOLDERMASK_PADS_TOP
100
AcDbPolyline
 90
        4
 70
         1
 10
32.82
 20
33.64
 42
-1.0
 10
32.82
 20
32.64
 10
30.32
 20
32.64
 42
-1.0
 10
30.32
 20
33.64
  0
LWPOLYLINE
  5
25E
100
AcDbEntity
  8
SOLDERMASK_PADS_TOP
100
AcDbPolyline
 90
        4
 70
         1
 10
32.82
 20
76.82
 42
-1.0
 10
32.82
 20
75.82
 10
30.32
 20
75.82
 42
-1.0
 10
30.32
 20
76.82
  0
LWPOLYLINE
  5
25F
100
AcDbEntity
  8
SOLDERMASK_PADS_TOP
100
AcDbPolyline
 90
        4
 70
         1
 10
37.28
 20
74.28
 42
-1.0
 10
37.28
 20
73.28
 10
34.78
 20
73.28
 42
-1.0
 10
34.78
 20
74.28
  0
LWPOLYLINE
  5
260
100
AcDbEntity
  8
SOLDERMASK_PADS_TOP
100
AcDbPolyline
 90
        4
 70
         1
 10
37.28
 20
76.82
 42
-1.0
 10
37.28
 20
75.82
 10
34.78
 20
75.82
 42
-1.0
 10
34.78
 20
76.82
  0
CIRCLE
  5
261
100
AcDbEntity
  8
SOLDERMASK_PADS_TOP
100
AcDbCircle
 10
81.166439
 20
30.906487
 30
0.0
 40
0.9
  0
CIRCLE
  5
262
100
AcDbEntity
  8
SOLDERMASK_PADS_TOP
100
AcDbCircle
 10
81.166439
 20
33.676487
 30
0.0
 40
0.9
  0
CIRCLE
  5
263
100
AcDbEntity
  8
SOLDERMASK_PADS_TOP
100
AcDbCircle
 10
79.746439
 20
42.021487
 30
0.0
 40
1.9
  0
CIRCLE
  5
264
100
AcDbEntity
  8
SOLDERMASK_PADS_TOP
100
AcDbCircle
 10
79.746439
 20
17.021487
 30
0.0
 40
1.9
  0
CIRCLE
  5
265
100
AcDbEntity
  8
SOLDERMASK_PADS_TOP
100
AcDbCircle
 10
78.326439
 20
35.061487
 30
0.0
 40
0.9
  0
CIRCLE
  5
266
100
AcDbEntity
  8
SOLDERMASK_PADS_TOP
100
AcDbCircle
 10
81.166439
 20
25.366487
 30
0.0
 40
0.9
  0
CIRCLE
  5
267
100
AcDbEntity
  8
SOLDERMASK_PADS_TOP
100
AcDbCircle
 10
78.326439
 20
23.981487
 30
0.0
 40
0.9
  0
CIRCLE
  5
268
100
AcDbEntity
  8
SOLDERMASK_PADS_TOP
100
AcDbCircle
 10
81.166439
 20
28.136487
 30
0.0
 40
0.9
  0
CIRCLE
  5
269
100
AcDbEntity
  8
SOLDERMASK_PADS_TOP
100
AcDbCircle
 10
78.326439
 20
26.751487
 30
0.0
 40
0.9
  0
CIRCLE
  5
26A
100
AcDbEntity
  8
SOLDERMASK_PADS_TOP
100
AcDbCircle
 10
78.326439
 20
32.291487
 30
0.0
 40
0.9
  0
CIRCLE
  5
26B
100
AcDbEntity
  8
SOLDERMASK_PADS_TOP
100
AcDbCircle
 10
78.326439
 20
29.521487
 30
0.0
 40
0.9
  0
LWPOLYLINE
  5
26C
100
AcDbEntity
  8
SOLDERMASK_PADS_TOP
100
AcDbPolyline
 90
        4
 70
         1
 10
65.5
 20
63.2
 10
65.5
 20
64.2
 10
66.9
 20
64.2
 10
66.9
 20
63.2
  0
LWPOLYLINE
  5
26D
100
AcDbEntity
  8
SOLDERMASK_PADS_TOP
100
AcDbPolyline
 90
        4
 70
         1
 10
65.5
 20
61.4
 10
65.5
 20
62.4
 10
66.9
 20
62.4
 10
66.9
 20
61.4
  0
LWPOLYLINE
  5
26E
100
AcDbEntity
  8
SOLDERMASK_PADS_TOP
100
AcDbPolyline
 90
        4
 70
         1
 10
65.08954
 20
29.942264
 42
-1.0
 10
65.08954
 20
30.542264
 10
66.48954
 20
30.542264
 42
-1.0
 10
66.48954
 20
29.942264
  0
LWPOLYLINE
  5
26F
100
AcDbEntity
  8
SOLDERMASK_PADS_TOP
100
AcDbPolyline
 90
        4
 70
         1
 10
65.08954
 20
31.212264
 42
-1.0
 10
65.08954
 20
31.812264
 10
66.48954
 20
31.812264
 42
-1.0
 10
66.48954
 20
31.212264
  0
LWPOLYLINE
  5
270
100
AcDbEntity
  8
SOLDERMASK_PADS_TOP
100
AcDbPolyline
 90
        4
 70
         1
 10
60.18954
 20
31.212264
 42
-1.0
 10
60.18954
 20
31.812264
 10
61.58954
 20
31.812264
 42
-1.0
 10
61.58954
 20
31.212264
  0
LWPOLYLINE
  5
271
100
AcDbEntity
  8
SOLDERMASK_PADS_TOP
100
AcDbPolyline
 90
        4
 70
         1
 10
60.18954
 20
29.942264
 42
-1.0
 10
60.18954
 20
30.542264
 10
61.58954
 20
30.542264
 42
-1.0
 10
61.58954
 20
29.942264
  0
LWPOLYLINE
  5
272
100
AcDbEntity
  8
SOLDERMASK_PADS_TOP
100
AcDbPolyline
 90
        4
 70
         1
 10
60.18954
 20
23.592264
 42
-1.0
 10
60.18954
 20
24.192264
 10
61.58954
 20
24.192264
 42
-1.0
 10
61.58954
 20
23.592264
  0
LWPOLYLINE
  5
273
100
AcDbEntity
  8
SOLDERMASK_PADS_TOP
100
AcDbPolyline
 90
        4
 70
         1
 10
60.18954
 20
22.322264
 42
-1.0
 10
60.18954
 20
22.922264
 10
61.58954
 20
22.922264
 42
-1.0
 10
61.58954
 20
22.322264
  0
LWPOLYLINE
  5
274
100
AcDbEntity
  8
SOLDERMASK_PADS_TOP
100
AcDbPolyline
 90
        4
 70
         1
 10
65.08954
 20
26.132264
 42
-1.0
 10
65.08954
 20
26.732264
 10
66.48954
 20
26.732264
 42
-1.0
 10
66.48954
 20
26.132264
  0
LWPOLYLINE
  5
275
100
AcDbEntity
  8
SOLDERMASK_PADS_TOP
100
AcDbPolyline
 90
        4
 70
         1
 10
65.08954
 20
24.862264
 42
-1.0
 10
65.08954
 20
25.462264
 10
66.48954
 20
25.462264
 42
-1.0
 10
66.48954
 20
24.862264
  0
LWPOLYLINE
  5
276
100
AcDbEntity
  8
SOLDERMASK_PADS_TOP
100
AcDbPolyline
 90
        4
 70
         1
 10
65.08954
 20
27.402264
 42
-1.0
 10
65.08954
 20
28.002264
 10
66.48954
 20
28.002264
 42
-1.0
 10
66.48954
 20
27.402264
  0
LWPOLYLINE
  5
277
100
AcDbEntity
  8
SOLDERMASK_PADS_TOP
100
AcDbPolyline
 90
        4
 70
         1
 10
65.08954
 20
22.322264
 42
-1.0
 10
65.08954
 20
22.922264
 10
66.48954
 20
22.922264
 42
-1.0
 10
66.48954
 20
22.322264
  0
LWPOLYLINE
  5
278
100
AcDbEntity
  8
SOLDERMASK_PADS_TOP
100
AcDbPolyline
 90
        4
 70
         1
 10
65.08954
 20
28.672264
 42
-1.0
 10
65.08954
 20
29.272264
 10
66.48954
 20
29.272264
 42
-1.0
 10
66.48954
 20
28.672264
  0
LWPOLYLINE
  5
279
100
AcDbEntity
  8
SOLDERMASK_PADS_TOP
100
AcDbPolyline
 90
        4
 70
         1
 10
65.08954
 20
23.592264
 42
-1.0
 10
65.08954
 20
24.192264
 10
66.48954
 20
24.192264
 42
-1.0
 10
66.48954
 20
23.592264
  0
LWPOLYLINE
  5
27A
100
AcDbEntity
  8
SOLDERMASK_PADS_TOP
100
AcDbPolyline
 90
        4
 70
         1
 10
60.18954
 20
27.402264
 42
-1.0
 10
60.18954
 20
28.002264
 10
61.58954
 20
28.002264
 42
-1.0
 10
61.58954
 20
27.402264
  0
LWPOLYLINE
  5
27B
100
AcDbEntity
  8
SOLDERMASK_PADS_TOP
100
AcDbPolyline
 90
        4
 70
         1
 10
60.18954
 20
28.672264
 42
-1.0
 10
60.18954
 20
29.272264
 10
61.58954
 20
29.272264
 42
-1.0
 10
61.58954
 20
28.672264
  0
LWPOLYLINE
  5
27C
100
AcDbEntity
  8
SOLDERMASK_PADS_TOP
100
AcDbPolyline
 90
        4
 70
         1
 10
60.18954
 20
24.862264
 42
-1.0
 10
60.18954
 20
25.462264
 10
61.58954
 20
25.462264
 42
-1.0
 10
61.58954
 20
24.862264
  0
LWPOLYLINE
  5
27D
100
AcDbEntity
  8
SOLDERMASK_PADS_TOP
100
AcDbPolyline
 90
        4
 70
         1
 10
60.18954
 20
26.132264
 42
-1.0
 10
60.18954
 20
26.732264
 10
61.58954
 20
26.732264
 42
-1.0
 10
61.58954
 20
26.132264
  0
LWPOLYLINE
  5
27E
100
AcDbEntity
  8
SOLDERMASK_PADS_TOP
100
AcDbPolyline
 90
        4
 70
         1
 10
54.35
 20
35.175
 42
-1.0
 10
54.05
 20
35.175
 10
54.05
 20
36.425
 42
-1.0
 10
54.35
 20
36.425
  0
LWPOLYLINE
  5
27F
100
AcDbEntity
  8
SOLDERMASK_PADS_TOP
100
AcDbPolyline
 90
        4
 70
         1
 10
47.35
 20
35.175
 42
-1.0
 10
47.05
 20
35.175
 10
47.05
 20
36.425
 42
-1.0
 10
47.35
 20
36.425
  0
LWPOLYLINE
  5
280
100
AcDbEntity
  8
SOLDERMASK_PADS_TOP
100
AcDbPolyline
 90
        4
 70
         1
 10
41.375
 20
38.85
 42
-1.0
 10
41.375
 20
39.15
 10
42.625
 20
39.15
 42
-1.0
 10
42.625
 20
38.85
  0
LWPOLYLINE
  5
281
100
AcDbEntity
  8
SOLDERMASK_PADS_TOP
100
AcDbPolyline
 90
        4
 70
         1
 10
41.375
 20
47.35
 42
-1.0
 10
41.375
 20
47.65
 10
42.625
 20
47.65
 42
-1.0
 10
42.625
 20
47.35
  0
LWPOLYLINE
  5
282
100
AcDbEntity
  8
SOLDERMASK_PADS_TOP
100
AcDbPolyline
 90
        4
 70
         1
 10
48.35
 20
50.575
 42
-1.0
 10
48.05
 20
50.575
 10
48.05
 20
51.825
 42
-1.0
 10
48.35
 20
51.825
  0
LWPOLYLINE
  5
283
100
AcDbEntity
  8
SOLDERMASK_PADS_TOP
100
AcDbPolyline
 90
        4
 70
         1
 10
53.35
 20
50.575
 42
-1.0
 10
53.05
 20
50.575
 10
53.05
 20
51.825
 42
-1.0
 10
53.35
 20
51.825
  0
LWPOLYLINE
  5
284
100
AcDbEntity
  8
SOLDERMASK_PADS_TOP
100
AcDbPolyline
 90
        4
 70
         1
 10
53.85
 20
35.175
 42
-1.0
 10
53.55
 20
35.175
 10
53.55
 20
36.425
 42
-1.0
 10
53.85
 20
36.425
  0
LWPOLYLINE
  5
285
100
AcDbEntity
  8
SOLDERMASK_PADS_TOP
100
AcDbPolyline
 90
        4
 70
         1
 10
47.85
 20
35.175
 42
-1.0
 10
47.55
 20
35.175
 10
47.55
 20
36.425
 42
-1.0
 10
47.85
 20
36.425
  0
LWPOLYLINE
  5
286
100
AcDbEntity
  8
SOLDERMASK_PADS_TOP
100
AcDbPolyline
 90
        4
 70
         1
 10
41.375
 20
39.35
 42
-1.0
 10
41.375
 20
39.65
 10
42.625
 20
39.65
 42
-1.0
 10
42.625
 20
39.35
  0
LWPOLYLINE
  5
287
100
AcDbEntity
  8
SOLDERMASK_PADS_TOP
100
AcDbPolyline
 90
        4
 70
         1
 10
41.375
 20
47.85
 42
-1.0
 10
41.375
 20
48.15
 10
42.625
 20
48.15
 42
-1.0
 10
42.625
 20
47.85
  0
LWPOLYLINE
  5
288
100
AcDbEntity
  8
SOLDERMASK_PADS_TOP
100
AcDbPolyline
 90
        4
 70
         1
 10
47.85
 20
50.575
 42
-1.0
 10
47.55
 20
50.575
 10
47.55
 20
51.825
 42
-1.0
 10
47.85
 20
51.825
  0
LWPOLYLINE
  5
289
100
AcDbEntity
  8
SOLDERMASK_PADS_TOP
100
AcDbPolyline
 90
        4
 70
         1
 10
54.85
 20
50.575
 42
-1.0
 10
54.55
 20
50.575
 10
54.55
 20
51.825
 42
-1.0
 10
54.85
 20
51.825
  0
LWPOLYLINE
  5
28A
100
AcDbEntity
  8
SOLDERMASK_PADS_TOP
100
AcDbPolyline
 90
        4
 70
         1
 10
56.775
 20
40.85
 42
-1.0
 10
56.775
 20
41.15
 10
58.025
 20
41.15
 42
-1.0
 10
58.025
 20
40.85
  0
LWPOLYLINE
  5
28B
100
AcDbEntity
  8
SOLDERMASK_PADS_TOP
100
AcDbPolyline
 90
        4
 70
         1
 10
52.85
 20
50.575
 42
-1.0
 10
52.55
 20
50.575
 10
52.55
 20
51.825
 42
-1.0
 10
52.85
 20
51.825
  0
LWPOLYLINE
  5
28C
100
AcDbEntity
  8
SOLDERMASK_PADS_TOP
100
AcDbPolyline
 90
        4
 70
         1
 10
48.85
 20
50.575
 42
-1.0
 10
48.55
 20
50.575
 10
48.55
 20
51.825
 42
-1.0
 10
48.85
 20
51.825
  0
LWPOLYLINE
  5
28D
100
AcDbEntity
  8
SOLDERMASK_PADS_TOP
100
AcDbPolyline
 90
        4
 70
         1
 10
47.35
 20
50.575
 42
-1.0
 10
47.05
 20
50.575
 10
47.05
 20
51.825
 42
-1.0
 10
47.35
 20
51.825
  0
LWPOLYLINE
  5
28E
100
AcDbEntity
  8
SOLDERMASK_PADS_TOP
100
AcDbPolyline
 90
        4
 70
         1
 10
46.35
 20
50.575
 42
-1.0
 10
46.05
 20
50.575
 10
46.05
 20
51.825
 42
-1.0
 10
46.35
 20
51.825
  0
LWPOLYLINE
  5
28F
100
AcDbEntity
  8
SOLDERMASK_PADS_TOP
100
AcDbPolyline
 90
        4
 70
         1
 10
45.85
 20
50.575
 42
-1.0
 10
45.55
 20
50.575
 10
45.55
 20
51.825
 42
-1.0
 10
45.85
 20
51.825
  0
LWPOLYLINE
  5
290
100
AcDbEntity
  8
SOLDERMASK_PADS_TOP
100
AcDbPolyline
 90
        4
 70
         1
 10
45.35
 20
50.575
 42
-1.0
 10
45.05
 20
50.575
 10
45.05
 20
51.825
 42
-1.0
 10
45.35
 20
51.825
  0
LWPOLYLINE
  5
291
100
AcDbEntity
  8
SOLDERMASK_PADS_TOP
100
AcDbPolyline
 90
        4
 70
         1
 10
44.35
 20
50.575
 42
-1.0
 10
44.05
 20
50.575
 10
44.05
 20
51.825
 42
-1.0
 10
44.35
 20
51.825
  0
LWPOLYLINE
  5
292
100
AcDbEntity
  8
SOLDERMASK_PADS_TOP
100
AcDbPolyline
 90
        4
 70
         1
 10
43.85
 20
50.575
 42
-1.0
 10
43.55
 20
50.575
 10
43.55
 20
51.825
 42
-1.0
 10
43.85
 20
51.825
  0
LWPOLYLINE
  5
293
100
AcDbEntity
  8
SOLDERMASK_PADS_TOP
100
AcDbPolyline
 90
        4
 70
         1
 10
41.375
 20
49.35
 42
-1.0
 10
41.375
 20
49.65
 10
42.625
 20
49.65
 42
-1.0
 10
42.625
 20
49.35
  0
LWPOLYLINE
  5
294
100
AcDbEntity
  8
SOLDERMASK_PADS_TOP
100
AcDbPolyline
 90
        4
 70
         1
 10
41.375
 20
48.35
 42
-1.0
 10
41.375
 20
48.65
 10
42.625
 20
48.65
 42
-1.0
 10
42.625
 20
48.35
  0
LWPOLYLINE
  5
295
100
AcDbEntity
  8
SOLDERMASK_PADS_TOP
100
AcDbPolyline
 90
        4
 70
         1
 10
41.375
 20
46.85
 42
-1.0
 10
41.375
 20
47.15
 10
42.625
 20
47.15
 42
-1.0
 10
42.625
 20
46.85
  0
LWPOLYLINE
  5
296
100
AcDbEntity
  8
SOLDERMASK_PADS_TOP
100
AcDbPolyline
 90
        4
 70
         1
 10
41.375
 20
46.35
 42
-1.0
 10
41.375
 20
46.65
 10
42.625
 20
46.65
 42
-1.0
 10
42.625
 20
46.35
  0
LWPOLYLINE
  5
297
100
AcDbEntity
  8
SOLDERMASK_PADS_TOP
100
AcDbPolyline
 90
        4
 70
         1
 10
41.375
 20
44.35
 42
-1.0
 10
41.375
 20
44.65
 10
42.625
 20
44.65
 42
-1.0
 10
42.625
 20
44.35
  0
LWPOLYLINE
  5
298
100
AcDbEntity
  8
SOLDERMASK_PADS_TOP
100
AcDbPolyline
 90
        4
 70
         1
 10
41.375
 20
43.35
 42
-1.0
 10
41.375
 20
43.65
 10
42.625
 20
43.65
 42
-1.0
 10
42.625
 20
43.35
  0
LWPOLYLINE
  5
299
100
AcDbEntity
  8
SOLDERMASK_PADS_TOP
100
AcDbPolyline
 90
        4
 70
         1
 10
41.375
 20
40.35
 42
-1.0
 10
41.375
 20
40.65
 10
42.625
 20
40.65
 42
-1.0
 10
42.625
 20
40.35
  0
LWPOLYLINE
  5
29A
100
AcDbEntity
  8
SOLDERMASK_PADS_TOP
100
AcDbPolyline
 90
        4
 70
         1
 10
41.375
 20
39.85
 42
-1.0
 10
41.375
 20
40.15
 10
42.625
 20
40.15
 42
-1.0
 10
42.625
 20
39.85
  0
LWPOLYLINE
  5
29B
100
AcDbEntity
  8
SOLDERMASK_PADS_TOP
100
AcDbPolyline
 90
        4
 70
         1
 10
43.85
 20
35.175
 42
-1.0
 10
43.55
 20
35.175
 10
43.55
 20
36.425
 42
-1.0
 10
43.85
 20
36.425
  0
LWPOLYLINE
  5
29C
100
AcDbEntity
  8
SOLDERMASK_PADS_TOP
100
AcDbPolyline
 90
        4
 70
         1
 10
56.775
 20
44.35
 42
-1.0
 10
56.775
 20
44.65
 10
58.025
 20
44.65
 42
-1.0
 10
58.025
 20
44.35
  0
LWPOLYLINE
  5
29D
100
AcDbEntity
  8
SOLDERMASK_PADS_TOP
100
AcDbPolyline
 90
        4
 70
         1
 10
56.775
 20
42.35
 42
-1.0
 10
56.775
 20
42.65
 10
58.025
 20
42.65
 42
-1.0
 10
58.025
 20
42.35
  0
LWPOLYLINE
  5
29E
100
AcDbEntity
  8
SOLDERMASK_PADS_TOP
100
AcDbPolyline
 90
        4
 70
         1
 10
41.375
 20
38.35
 42
-1.0
 10
41.375
 20
38.65
 10
42.625
 20
38.65
 42
-1.0
 10
42.625
 20
38.35
  0
LWPOLYLINE
  5
29F
100
AcDbEntity
  8
SOLDERMASK_PADS_TOP
100
AcDbPolyline
 90
        4
 70
         1
 10
41.375
 20
37.85
 42
-1.0
 10
41.375
 20
38.15
 10
42.625
 20
38.15
 42
-1.0
 10
42.625
 20
37.85
  0
LWPOLYLINE
  5
2A0
100
AcDbEntity
  8
SOLDERMASK_PADS_TOP
100
AcDbPolyline
 90
        4
 70
         1
 10
41.375
 20
37.35
 42
-1.0
 10
41.375
 20
37.65
 10
42.625
 20
37.65
 42
-1.0
 10
42.625
 20
37.35
  0
LWPOLYLINE
  5
2A1
100
AcDbEntity
  8
SOLDERMASK_PADS_TOP
100
AcDbPolyline
 90
        4
 70
         1
 10
44.85
 20
35.175
 42
-1.0
 10
44.55
 20
35.175
 10
44.55
 20
36.425
 42
-1.0
 10
44.85
 20
36.425
  0
LWPOLYLINE
  5
2A2
100
AcDbEntity
  8
SOLDERMASK_PADS_TOP
100
AcDbPolyline
 90
        4
 70
         1
 10
45.85
 20
35.175
 42
-1.0
 10
45.55
 20
35.175
 10
45.55
 20
36.425
 42
-1.0
 10
45.85
 20
36.425
  0
LWPOLYLINE
  5
2A3
100
AcDbEntity
  8
SOLDERMASK_PADS_TOP
100
AcDbPolyline
 90
        4
 70
         1
 10
46.85
 20
35.175
 42
-1.0
 10
46.55
 20
35.175
 10
46.55
 20
36.425
 42
-1.0
 10
46.85
 20
36.425
  0
LWPOLYLINE
  5
2A4
100
AcDbEntity
  8
SOLDERMASK_PADS_TOP
100
AcDbPolyline
 90
        4
 70
         1
 10
49.85
 20
50.575
 42
-1.0
 10
49.55
 20
50.575
 10
49.55
 20
51.825
 42
-1.0
 10
49.85
 20
51.825
  0
LWPOLYLINE
  5
2A5
100
AcDbEntity
  8
SOLDERMASK_PADS_TOP
100
AcDbPolyline
 90
        4
 70
         1
 10
49.35
 20
50.575
 42
-1.0
 10
49.05
 20
50.575
 10
49.05
 20
51.825
 42
-1.0
 10
49.35
 20
51.825
  0
LWPOLYLINE
  5
2A6
100
AcDbEntity
  8
SOLDERMASK_PADS_TOP
100
AcDbPolyline
 90
        4
 70
         1
 10
41.375
 20
48.85
 42
-1.0
 10
41.375
 20
49.15
 10
42.625
 20
49.15
 42
-1.0
 10
42.625
 20
48.85
  0
LWPOLYLINE
  5
2A7
100
AcDbEntity
  8
SOLDERMASK_PADS_TOP
100
AcDbPolyline
 90
        4
 70
         1
 10
41.375
 20
45.85
 42
-1.0
 10
41.375
 20
46.15
 10
42.625
 20
46.15
 42
-1.0
 10
42.625
 20
45.85
  0
LWPOLYLINE
  5
2A8
100
AcDbEntity
  8
SOLDERMASK_PADS_TOP
100
AcDbPolyline
 90
        4
 70
         1
 10
41.375
 20
41.85
 42
-1.0
 10
41.375
 20
42.15
 10
42.625
 20
42.15
 42
-1.0
 10
42.625
 20
41.85
  0
LWPOLYLINE
  5
2A9
100
AcDbEntity
  8
SOLDERMASK_PADS_TOP
100
AcDbPolyline
 90
        4
 70
         1
 10
41.375
 20
41.35
 42
-1.0
 10
41.375
 20
41.65
 10
42.625
 20
41.65
 42
-1.0
 10
42.625
 20
41.35
  0
LWPOLYLINE
  5
2AA
100
AcDbEntity
  8
SOLDERMASK_PADS_TOP
100
AcDbPolyline
 90
        4
 70
         1
 10
41.375
 20
40.85
 42
-1.0
 10
41.375
 20
41.15
 10
42.625
 20
41.15
 42
-1.0
 10
42.625
 20
40.85
  0
LWPOLYLINE
  5
2AB
100
AcDbEntity
  8
SOLDERMASK_PADS_TOP
100
AcDbPolyline
 90
        4
 70
         1
 10
51.85
 20
50.575
 42
-1.0
 10
51.55
 20
50.575
 10
51.55
 20
51.825
 42
-1.0
 10
51.85
 20
51.825
  0
LWPOLYLINE
  5
2AC
100
AcDbEntity
  8
SOLDERMASK_PADS_TOP
100
AcDbPolyline
 90
        4
 70
         1
 10
51.35
 20
50.575
 42
-1.0
 10
51.05
 20
50.575
 10
51.05
 20
51.825
 42
-1.0
 10
51.35
 20
51.825
  0
LWPOLYLINE
  5
2AD
100
AcDbEntity
  8
SOLDERMASK_PADS_TOP
100
AcDbPolyline
 90
        4
 70
         1
 10
56.775
 20
41.35
 42
-1.0
 10
56.775
 20
41.65
 10
58.025
 20
41.65
 42
-1.0
 10
58.025
 20
41.35
  0
LWPOLYLINE
  5
2AE
100
AcDbEntity
  8
SOLDERMASK_PADS_TOP
100
AcDbPolyline
 90
        4
 70
         1
 10
56.775
 20
42.85
 42
-1.0
 10
56.775
 20
43.15
 10
58.025
 20
43.15
 42
-1.0
 10
58.025
 20
42.85
  0
LWPOLYLINE
  5
2AF
100
AcDbEntity
  8
SOLDERMASK_PADS_TOP
100
AcDbPolyline
 90
        4
 70
         1
 10
56.775
 20
46.35
 42
-1.0
 10
56.775
 20
46.65
 10
58.025
 20
46.65
 42
-1.0
 10
58.025
 20
46.35
  0
LWPOLYLINE
  5
2B0
100
AcDbEntity
  8
SOLDERMASK_PADS_TOP
100
AcDbPolyline
 90
        4
 70
         1
 10
56.775
 20
46.85
 42
-1.0
 10
56.775
 20
47.15
 10
58.025
 20
47.15
 42
-1.0
 10
58.025
 20
46.85
  0
LWPOLYLINE
  5
2B1
100
AcDbEntity
  8
SOLDERMASK_PADS_TOP
100
AcDbPolyline
 90
        4
 70
         1
 10
55.85
 20
50.575
 42
-1.0
 10
55.55
 20
50.575
 10
55.55
 20
51.825
 42
-1.0
 10
55.85
 20
51.825
  0
LWPOLYLINE
  5
2B2
100
AcDbEntity
  8
SOLDERMASK_PADS_TOP
100
AcDbPolyline
 90
        4
 70
         1
 10
55.35
 20
50.575
 42
-1.0
 10
55.05
 20
50.575
 10
55.05
 20
51.825
 42
-1.0
 10
55.35
 20
51.825
  0
LWPOLYLINE
  5
2B3
100
AcDbEntity
  8
SOLDERMASK_PADS_TOP
100
AcDbPolyline
 90
        4
 70
         1
 10
56.775
 20
47.85
 42
-1.0
 10
56.775
 20
48.15
 10
58.025
 20
48.15
 42
-1.0
 10
58.025
 20
47.85
  0
LWPOLYLINE
  5
2B4
100
AcDbEntity
  8
SOLDERMASK_PADS_TOP
100
AcDbPolyline
 90
        4
 70
         1
 10
56.775
 20
48.35
 42
-1.0
 10
56.775
 20
48.65
 10
58.025
 20
48.65
 42
-1.0
 10
58.025
 20
48.35
  0
LWPOLYLINE
  5
2B5
100
AcDbEntity
  8
SOLDERMASK_PADS_TOP
100
AcDbPolyline
 90
        4
 70
         1
 10
56.775
 20
44.85
 42
-1.0
 10
56.775
 20
45.15
 10
58.025
 20
45.15
 42
-1.0
 10
58.025
 20
44.85
  0
LWPOLYLINE
  5
2B6
100
AcDbEntity
  8
SOLDERMASK_PADS_TOP
100
AcDbPolyline
 90
        4
 70
         1
 10
56.775
 20
45.85
 42
-1.0
 10
56.775
 20
46.15
 10
58.025
 20
46.15
 42
-1.0
 10
58.025
 20
45.85
  0
LWPOLYLINE
  5
2B7
100
AcDbEntity
  8
SOLDERMASK_PADS_TOP
100
AcDbPolyline
 90
        4
 70
         1
 10
51.85
 20
35.175
 42
-1.0
 10
51.55
 20
35.175
 10
51.55
 20
36.425
 42
-1.0
 10
51.85
 20
36.425
  0
LWPOLYLINE
  5
2B8
100
AcDbEntity
  8
SOLDERMASK_PADS_TOP
100
AcDbPolyline
 90
        4
 70
         1
 10
49.35
 20
35.175
 42
-1.0
 10
49.05
 20
35.175
 10
49.05
 20
36.425
 42
-1.0
 10
49.35
 20
36.425
  0
LWPOLYLINE
  5
2B9
100
AcDbEntity
  8
SOLDERMASK_PADS_TOP
100
AcDbPolyline
 90
        4
 70
         1
 10
48.85
 20
35.175
 42
-1.0
 10
48.55
 20
35.175
 10
48.55
 20
36.425
 42
-1.0
 10
48.85
 20
36.425
  0
LWPOLYLINE
  5
2BA
100
AcDbEntity
  8
SOLDERMASK_PADS_TOP
100
AcDbPolyline
 90
        4
 70
         1
 10
48.35
 20
35.175
 42
-1.0
 10
48.05
 20
35.175
 10
48.05
 20
36.425
 42
-1.0
 10
48.35
 20
36.425
  0
LWPOLYLINE
  5
2BB
100
AcDbEntity
  8
SOLDERMASK_PADS_TOP
100
AcDbPolyline
 90
        4
 70
         1
 10
51.35
 20
35.175
 42
-1.0
 10
51.05
 20
35.175
 10
51.05
 20
36.425
 42
-1.0
 10
51.35
 20
36.425
  0
LWPOLYLINE
  5
2BC
100
AcDbEntity
  8
SOLDERMASK_PADS_TOP
100
AcDbPolyline
 90
        4
 70
         1
 10
50.85
 20
35.175
 42
-1.0
 10
50.55
 20
35.175
 10
50.55
 20
36.425
 42
-1.0
 10
50.85
 20
36.425
  0
LWPOLYLINE
  5
2BD
100
AcDbEntity
  8
SOLDERMASK_PADS_TOP
100
AcDbPolyline
 90
        4
 70
         1
 10
49.85
 20
35.175
 42
-1.0
 10
49.55
 20
35.175
 10
49.55
 20
36.425
 42
-1.0
 10
49.85
 20
36.425
  0
LWPOLYLINE
  5
2BE
100
AcDbEntity
  8
SOLDERMASK_PADS_TOP
100
AcDbPolyline
 90
        4
 70
         1
 10
50.35
 20
35.175
 42
-1.0
 10
50.05
 20
35.175
 10
50.05
 20
36.425
 42
-1.0
 10
50.35
 20
36.425
  0
LWPOLYLINE
  5
2BF
100
AcDbEntity
  8
SOLDERMASK_PADS_TOP
100
AcDbPolyline
 90
        4
 70
         1
 10
53.35
 20
35.175
 42
-1.0
 10
53.05
 20
35.175
 10
53.05
 20
36.425
 42
-1.0
 10
53.35
 20
36.425
  0
LWPOLYLINE
  5
2C0
100
AcDbEntity
  8
SOLDERMASK_PADS_TOP
100
AcDbPolyline
 90
        4
 70
         1
 10
52.85
 20
35.175
 42
-1.0
 10
52.55
 20
35.175
 10
52.55
 20
36.425
 42
-1.0
 10
52.85
 20
36.425
  0
LWPOLYLINE
  5
2C1
100
AcDbEntity
  8
SOLDERMASK_PADS_TOP
100
AcDbPolyline
 90
        4
 70
         1
 10
52.35
 20
35.175
 42
-1.0
 10
52.05
 20
35.175
 10
52.05
 20
36.425
 42
-1.0
 10
52.35
 20
36.425
  0
LWPOLYLINE
  5
2C2
100
AcDbEntity
  8
SOLDERMASK_PADS_TOP
100
AcDbPolyline
 90
        4
 70
         1
 10
56.775
 20
45.35
 42
-1.0
 10
56.775
 20
45.65
 10
58.025
 20
45.65
 42
-1.0
 10
58.025
 20
45.35
  0
LWPOLYLINE
  5
2C3
100
AcDbEntity
  8
SOLDERMASK_PADS_TOP
100
AcDbPolyline
 90
        4
 70
         1
 10
55.85
 20
35.175
 42
-1.0
 10
55.55
 20
35.175
 10
55.55
 20
36.425
 42
-1.0
 10
55.85
 20
36.425
  0
LWPOLYLINE
  5
2C4
100
AcDbEntity
  8
SOLDERMASK_PADS_TOP
100
AcDbPolyline
 90
        4
 70
         1
 10
56.775
 20
39.35
 42
-1.0
 10
56.775
 20
39.65
 10
58.025
 20
39.65
 42
-1.0
 10
58.025
 20
39.35
  0
LWPOLYLINE
  5
2C5
100
AcDbEntity
  8
SOLDERMASK_PADS_TOP
100
AcDbPolyline
 90
        4
 70
         1
 10
56.775
 20
37.85
 42
-1.0
 10
56.775
 20
38.15
 10
58.025
 20
38.15
 42
-1.0
 10
58.025
 20
37.85
  0
LWPOLYLINE
  5
2C6
100
AcDbEntity
  8
SOLDERMASK_PADS_TOP
100
AcDbPolyline
 90
        4
 70
         1
 10
56.775
 20
37.35
 42
-1.0
 10
56.775
 20
37.65
 10
58.025
 20
37.65
 42
-1.0
 10
58.025
 20
37.35
  0
LWPOLYLINE
  5
2C7
100
AcDbEntity
  8
SOLDERMASK_PADS_TOP
100
AcDbPolyline
 90
        4
 70
         1
 10
56.775
 20
38.35
 42
-1.0
 10
56.775
 20
38.65
 10
58.025
 20
38.65
 42
-1.0
 10
58.025
 20
38.35
  0
LWPOLYLINE
  5
2C8
100
AcDbEntity
  8
SOLDERMASK_PADS_TOP
100
AcDbPolyline
 90
        4
 70
         1
 10
56.775
 20
38.85
 42
-1.0
 10
56.775
 20
39.15
 10
58.025
 20
39.15
 42
-1.0
 10
58.025
 20
38.85
  0
LWPOLYLINE
  5
2C9
100
AcDbEntity
  8
SOLDERMASK_PADS_TOP
100
AcDbPolyline
 90
        4
 70
         1
 10
41.375
 20
42.85
 42
-1.0
 10
41.375
 20
43.15
 10
42.625
 20
43.15
 42
-1.0
 10
42.625
 20
42.85
  0
LWPOLYLINE
  5
2CA
100
AcDbEntity
  8
SOLDERMASK_PADS_TOP
100
AcDbPolyline
 90
        4
 70
         1
 10
53.85
 20
50.575
 42
-1.0
 10
53.55
 20
50.575
 10
53.55
 20
51.825
 42
-1.0
 10
53.85
 20
51.825
  0
LWPOLYLINE
  5
2CB
100
AcDbEntity
  8
SOLDERMASK_PADS_TOP
100
AcDbPolyline
 90
        4
 70
         1
 10
54.35
 20
50.575
 42
-1.0
 10
54.05
 20
50.575
 10
54.05
 20
51.825
 42
-1.0
 10
54.35
 20
51.825
  0
LWPOLYLINE
  5
2CC
100
AcDbEntity
  8
SOLDERMASK_PADS_TOP
100
AcDbPolyline
 90
        4
 70
         1
 10
56.775
 20
39.85
 42
-1.0
 10
56.775
 20
40.15
 10
58.025
 20
40.15
 42
-1.0
 10
58.025
 20
39.85
  0
LWPOLYLINE
  5
2CD
100
AcDbEntity
  8
SOLDERMASK_PADS_TOP
100
AcDbPolyline
 90
        4
 70
         1
 10
56.775
 20
40.35
 42
-1.0
 10
56.775
 20
40.65
 10
58.025
 20
40.65
 42
-1.0
 10
58.025
 20
40.35
  0
LWPOLYLINE
  5
2CE
100
AcDbEntity
  8
SOLDERMASK_PADS_TOP
100
AcDbPolyline
 90
        4
 70
         1
 10
56.775
 20
43.85
 42
-1.0
 10
56.775
 20
44.15
 10
58.025
 20
44.15
 42
-1.0
 10
58.025
 20
43.85
  0
LWPOLYLINE
  5
2CF
100
AcDbEntity
  8
SOLDERMASK_PADS_TOP
100
AcDbPolyline
 90
        4
 70
         1
 10
56.775
 20
48.85
 42
-1.0
 10
56.775
 20
49.15
 10
58.025
 20
49.15
 42
-1.0
 10
58.025
 20
48.85
  0
LWPOLYLINE
  5
2D0
100
AcDbEntity
  8
SOLDERMASK_PADS_TOP
100
AcDbPolyline
 90
        4
 70
         1
 10
56.775
 20
49.35
 42
-1.0
 10
56.775
 20
49.65
 10
58.025
 20
49.65
 42
-1.0
 10
58.025
 20
49.35
  0
LWPOLYLINE
  5
2D1
100
AcDbEntity
  8
SOLDERMASK_PADS_TOP
100
AcDbPolyline
 90
        4
 70
         1
 10
52.35
 20
50.575
 42
-1.0
 10
52.05
 20
50.575
 10
52.05
 20
51.825
 42
-1.0
 10
52.35
 20
51.825
  0
LWPOLYLINE
  5
2D2
100
AcDbEntity
  8
SOLDERMASK_PADS_TOP
100
AcDbPolyline
 90
        4
 70
         1
 10
50.85
 20
50.575
 42
-1.0
 10
50.55
 20
50.575
 10
50.55
 20
51.825
 42
-1.0
 10
50.85
 20
51.825
  0
LWPOLYLINE
  5
2D3
100
AcDbEntity
  8
SOLDERMASK_PADS_TOP
100
AcDbPolyline
 90
        4
 70
         1
 10
50.35
 20
50.575
 42
-1.0
 10
50.05
 20
50.575
 10
50.05
 20
51.825
 42
-1.0
 10
50.35
 20
51.825
  0
LWPOLYLINE
  5
2D4
100
AcDbEntity
  8
SOLDERMASK_PADS_TOP
100
AcDbPolyline
 90
        4
 70
         1
 10
46.85
 20
50.575
 42
-1.0
 10
46.55
 20
50.575
 10
46.55
 20
51.825
 42
-1.0
 10
46.85
 20
51.825
  0
LWPOLYLINE
  5
2D5
100
AcDbEntity
  8
SOLDERMASK_PADS_TOP
100
AcDbPolyline
 90
        4
 70
         1
 10
44.85
 20
50.575
 42
-1.0
 10
44.55
 20
50.575
 10
44.55
 20
51.825
 42
-1.0
 10
44.85
 20
51.825
  0
LWPOLYLINE
  5
2D6
100
AcDbEntity
  8
SOLDERMASK_PADS_TOP
100
AcDbPolyline
 90
        4
 70
         1
 10
41.375
 20
45.35
 42
-1.0
 10
41.375
 20
45.65
 10
42.625
 20
45.65
 42
-1.0
 10
42.625
 20
45.35
  0
LWPOLYLINE
  5
2D7
100
AcDbEntity
  8
SOLDERMASK_PADS_TOP
100
AcDbPolyline
 90
        4
 70
         1
 10
41.375
 20
44.85
 42
-1.0
 10
41.375
 20
45.15
 10
42.625
 20
45.15
 42
-1.0
 10
42.625
 20
44.85
  0
LWPOLYLINE
  5
2D8
100
AcDbEntity
  8
SOLDERMASK_PADS_TOP
100
AcDbPolyline
 90
        4
 70
         1
 10
41.375
 20
43.85
 42
-1.0
 10
41.375
 20
44.15
 10
42.625
 20
44.15
 42
-1.0
 10
42.625
 20
43.85
  0
LWPOLYLINE
  5
2D9
100
AcDbEntity
  8
SOLDERMASK_PADS_TOP
100
AcDbPolyline
 90
        4
 70
         1
 10
41.375
 20
42.35
 42
-1.0
 10
41.375
 20
42.65
 10
42.625
 20
42.65
 42
-1.0
 10
42.625
 20
42.35
  0
LWPOLYLINE
  5
2DA
100
AcDbEntity
  8
SOLDERMASK_PADS_TOP
100
AcDbPolyline
 90
        4
 70
         1
 10
44.35
 20
35.175
 42
-1.0
 10
44.05
 20
35.175
 10
44.05
 20
36.425
 42
-1.0
 10
44.35
 20
36.425
  0
LWPOLYLINE
  5
2DB
100
AcDbEntity
  8
SOLDERMASK_PADS_TOP
100
AcDbPolyline
 90
        4
 70
         1
 10
45.35
 20
35.175
 42
-1.0
 10
45.05
 20
35.175
 10
45.05
 20
36.425
 42
-1.0
 10
45.35
 20
36.425
  0
LWPOLYLINE
  5
2DC
100
AcDbEntity
  8
SOLDERMASK_PADS_TOP
100
AcDbPolyline
 90
        4
 70
         1
 10
46.35
 20
35.175
 42
-1.0
 10
46.05
 20
35.175
 10
46.05
 20
36.425
 42
-1.0
 10
46.35
 20
36.425
  0
LWPOLYLINE
  5
2DD
100
AcDbEntity
  8
SOLDERMASK_PADS_TOP
100
AcDbPolyline
 90
        4
 70
         1
 10
56.775
 20
41.85
 42
-1.0
 10
56.775
 20
42.15
 10
58.025
 20
42.15
 42
-1.0
 10
58.025
 20
41.85
  0
LWPOLYLINE
  5
2DE
100
AcDbEntity
  8
SOLDERMASK_PADS_TOP
100
AcDbPolyline
 90
        4
 70
         1
 10
55.35
 20
35.175
 42
-1.0
 10
55.05
 20
35.175
 10
55.05
 20
36.425
 42
-1.0
 10
55.35
 20
36.425
  0
LWPOLYLINE
  5
2DF
100
AcDbEntity
  8
SOLDERMASK_PADS_TOP
100
AcDbPolyline
 90
        4
 70
         1
 10
54.85
 20
35.175
 42
-1.0
 10
54.55
 20
35.175
 10
54.55
 20
36.425
 42
-1.0
 10
54.85
 20
36.425
  0
LWPOLYLINE
  5
2E0
100
AcDbEntity
  8
SOLDERMASK_PADS_TOP
100
AcDbPolyline
 90
        4
 70
         1
 10
56.775
 20
47.35
 42
-1.0
 10
56.775
 20
47.65
 10
58.025
 20
47.65
 42
-1.0
 10
58.025
 20
47.35
  0
LWPOLYLINE
  5
2E1
100
AcDbEntity
  8
SOLDERMASK_PADS_TOP
100
AcDbPolyline
 90
        4
 70
         1
 10
56.775
 20
43.35
 42
-1.0
 10
56.775
 20
43.65
 10
58.025
 20
43.65
 42
-1.0
 10
58.025
 20
43.35
  0
LWPOLYLINE
  5
2E2
100
AcDbEntity
  8
SOLDERMASK_PADS_TOP
100
AcDbPolyline
 90
        4
 70
         1
 10
70.45
 20
70.1
 10
70.45
 20
72.2
 10
72.55
 20
72.2
 10
72.55
 20
70.1
  0
LWPOLYLINE
  5
2E3
100
AcDbEntity
  8
SOLDERMASK_PADS_TOP
100
AcDbPolyline
 90
        4
 70
         1
 10
70.45
 20
74.6
 10
70.45
 20
76.7
 10
72.55
 20
76.7
 10
72.55
 20
74.6
  0
LWPOLYLINE
  5
2E4
100
AcDbEntity
  8
SOLDERMASK_PADS_TOP
100
AcDbPolyline
 90
        4
 70
         1
 10
69.5
 20
61.7
 10
69.5
 20
63.1
 10
70.9
 20
63.1
 10
70.9
 20
61.7
  0
CIRCLE
  5
2E5
100
AcDbEntity
  8
SOLDERMASK_PADS_TOP
100
AcDbCircle
 10
75.28
 20
62.4
 30
0.0
 40
0.7
  0
CIRCLE
  5
2E6
100
AcDbEntity
  8
SOLDERMASK_PADS_TOP
100
AcDbCircle
 10
72.74
 20
62.4
 30
0.0
 40
0.7
  0
LWPOLYLINE
  5
2E7
100
AcDbEntity
  8
SOLDERMASK_PADS_TOP
100
AcDbPolyline
 90
        4
 70
         1
 10
68.175
 20
82.975
 42
-1.0
 10
69.225
 20
82.975
 10
69.225
 20
80.225
 42
-1.0
 10
68.175
 20
80.225
  0
LWPOLYLINE
  5
2E8
100
AcDbEntity
  8
SOLDERMASK_PADS_TOP
100
AcDbPolyline
 90
        4
 70
         1
 10
70.715
 20
82.975
 42
-1.0
 10
71.765
 20
82.975
 10
71.765
 20
80.225
 42
-1.0
 10
70.715
 20
80.225
  0
LWPOLYLINE
  5
2E9
100
AcDbEntity
  8
SOLDERMASK_PADS_TOP
100
AcDbPolyline
 90
        4
 70
         1
 10
65.635
 20
82.975
 42
-1.0
 10
66.685
 20
82.975
 10
66.685
 20
80.225
 42
-1.0
 10
65.635
 20
80.225
  0
LWPOLYLINE
  5
2EA
100
AcDbEntity
  8
SOLDERMASK_PADS_TOP
100
AcDbPolyline
 90
        4
 70
         1
 10
63.475
 20
86.875
 10
63.475
 20
96.325
 10
73.925
 20
96.325
 10
73.925
 20
86.875
  0
LWPOLYLINE
  5
2EB
100
AcDbEntity
  8
SOLDERMASK_PADS_TOP
100
AcDbPolyline
 90
        4
 70
         1
 10
69.889364
 20
41.456332
 10
69.889364
 20
43.056332
 10
71.489364
 20
43.056332
 10
71.489364
 20
41.456332
  0
CIRCLE
  5
2EC
100
AcDbEntity
  8
SOLDERMASK_PADS_TOP
100
AcDbCircle
 10
73.229364
 20
21.936332
 30
0.0
 40
0.75
  0
CIRCLE
  5
2ED
100
AcDbEntity
  8
SOLDERMASK_PADS_TOP
100
AcDbCircle
 10
73.229364
 20
19.396332
 30
0.0
 40
0.75
  0
CIRCLE
  5
2EE
100
AcDbEntity
  8
SOLDERMASK_PADS_TOP
100
AcDbCircle
 10
73.229364
 20
24.476332
 30
0.0
 40
0.75
  0
CIRCLE
  5
2EF
100
AcDbEntity
  8
SOLDERMASK_PADS_TOP
100
AcDbCircle
 10
73.229364
 20
27.016332
 30
0.0
 40
0.75
  0
CIRCLE
  5
2F0
100
AcDbEntity
  8
SOLDERMASK_PADS_TOP
100
AcDbCircle
 10
73.229364
 20
29.556332
 30
0.0
 40
0.75
  0
CIRCLE
  5
2F1
100
AcDbEntity
  8
SOLDERMASK_PADS_TOP
100
AcDbCircle
 10
73.229364
 20
32.096332
 30
0.0
 40
0.75
  0
CIRCLE
  5
2F2
100
AcDbEntity
  8
SOLDERMASK_PADS_TOP
100
AcDbCircle
 10
73.229364
 20
34.636332
 30
0.0
 40
0.75
  0
CIRCLE
  5
2F3
100
AcDbEntity
  8
SOLDERMASK_PADS_TOP
100
AcDbCircle
 10
73.229364
 20
37.176332
 30
0.0
 40
0.75
  0
CIRCLE
  5
2F4
100
AcDbEntity
  8
SOLDERMASK_PADS_TOP
100
AcDbCircle
 10
73.229364
 20
39.716332
 30
0.0
 40
0.75
  0
CIRCLE
  5
2F5
100
AcDbEntity
  8
SOLDERMASK_PADS_TOP
100
AcDbCircle
 10
73.229364
 20
42.256332
 30
0.0
 40
0.75
  0
CIRCLE
  5
2F6
100
AcDbEntity
  8
SOLDERMASK_PADS_TOP
100
AcDbCircle
 10
70.689364
 20
24.476332
 30
0.0
 40
0.75
  0
CIRCLE
  5
2F7
100
AcDbEntity
  8
SOLDERMASK_PADS_TOP
100
AcDbCircle
 10
70.689364
 20
29.556332
 30
0.0
 40
0.75
  0
CIRCLE
  5
2F8
100
AcDbEntity
  8
SOLDERMASK_PADS_TOP
100
AcDbCircle
 10
70.689364
 20
32.096332
 30
0.0
 40
0.75
  0
CIRCLE
  5
2F9
100
AcDbEntity
  8
SOLDERMASK_PADS_TOP
100
AcDbCircle
 10
70.689364
 20
37.176332
 30
0.0
 40
0.75
  0
CIRCLE
  5
2FA
100
AcDbEntity
  8
SOLDERMASK_PADS_TOP
100
AcDbCircle
 10
70.689364
 20
27.016332
 30
0.0
 40
0.75
  0
CIRCLE
  5
2FB
100
AcDbEntity
  8
SOLDERMASK_PADS_TOP
100
AcDbCircle
 10
70.689364
 20
34.636332
 30
0.0
 40
0.75
  0
CIRCLE
  5
2FC
100
AcDbEntity
  8
SOLDERMASK_PADS_TOP
100
AcDbCircle
 10
70.689364
 20
39.716332
 30
0.0
 40
0.75
  0
CIRCLE
  5
2FD
100
AcDbEntity
  8
SOLDERMASK_PADS_TOP
100
AcDbCircle
 10
70.689364
 20
19.396332
 30
0.0
 40
0.75
  0
CIRCLE
  5
2FE
100
AcDbEntity
  8
SOLDERMASK_PADS_TOP
100
AcDbCircle
 10
70.689364
 20
21.936332
 30
0.0
 40
0.75
  0
LWPOLYLINE
  5
2FF
100
AcDbEntity
  8
SOLDERMASK_PADS_TOP
100
AcDbPolyline
 90
        4
 70
         1
 10
71.5
 20
65.25
 10
71.5
 20
67.35
 10
73.6
 20
67.35
 10
73.6
 20
65.25
  0
LWPOLYLINE
  5
300
100
AcDbEntity
  8
SOLDERMASK_PADS_TOP
100
AcDbPolyline
 90
        4
 70
         1
 10
76.0
 20
65.25
 10
76.0
 20
67.35
 10
78.1
 20
67.35
 10
78.1
 20
65.25
  0
CIRCLE
  5
301
100
AcDbEntity
  8
SOLDERMASK_PADS_TOP
100
AcDbCircle
 10
62.606528
 20
43.393726
 30
0.0
 40
0.75
  0
CIRCLE
  5
302
100
AcDbEntity
  8
SOLDERMASK_PADS_TOP
100
AcDbCircle
 10
65.14653
 20
43.393726
 30
0.0
 40
0.75
  0
LWPOLYLINE
  5
303
100
AcDbEntity
  8
SOLDERMASK_PADS_TOP
100
AcDbPolyline
 90
        4
 70
         1
 10
69.5
 20
59.0
 10
69.5
 20
60.4
 10
70.9
 20
60.4
 10
70.9
 20
59.0
  0
CIRCLE
  5
304
100
AcDbEntity
  8
SOLDERMASK_PADS_TOP
100
AcDbCircle
 10
75.28
 20
59.7
 30
0.0
 40
0.7
  0
CIRCLE
  5
305
100
AcDbEntity
  8
SOLDERMASK_PADS_TOP
100
AcDbCircle
 10
72.74
 20
59.7
 30
0.0
 40
0.7
  0
LWPOLYLINE
  5
306
100
AcDbEntity
  8
SOLDERMASK_PADS_TOP
100
AcDbPolyline
 90
        4
 70
         1
 10
41.1
 20
-2.3
 10
41.1
 20
-0.9
 10
42.5
 20
-0.9
 10
42.5
 20
-2.3
  0
CIRCLE
  5
307
100
AcDbEntity
  8
SOLDERMASK_PADS_TOP
100
AcDbCircle
 10
41.8
 20
0.94
 30
0.0
 40
0.7
  0
LWPOLYLINE
  5
308
100
AcDbEntity
  8
SOLDERMASK_PADS_TOP
100
AcDbPolyline
 90
        4
 70
         1
 10
84.2
 20
65.6
 10
84.2
 20
67.0
 10
85.6
 20
67.0
 10
85.6
 20
65.6
  0
CIRCLE
  5
309
100
AcDbEntity
  8
SOLDERMASK_PADS_TOP
100
AcDbCircle
 10
82.36
 20
66.3
 30
0.0
 40
0.7
  0
LWPOLYLINE
  5
30A
100
AcDbEntity
  8
SOLDERMASK_PADS_TOP
100
AcDbPolyline
 90
        4
 70
         1
 10
77.0
 20
52.7
 10
77.0
 20
54.3
 10
78.6
 20
54.3
 10
78.6
 20
52.7
  0
CIRCLE
  5
30B
100
AcDbEntity
  8
SOLDERMASK_PADS_TOP
100
AcDbCircle
 10
77.8
 20
60.5
 30
0.0
 40
0.75
  0
CIRCLE
  5
30C
100
AcDbEntity
  8
SOLDERMASK_PADS_TOP
100
AcDbCircle
 10
80.52
 20
50.4
 30
0.0
 40
1.65
  0
CIRCLE
  5
30D
100
AcDbEntity
  8
SOLDERMASK_PADS_TOP
100
AcDbCircle
 10
77.8
 20
56.0
 30
0.0
 40
0.75
  0
CIRCLE
  5
30E
100
AcDbEntity
  8
SOLDERMASK_PADS_TOP
100
AcDbCircle
 10
77.8
 20
58.0
 30
0.0
 40
0.75
  0
CIRCLE
  5
30F
100
AcDbEntity
  8
SOLDERMASK_PADS_TOP
100
AcDbCircle
 10
80.52
 20
63.6
 30
0.0
 40
1.65
  0
LWPOLYLINE
  5
310
100
AcDbEntity
  8
SOLDERMASK_PADS_TOP
100
AcDbPolyline
 90
        4
 70
         1
 10
77.2
 20
46.2
 10
77.2
 20
47.6
 10
78.6
 20
47.6
 10
78.6
 20
46.2
  0
CIRCLE
  5
311
100
AcDbEntity
  8
SOLDERMASK_PADS_TOP
100
AcDbCircle
 10
80.44
 20
46.9
 30
0.0
 40
0.7
  0
LWPOLYLINE
  5
312
100
AcDbEntity
  8
SOLDERMASK_PADS_TOP
100
AcDbPolyline
 90
        4
 70
         1
 10
86.4
 20
46.2
 10
86.4
 20
47.6
 10
87.8
 20
47.6
 10
87.8
 20
46.2
  0
CIRCLE
  5
313
100
AcDbEntity
  8
SOLDERMASK_PADS_TOP
100
AcDbCircle
 10
84.56
 20
46.9
 30
0.0
 40
0.7
  0
LWPOLYLINE
  5
314
100
AcDbEntity
  8
SOLDERMASK_PADS_TOP
100
AcDbPolyline
 90
        4
 70
         1
 10
41.4
 20
-7.7
 10
41.4
 20
-6.3
 10
42.8
 20
-6.3
 10
42.8
 20
-7.7
  0
CIRCLE
  5
315
100
AcDbEntity
  8
SOLDERMASK_PADS_TOP
100
AcDbCircle
 10
39.56
 20
-7.0
 30
0.0
 40
0.7
  0
LWPOLYLINE
  5
316
100
AcDbEntity
  8
SOLDERMASK_PADS_TOP
100
AcDbPolyline
 90
        4
 70
         1
 10
74.815227
 20
75.542035
 10
74.815227
 20
77.142035
 10
76.415227
 20
77.142035
 10
76.415227
 20
75.542035
  0
CIRCLE
  5
317
100
AcDbEntity
  8
SOLDERMASK_PADS_TOP
100
AcDbCircle
 10
78.155227
 20
76.342035
 30
0.0
 40
0.75
  0
CIRCLE
  5
318
100
AcDbEntity
  8
SOLDERMASK_PADS_TOP
100
AcDbCircle
 10
75.615227
 20
73.802035
 30
0.0
 40
0.75
  0
CIRCLE
  5
319
100
AcDbEntity
  8
SOLDERMASK_PADS_TOP
100
AcDbCircle
 10
78.155227
 20
73.802035
 30
0.0
 40
0.75
  0
CIRCLE
  5
31A
100
AcDbEntity
  8
SOLDERMASK_PADS_TOP
100
AcDbCircle
 10
80.415227
 20
69.142035
 30
0.0
 40
1.65
  0
CIRCLE
  5
31B
100
AcDbEntity
  8
SOLDERMASK_PADS_TOP
100
AcDbCircle
 10
80.415227
 20
81.142035
 30
0.0
 40
1.65
  0
CIRCLE
  5
31C
100
AcDbEntity
  8
SOLDERMASK_PADS_TOP
100
AcDbCircle
 10
80.150002
 20
90.649998
 30
0.0
 40
1.8
  0
CIRCLE
  5
31D
100
AcDbEntity
  8
SOLDERMASK_PADS_TOP
100
AcDbCircle
 10
83.15
 20
85.949998
 30
0.0
 40
1.8
  0
CIRCLE
  5
31E
100
AcDbEntity
  8
SOLDERMASK_PADS_TOP
100
AcDbCircle
 10
76.95
 20
85.949998
 30
0.0
 40
1.8
  0
LWPOLYLINE
  5
31F
100
AcDbEntity
  8
SOLDERMASK_PADS_TOP
100
AcDbPolyline
 90
        4
 70
         1
 10
37.257932
 20
14.828426
 10
37.257932
 20
17.428426
 10
39.157932
 20
17.428426
 10
39.157932
 20
14.828426
  0
LWPOLYLINE
  5
320
100
AcDbEntity
  8
SOLDERMASK_PADS_TOP
100
AcDbPolyline
 90
        4
 70
         1
 10
33.357932
 20
20.478426
 10
33.357932
 20
23.078426
 10
35.257932
 20
23.078426
 10
35.257932
 20
20.478426
  0
LWPOLYLINE
  5
321
100
AcDbEntity
  8
SOLDERMASK_PADS_TOP
100
AcDbPolyline
 90
        4
 70
         1
 10
33.357932
 20
14.828426
 10
33.357932
 20
17.428426
 10
35.257932
 20
17.428426
 10
35.257932
 20
14.828426
  0
LWPOLYLINE
  5
322
100
AcDbEntity
  8
SOLDERMASK_PADS_TOP
100
AcDbPolyline
 90
        4
 70
         1
 10
37.257932
 20
20.478426
 10
37.257932
 20
23.078426
 10
39.157932
 20
23.078426
 10
39.157932
 20
20.478426
  0
ENDSEC
  0
SECTION
  2
OBJECTS
  0
DICTIONARY
  5
19
100
AcDbDictionary
  3
ACAD_GROUP
350
1A
  3
ACAD_MLINESTYLE
350
1B
  0
DICTIONARY
  5
1A
102
{ACAD_REACTORS
330
19
102
}
100
AcDbDictionary
  0
DICTIONARY
  5
1B
102
{ACAD_REACTORS
330
19
102
}
100
AcDbDictionary
  3
STANDARD
350
1C
  0
MLINESTYLE
  5
1C
102
{ACAD_REACTORS
330
1B
102
}
100
AcDbMlineStyle
  2
STANDARD
 70
         0
  3

 62
         0
 51
90.0
 52
90.0
 71
         2
 49
0.5
 62
       256
  6
BYLAYER
 49
-0.5
 62
       256
  6
BYLAYER
  0
DICTIONARY
  5
22
102
{ACAD_REACTORS
330
19
102
}
100
AcDbDictionary
  0
ENDSEC
  0
EOF
