  0
SECTION
  2
HEADER
  9
$ACADVER
  1
AC1014
  9
$ACADMAINTVER
 70
         0
  9
$DWGCODEPAGE
  3
ANSI_1252
  9
$INSBASE
 10
0.0
 20
0.0
 30
0.0
  9
$EXTMIN
 10
0.0
 20
-6.721479
 30
0.0
  9
$EXTMAX
 10
144.248995
 20
107.3
 30
0.0
  9
$LIMMIN
 10
0.0
 20
0.0
  9
$LIMMAX
 10
0.0
 20
0.0
  9
$ORTHOMODE
 70
         0
  9
$REGENMODE
 70
         1
  9
$FILLMODE
 70
         1
  9
$QTEXTMODE
 70
         0
  9
$MIRRTEXT
 70
         1
  9
$DRAGMODE
 70
         2
  9
$LTSCALE
 40
1.0
  9
$OSMODE
 70
         0
  9
$ATTMODE
 70
         1
  9
$TEXTSIZE
 40
0.2
  9
$TRACEWID
 40
0.05
  9
$TEXTSTYLE
  7
STANDARD
  9
$CLAYER
  8
0
  9
$CELTYPE
  6
CONTINUOUS
  9
$CECOLOR
 62
       256
  9
$CELTSCALE
 40
1.0
  9
$DELOBJ
 70
         1
  9
$DISPSILH
 70
         0
  9
$DIMSCALE
 40
1.0
  9
$DIMASZ
 40
0.18
  9
$DIMEXO
 40
0.0625
  9
$DIMDLI
 40
0.38
  9
$DIMRND
 40
0.0
  9
$DIMDLE
 40
0.0
  9
$DIMEXE
 40
0.18
  9
$DIMTP
 40
0.0
  9
$DIMTM
 40
0.0
  9
$DIMTXT
 40
0.18
  9
$DIMCEN
 40
0.09
  9
$DIMTSZ
 40
0.0
  9
$DIMTOL
 70
         0
  9
$DIMLIM
 70
         0
  9
$DIMTIH
 70
         1
  9
$DIMTOH
 70
         1
  9
$DIMSE1
 70
         0
  9
$DIMSE2
 70
         0
  9
$DIMTAD
 70
         0
  9
$DIMZIN
 70
         0
  9
$DIMBLK
  1

  9
$DIMASO
 70
         1
  9
$DIMSHO
 70
         1
  9
$DIMPOST
  1

  9
$DIMAPOST
  1

  9
$DIMALT
 70
         0
  9
$DIMALTD
 70
         2
  9
$DIMALTF
 40
25.4
  9
$DIMLFAC
 40
1.0
  9
$DIMTOFL
 70
         0
  9
$DIMTVP
 40
0.0
  9
$DIMTIX
 70
         0
  9
$DIMSOXD
 70
         0
  9
$DIMSAH
 70
         0
  9
$DIMBLK1
  1

  9
$DIMBLK2
  1

  9
$DIMSTYLE
  2
STANDARD
  9
$DIMCLRD
 70
         0
  9
$DIMCLRE
 70
         0
  9
$DIMCLRT
 70
         0
  9
$DIMTFAC
 40
1.0
  9
$DIMGAP
 40
0.09
  9
$DIMJUST
 70
         0
  9
$DIMSD1
 70
         0
  9
$DIMSD2
 70
         0
  9
$DIMTOLJ
 70
         1
  9
$DIMTZIN
 70
         0
  9
$DIMALTZ
 70
         0
  9
$DIMALTTZ
 70
         0
  9
$DIMFIT
 70
         3
  9
$DIMUPT
 70
         0
  9
$DIMUNIT
 70
         2
  9
$DIMDEC
 70
         4
  9
$DIMTDEC
 70
         4
  9
$DIMALTU
 70
         2
  9
$DIMALTTD
 70
         2
  9
$DIMTXSTY
  7
STANDARD
  9
$DIMAUNIT
 70
         0
  9
$LUNITS
 70
         2
  9
$LUPREC
 70
         4
  9
$SKETCHINC
 40
0.1
  9
$FILLETRAD
 40
0.0
  9
$AUNITS
 70
         0
  9
$AUPREC
 70
         0
  9
$MENU
  1
acad
  9
$ELEVATION
 40
0.0
  9
$PELEVATION
 40
0.0
  9
$THICKNESS
 40
0.0
  9
$LIMCHECK
 70
         0
  9
$BLIPMODE
 70
         1
  9
$CHAMFERA
 40
0.0
  9
$CHAMFERB
 40
0.0
  9
$CHAMFERC
 40
0.0
  9
$CHAMFERD
 40
0.0
  9
$SKPOLY
 70
         0
  9
$TDCREATE
 40
2457014.667893519
  9
$TDUPDATE
 40
0.000000000
  9
$TDINDWG
 40
0.0000000000
  9
$TDUSRTIMER
 40
0.0000000000
  9
$USRTIMER
 70
         1
  9
$ANGBASE
 50
0.0
  9
$ANGDIR
 70
         0
  9
$PDMODE
 70
         0
  9
$PDSIZE
 40
0.0
  9
$PLINEWID
 40
0.0
  9
$COORDS
 70
         0
  9
$SPLFRAME
 70
         0
  9
$SPLINETYPE
 70
         6
  9
$SPLINESEGS
 70
         8
  9
$ATTDIA
 70
         0
  9
$ATTREQ
 70
         1
  9
$HANDLING
 70
         1
  9
$HANDSEED
  5
2E7
  9
$SURFTAB1
 70
         6
  9
$SURFTAB2
 70
         6
  9
$SURFTYPE
 70
         6
  9
$SURFU
 70
         6
  9
$SURFV
 70
         6
  9
$UCSNAME
  2

  9
$UCSORG
 10
0.0
 20
0.0
 30
0.0
  9
$UCSXDIR
 10
1.0
 20
0.0
 30
0.0
  9
$UCSYDIR
 10
0.0
 20
1.0
 30
0.0
  9
$PUCSNAME
  2

  9
$PUCSORG
 10
0.0
 20
0.0
 30
0.0
  9
$PUCSXDIR
 10
1.0
 20
0.0
 30
0.0
  9
$PUCSYDIR
 10
0.0
 20
1.0
 30
0.0
  9
$USERI1
 70
        -3
  9
$USERI2
 70
         0
  9
$USERI3
 70
         0
  9
$USERI4
 70
         0
  9
$USERI5
 70
         0
  9
$USERR1
 40
0.0
  9
$USERR2
 40
0.0
  9
$USERR3
 40
0.0
  9
$USERR4
 40
0.0
  9
$USERR5
 40
0.0
  9
$WORLDVIEW
 70
         1
  9
$SHADEDGE
 70
         3
  9
$SHADEDIF
 70
        70
  9
$TILEMODE
 70
         1
  9
$MAXACTVP
 70
        16
  9
$PINSBASE
 10
0.0
 20
0.0
 30
0.0
  9
$PLIMCHECK
 70
         0
  9
$PEXTMIN
 10
1.0000000000E+20
 20
1.0000000000E+20
 30
1.0000000000E+20
  9
$PEXTMAX
 10
-1.0000000000E+20
 20
-1.0000000000E+20
 30
-1.0000000000E+20
  9
$PLIMMIN
 10
0.0
 20
0.0
  9
$PLIMMAX
 10
12.0
 20
9.0
  9
$UNITMODE
 70
         0
  9
$VISRETAIN
 70
         0
  9
$PLINEGEN
 70
         1
  9
$PSLTSCALE
 70
         0
  9
$TREEDEPTH
 70
      3020
  9
$PICKSTYLE
 70
         1
  9
$CMLSTYLE
  2
STANDARD
  9
$CMLJUST
 70
         0
  9
$CMLSCALE
 40
1.0
  9
$PROXYGRAPHICS
 70
         0
  9
$MEASUREMENT
 70
         0
  0
ENDSEC
  0
SECTION
  2
CLASSES
  0
CLASS
  1
LWPOLYLINE
  2
AcDbPolyline
  3
"AutoCAD"
 90
        0
280
         0
281
         1
  0
CLASS
  1
IMAGE
  2
AcDbRasterImage
  3
ISM
 90
      127
280
         0
281
         1
  0
CLASS
  1
OLE2FRAME
  2
AcDbOle2Frame
  3
""
 90
        0
280
         0
281
         1
  0
CLASS
  1
HATCH
  2
AcDbHatch
  3
"ACAD_SEDONA"
 90
        0
280
         0
281
         1
  0
CLASS
  1
DICTIONARYVAR
  2
AcDbDictionaryVar
  3
"AutoCAD"
 90
        0
280
         0
281
         0
  0
CLASS
  1
RASTERVARIABLES
  2
AcDbRasterVariables
  3
ISM
 90
        0
280
         0
281
         0
  0
CLASS
  1
IMAGEDEF
  2
AcDbRasterImageDef
  3
ISM
 90
        0
280
         0
281
         0
  0
CLASS
  1
IMAGEDEF_REACTOR
  2
AcDbRasterImageDefReactor
  3
ISM
 90
        1
280
         0
281
         0
  0
CLASS
  1
IDBUFFER
  2
AcDbIdBuffer
  3
"Acad"
 90
        0
280
         0
281
         0
  0
CLASS
  1
SPATIAL_FILTER
  2
AcDbSpatialFilter
  3
"Acad"
 90
        0
280
         0
281
         0
  0
CLASS
  1
XRECORD
  2
AcDbXrecord
  3
"<Built In>"
 90
        0
280
         0
281
         0
  0
CLASS
  1
SORTENTSTABLE
  2
AcDbSortentsTable
  3
"AutoCAD"
 90
        0
280
         0
281
         0
  0
CLASS
  1
LAYER_INDEX
  2
AcDbLayerIndex
  3
"Acad"
 90
        0
280
         0
281
         0
  0
CLASS
  1
SPATIAL_INDEX
  2
AcDbSpatialIndex
  3
"Acad"
 90
        0
280
         0
281
         0
  0
CLASS
  1
OBJECT_PTR
  2
CAseDLPNTableRecord
  3
"ASE-LPNTableRecord"
 90
        1
280
         0
281
         0
  0
CLASS
  1
LAYOUT
  2
AcDbLayout
  3
"AutoCAD 2000"
 90
        0
280
         0
281
         0
  0
CLASS
  1
PLOTSETTINGS
  2
AcDbPlotSettings
  3
"AutoCAD 2000"
 90
        0
280
         0
281
         0
  0
CLASS
  1
ACDBDICTIONARYWDFLT
  2
AcDbDictionaryWithDefault
  3
"AutoCAD 2000"
 90
        0
280
         0
281
         0
  0
CLASS
  1
ACDBPLACEHOLDER
  2
AcDbPlaceHolder
  3
"AutoCAD 2000"
 90
        0
280
         0
281
         0
  0
CLASS
  1
VBA_PROJECT
  2
AcDbVbaProject
  3
"acadvba"
 90
        0
280
         0
281
         0
  0
CLASS
  1
WIPEOUT
  2
AcDbWipeout
  3
WipeOut|AutoCAD Express Tool|expresstools@autodesk.com
 90
      127
280
         0
281
         1
  0
CLASS
  1
WIPEOUTVARIABLES
  2
AcDbWipeoutVariables
  3
WipeOut|AutoCAD Express Tool|expresstools@autodesk.com
 90
        0
280
         0
281
         0
  0
CLASS
  1
RTEXT
  2
RText
  3
RText|AutoCAD Express Tool|expresstools@autodesk.com
 90
        0
280
         0
281
         1
  0
CLASS
  1
ARCALIGNEDTEXT
  2
AcDbArcAlignedText
  3
ATEXT|AutoCAD Express Tool|expresstools@autodesk.com
 90
        0
280
         0
281
         1
  0
ENDSEC
  0
SECTION
  2
TABLES
  0
TABLE
  2
VPORT
  5
7
100
AcDbSymbolTable
 70
         1
  0
VPORT
  5
15
100
AcDbSymbolTableRecord
100
AcDbViewportTableRecord
  2
*ACTIVE
 70
         0
 10
0.0
 20
0.0
 11
1.0
 21
1.0
 12
6.591288
 22
4.579184
 13
0.0
 23
0.0
 14
1.0
 24
1.0
 15
0.0
 25
0.0
 16
0.0
 26
0.0
 36
1.0
 17
0.0
 27
0.0
 37
0.0
 40
9.158369
 41
0.688564
 42
50.0
 43
0.0
 44
0.0
 50
0.0
 51
0.0
 71
         0
 72
       100
 73
         1
 74
         1
 75
         0
 76
         0
 77
         0
 78
         0
  0
ENDTAB
  0
TABLE
  2
LTYPE
  5
4
100
AcDbSymbolTable
 70
         3
  0
LTYPE
  5
11
100
AcDbSymbolTableRecord
100
AcDbLinetypeTableRecord
  2
BYBLOCK
 70
        64
  3

 72
        65
 73
         0
 40
0.0
  0
LTYPE
  5
12
100
AcDbSymbolTableRecord
100
AcDbLinetypeTableRecord
  2
BYLAYER
 70
        64
  3

 72
        65
 73
         0
 40
0.0
  0
LTYPE
  5
13
100
AcDbSymbolTableRecord
100
AcDbLinetypeTableRecord
  2
CONTINUOUS
 70
        64
  3
Solid line
 72
        65
 73
         0
 40
0.0
  0
ENDTAB
  0
TABLE
  2
LAYER
  5
2
100
AcDbSymbolTable
 70
         6
  0
LAYER
  5
14
100
AcDbSymbolTableRecord
100
AcDbLayerTableRecord
  2
0
 70
         0
 62
         7
  6
CONTINUOUS
  0
LAYER
  5
24
100
AcDbSymbolTableRecord
100
AcDbLayerTableRecord
  2
ASSEMBLY_OUTLINES_TOP
 70
         0
 62
       102
  6
CONTINUOUS
  0
LAYER
  5
25
100
AcDbSymbolTableRecord
100
AcDbLayerTableRecord
  2
ASSEMBLY_REF_DES_TOP
 70
         0
 62
       102
  6
CONTINUOUS
  0
LAYER
  5
26
100
AcDbSymbolTableRecord
100
AcDbLayerTableRecord
  2
BOARD_OUTLINE
 70
         0
 62
        10
  6
CONTINUOUS
  0
LAYER
  5
27
100
AcDbSymbolTableRecord
100
AcDbLayerTableRecord
  2
MOUNTING_HOLES_LAYER_TOP
 70
         0
 62
        42
  6
CONTINUOUS
  0
LAYER
  5
28
100
AcDbSymbolTableRecord
100
AcDbLayerTableRecord
  2
PART_HOLES_LAYER_TOP
 70
         0
 62
        30
  6
CONTINUOUS
  0
ENDTAB
  0
TABLE
  2
STYLE
  5
3
100
AcDbSymbolTable
 70
         3
  0
STYLE
  5
17
100
AcDbSymbolTableRecord
100
AcDbTextStyleTableRecord
  2
STANDARD
 70
         0
 40
0.0
 41
1.0
 50
0.0
 71
         0
 42
0.0
  3
txt
  4

  0
STYLE
  5
39
100
AcDbSymbolTableRecord
100
AcDbTextStyleTableRecord
  2
VERIBEST_GERBER_0
 70
         0
 40
0.0
 41
1.0
 50
0.0
 71
         0
 42
0.0
  3

  4

  0
STYLE
  5
DB
100
AcDbSymbolTableRecord
100
AcDbTextStyleTableRecord
  2
GOST_TYPE_B
 70
         0
 40
0.0
 41
1.0
 50
0.0
 71
         0
 42
0.0
  3
gost.ttf
  4

  0
ENDTAB
  0
TABLE
  2
VIEW
  5
5
100
AcDbSymbolTable
 70
         0
  0
ENDTAB
  0
TABLE
  2
UCS
  5
6
100
AcDbSymbolTable
 70
         0
  0
ENDTAB
  0
TABLE
  2
APPID
  5
8
100
AcDbSymbolTable
 70
         1
  0
APPID
  5
16
100
AcDbSymbolTableRecord
100
AcDbRegAppTableRecord
  2
ACAD
 70
         0
  0
ENDTAB
  0
TABLE
  2
DIMSTYLE
  5
9
100
AcDbSymbolTable
 70
         1
  0
DIMSTYLE
105
18
100
AcDbSymbolTableRecord
100
AcDbDimStyleTableRecord
  2
STANDARD
 70
         0
  3

  4

  5

  6

  7

 40
1.0
 41
0.18
 42
0.0625
 43
0.38
 44
0.18
 45
0.0
 46
0.0
 47
0.0
 48
0.0
 71
         0
 72
         0
 73
         1
 74
         1
 75
         0
 76
         0
 77
         0
 78
         0
140
0.18
141
0.09
142
0.0
143
25.4
144
1.0
145
0.0
146
1.0
147
0.09
170
         0
171
         2
172
         0
173
         0
174
         0
175
         0
176
         0
177
         0
178
         0
270
         2
271
         4
272
         4
273
         2
274
         2
275
         0
280
         0
281
         0
282
         0
283
         1
284
         0
285
         0
286
         0
287
         3
288
         0
340
17
  0
ENDTAB
  0
TABLE
  2
BLOCK_RECORD
  5
1
100
AcDbSymbolTable
 70
         0
  0
BLOCK_RECORD
  5
A
100
AcDbSymbolTableRecord
100
AcDbBlockTableRecord
  2
*MODEL_SPACE
  0
BLOCK_RECORD
  5
B
100
AcDbSymbolTableRecord
100
AcDbBlockTableRecord
  2
*PAPER_SPACE
  0
ENDTAB
  0
ENDSEC
  0
SECTION
  2
BLOCKS
  0
BLOCK
  5
D
100
AcDbEntity
  8
0
100
AcDbBlockBegin
  2
*MODEL_SPACE
 70
         0
 10
0.0
 20
0.0
 30
0.0
  3
*MODEL_SPACE
  1

  0
ENDBLK
  5
E
100
AcDbEntity
  8
0
100
AcDbBlockEnd
  0
BLOCK
  5
F
100
AcDbEntity
 67
         1
  8
0
100
AcDbBlockBegin
  2
*PAPER_SPACE
 70
         0
 10
0.0
 20
0.0
 30
0.0
  3
*PAPER_SPACE
  1

  0
ENDBLK
  5
10
100
AcDbEntity
 67
         1
  8
0
100
AcDbBlockEnd
  0
ENDSEC
  0
SECTION
  2
ENTITIES
  0
LWPOLYLINE
  5
29
100
AcDbEntity
  8
ASSEMBLY_OUTLINES_TOP
100
AcDbPolyline
 90
        3
 70
         1
 10
137.3
 20
-6.111479
 10
136.16
 20
-6.681479
 10
136.16
 20
-5.541479
  0
HATCH
  5
2A
100
AcDbEntity
  8
ASSEMBLY_OUTLINES_TOP
100
AcDbHatch
 10
0.0
 20
0.0
 30
0.0
210
0.0
220
0.0
230
1.0
  2
SOLID
 70
         1
 71
         1
 91
        1
 92
        2
 72
         0
 73
         1
 93
        3
 10
137.30000000000001
 20
-6.1114790000000001
 10
136.16
 20
-6.6814790000000004
 10
136.16
 20
-5.5414789999999998
 97
        1
330
29
 75
         0
 76
         1
 98
        1
 10
0.0
 20
0.0
  0
LWPOLYLINE
  5
2B
100
AcDbEntity
  8
ASSEMBLY_OUTLINES_TOP
100
AcDbPolyline
 90
        3
 70
         1
 10
69.8
 20
-6.111479
 10
70.94
 20
-5.541479
 10
70.94
 20
-6.681479
  0
HATCH
  5
2C
100
AcDbEntity
  8
ASSEMBLY_OUTLINES_TOP
100
AcDbHatch
 10
0.0
 20
0.0
 30
0.0
210
0.0
220
0.0
230
1.0
  2
SOLID
 70
         1
 71
         1
 91
        1
 92
        2
 72
         0
 73
         1
 93
        3
 10
69.799999999999997
 20
-6.1114790000000001
 10
70.939999999999998
 20
-5.5414789999999998
 10
70.939999999999998
 20
-6.6814790000000004
 97
        1
330
2B
 75
         0
 76
         1
 98
        1
 10
0.0
 20
0.0
  0
LWPOLYLINE
  5
2D
100
AcDbEntity
  8
ASSEMBLY_OUTLINES_TOP
100
AcDbPolyline
 90
        2
 70
         0
 43
0.2
 10
107.441708
 20
-6.111479
 10
136.73
 20
-6.111479
  0
LWPOLYLINE
  5
2E
100
AcDbEntity
  8
ASSEMBLY_OUTLINES_TOP
100
AcDbPolyline
 90
        2
 70
         0
 43
0.2
 10
70.37
 20
-6.111479
 10
99.658293
 20
-6.111479
  0
LWPOLYLINE
  5
2F
100
AcDbEntity
  8
ASSEMBLY_OUTLINES_TOP
100
AcDbPolyline
 90
        2
 70
         0
 43
0.2
 10
137.3
 20
2.19
 10
137.3
 20
-6.621479
  0
LWPOLYLINE
  5
30
100
AcDbEntity
  8
ASSEMBLY_OUTLINES_TOP
100
AcDbPolyline
 90
        2
 70
         0
 43
0.2
 10
69.8
 20
2.19
 10
69.8
 20
-6.621479
  0
LWPOLYLINE
  5
31
100
AcDbEntity
  8
ASSEMBLY_OUTLINES_TOP
100
AcDbPolyline
 90
        3
 70
         1
 10
61.4
 20
2.7
 10
60.83
 20
3.84
 10
61.97
 20
3.84
  0
HATCH
  5
32
100
AcDbEntity
  8
ASSEMBLY_OUTLINES_TOP
100
AcDbHatch
 10
0.0
 20
0.0
 30
0.0
210
0.0
220
0.0
230
1.0
  2
SOLID
 70
         1
 71
         1
 91
        1
 92
        2
 72
         0
 73
         1
 93
        3
 10
61.399999999999999
 20
2.7000000000000002
 10
60.829999999999998
 20
3.8399999999999999
 10
61.969999999999999
 20
3.8399999999999999
 97
        1
330
31
 75
         0
 76
         1
 98
        1
 10
0.0
 20
0.0
  0
LWPOLYLINE
  5
33
100
AcDbEntity
  8
ASSEMBLY_OUTLINES_TOP
100
AcDbPolyline
 90
        3
 70
         1
 10
61.4
 20
107.2
 10
61.969999
 20
106.06
 10
60.83
 20
106.06
  0
HATCH
  5
34
100
AcDbEntity
  8
ASSEMBLY_OUTLINES_TOP
100
AcDbHatch
 10
0.0
 20
0.0
 30
0.0
210
0.0
220
0.0
230
1.0
  2
SOLID
 70
         1
 71
         1
 91
        1
 92
        2
 72
         0
 73
         1
 93
        3
 10
61.399999999999999
 20
107.2
 10
61.969999000000001
 20
106.06
 10
60.829999999999998
 20
106.06
 97
        1
330
33
 75
         0
 76
         1
 98
        1
 10
0.0
 20
0.0
  0
LWPOLYLINE
  5
35
100
AcDbEntity
  8
ASSEMBLY_OUTLINES_TOP
100
AcDbPolyline
 90
        2
 70
         0
 43
0.2
 10
61.4
 20
50.45155
 10
61.4
 20
3.27
  0
LWPOLYLINE
  5
36
100
AcDbEntity
  8
ASSEMBLY_OUTLINES_TOP
100
AcDbPolyline
 90
        2
 70
         0
 43
0.2
 10
61.4
 20
106.63
 10
61.4
 20
59.448449
  0
LWPOLYLINE
  5
37
100
AcDbEntity
  8
ASSEMBLY_OUTLINES_TOP
100
AcDbPolyline
 90
        2
 70
         0
 43
0.2
 10
69.29
 20
2.7
 10
60.89
 20
2.7
  0
LWPOLYLINE
  5
38
100
AcDbEntity
  8
ASSEMBLY_OUTLINES_TOP
100
AcDbPolyline
 90
        2
 70
         0
 43
0.2
 10
69.29
 20
107.2
 10
60.89
 20
107.2
  0
TEXT
  5
3A
100
AcDbEntity
  8
ASSEMBLY_OUTLINES_TOP
100
AcDbText
 10
100.06385
 20
-6.746478
 30
0.0
 40
1.27
  1
67.5mm
  7
VERIBEST_GERBER_0
 72
         1
 11
103.55
 21
-6.111478
 31
0.0
100
AcDbText
 73
         2
  0
TEXT
  5
3B
100
AcDbEntity
  8
ASSEMBLY_OUTLINES_TOP
100
AcDbText
 10
62.035
 20
50.886001
 30
0.0
 40
1.27
  1
104.5mm
 50
90.0
  7
VERIBEST_GERBER_0
 72
         1
 11
61.4
 21
54.950001
 31
0.0
100
AcDbText
 73
         2
  0
LWPOLYLINE
  5
3C
100
AcDbEntity
  8
ASSEMBLY_OUTLINES_TOP
100
AcDbPolyline
 90
        4
 70
         1
 43
0.1
 10
89.37
 20
25.95
 10
89.37
 20
48.25
 10
99.63
 20
48.25
 10
99.63
 20
25.95
  0
LWPOLYLINE
  5
3D
100
AcDbEntity
  8
ASSEMBLY_OUTLINES_TOP
100
AcDbPolyline
 90
        2
 70
         1
 43
0.1
 10
98.13
 20
26.95
 42
-1.0
 10
99.13
 20
26.95
 42
-1.0
  0
LWPOLYLINE
  5
3E
100
AcDbEntity
  8
ASSEMBLY_OUTLINES_TOP
100
AcDbPolyline
 90
        4
 70
         1
 43
0.1
 10
97.65
 20
82.4
 10
97.65
 20
85.2
 10
98.95
 20
85.2
 10
98.95
 20
82.4
  0
LWPOLYLINE
  5
3F
100
AcDbEntity
  8
ASSEMBLY_OUTLINES_TOP
100
AcDbPolyline
 90
        4
 70
         1
 43
0.1
 10
106.95
 20
90.25
 10
106.95
 20
93.15
 10
108.25
 20
93.15
 10
108.25
 20
90.25
  0
LWPOLYLINE
  5
40
100
AcDbEntity
  8
ASSEMBLY_OUTLINES_TOP
100
AcDbPolyline
 90
        4
 70
         1
 43
0.1
 10
116.55
 20
59.55
 10
116.55
 20
62.45
 10
117.85
 20
62.45
 10
117.85
 20
59.55
  0
LWPOLYLINE
  5
41
100
AcDbEntity
  8
ASSEMBLY_OUTLINES_TOP
100
AcDbPolyline
 90
        4
 70
         1
 43
0.1
 10
107.3
 20
102.55
 10
107.3
 20
105.85
 10
109.1
 20
105.85
 10
109.1
 20
102.55
  0
LWPOLYLINE
  5
42
100
AcDbEntity
  8
ASSEMBLY_OUTLINES_TOP
100
AcDbPolyline
 90
        4
 70
         1
 43
0.1
 10
108.65
 20
90.3
 10
108.65
 20
93.1
 10
109.95
 20
93.1
 10
109.95
 20
90.3
  0
LWPOLYLINE
  5
43
100
AcDbEntity
  8
ASSEMBLY_OUTLINES_TOP
100
AcDbPolyline
 90
        4
 70
         1
 43
0.1
 10
117.3
 20
100.2
 10
117.3
 20
105.8
 10
121.1
 20
105.8
 10
121.1
 20
100.2
  0
LWPOLYLINE
  5
44
100
AcDbEntity
  8
ASSEMBLY_OUTLINES_TOP
100
AcDbPolyline
 90
        2
 70
         0
 43
0.1
 10
121.1
 20
100.3
 10
117.3
 20
100.3
  0
LWPOLYLINE
  5
45
100
AcDbEntity
  8
ASSEMBLY_OUTLINES_TOP
100
AcDbPolyline
 90
        2
 70
         0
 43
0.1
 10
121.1
 20
100.4
 10
117.3
 20
100.4
  0
LWPOLYLINE
  5
46
100
AcDbEntity
  8
ASSEMBLY_OUTLINES_TOP
100
AcDbPolyline
 90
        2
 70
         0
 43
0.1
 10
121.1
 20
100.5
 10
117.3
 20
100.5
  0
LWPOLYLINE
  5
47
100
AcDbEntity
  8
ASSEMBLY_OUTLINES_TOP
100
AcDbPolyline
 90
        2
 70
         0
 43
0.1
 10
121.1
 20
100.6
 10
117.3
 20
100.6
  0
LWPOLYLINE
  5
48
100
AcDbEntity
  8
ASSEMBLY_OUTLINES_TOP
100
AcDbPolyline
 90
        2
 70
         0
 43
0.1
 10
121.1
 20
100.7
 10
117.3
 20
100.7
  0
LWPOLYLINE
  5
49
100
AcDbEntity
  8
ASSEMBLY_OUTLINES_TOP
100
AcDbPolyline
 90
        2
 70
         0
 43
0.1
 10
121.1
 20
100.8
 10
117.3
 20
100.8
  0
LWPOLYLINE
  5
4A
100
AcDbEntity
  8
ASSEMBLY_OUTLINES_TOP
100
AcDbPolyline
 90
        2
 70
         0
 43
0.1
 10
121.1
 20
100.9
 10
117.3
 20
100.9
  0
LWPOLYLINE
  5
4B
100
AcDbEntity
  8
ASSEMBLY_OUTLINES_TOP
100
AcDbPolyline
 90
        2
 70
         0
 43
0.1
 10
121.1
 20
101.0
 10
117.3
 20
101.0
  0
LWPOLYLINE
  5
4C
100
AcDbEntity
  8
ASSEMBLY_OUTLINES_TOP
100
AcDbPolyline
 90
        4
 70
         1
 43
0.1
 10
97.65
 20
51.0
 10
97.65
 20
53.8
 10
98.95
 20
53.8
 10
98.95
 20
51.0
  0
LWPOLYLINE
  5
4D
100
AcDbEntity
  8
ASSEMBLY_OUTLINES_TOP
100
AcDbPolyline
 90
        4
 70
         1
 43
0.1
 10
70.5
 20
7.85
 10
70.5
 20
9.15
 10
73.3
 20
9.15
 10
73.3
 20
7.85
  0
LWPOLYLINE
  5
4E
100
AcDbEntity
  8
ASSEMBLY_OUTLINES_TOP
100
AcDbPolyline
 90
        4
 70
         1
 10
85.09
 20
9.13
 10
85.09
 20
11.67
 10
90.17
 20
11.67
 10
90.17
 20
9.13
  0
LWPOLYLINE
  5
4F
100
AcDbEntity
  8
ASSEMBLY_OUTLINES_TOP
100
AcDbPolyline
 90
        4
 70
         1
 43
0.1
 10
80.05
 20
58.3
 10
80.05
 20
61.1
 10
81.35
 20
61.1
 10
81.35
 20
58.3
  0
LWPOLYLINE
  5
50
100
AcDbEntity
  8
ASSEMBLY_OUTLINES_TOP
100
AcDbPolyline
 90
        4
 70
         1
 43
0.1
 10
97.35
 20
21.15
 10
97.35
 20
24.05
 10
98.65
 20
24.05
 10
98.65
 20
21.15
  0
LWPOLYLINE
  5
51
100
AcDbEntity
  8
ASSEMBLY_OUTLINES_TOP
100
AcDbPolyline
 90
        4
 70
         1
 43
0.1
 10
74.5
 20
15.75
 10
74.5
 20
17.05
 10
77.3
 20
17.05
 10
77.3
 20
15.75
  0
LWPOLYLINE
  5
52
100
AcDbEntity
  8
ASSEMBLY_OUTLINES_TOP
100
AcDbPolyline
 90
        4
 70
         1
 43
0.1
 10
78.2
 20
71.05
 10
78.2
 20
72.35
 10
81.0
 20
72.35
 10
81.0
 20
71.05
  0
LWPOLYLINE
  5
53
100
AcDbEntity
  8
ASSEMBLY_OUTLINES_TOP
100
AcDbPolyline
 90
        4
 70
         1
 43
0.1
 10
119.95
 20
59.55
 10
119.95
 20
62.45
 10
121.25
 20
62.45
 10
121.25
 20
59.55
  0
LWPOLYLINE
  5
54
100
AcDbEntity
  8
ASSEMBLY_OUTLINES_TOP
100
AcDbPolyline
 90
        4
 70
         1
 43
0.1
 10
70.95
 20
58.15
 10
70.95
 20
59.45
 10
73.85
 20
59.45
 10
73.85
 20
58.15
  0
LWPOLYLINE
  5
55
100
AcDbEntity
  8
ASSEMBLY_OUTLINES_TOP
100
AcDbPolyline
 90
        4
 70
         1
 43
0.1
 10
79.35
 20
93.65
 10
79.35
 20
94.95
 10
82.25
 20
94.95
 10
82.25
 20
93.65
  0
LWPOLYLINE
  5
56
100
AcDbEntity
  8
ASSEMBLY_OUTLINES_TOP
100
AcDbPolyline
 90
        4
 70
         1
 43
0.1
 10
99.45
 20
20.4
 10
99.45
 20
23.2
 10
100.75
 20
23.2
 10
100.75
 20
20.4
  0
LWPOLYLINE
  5
57
100
AcDbEntity
  8
ASSEMBLY_OUTLINES_TOP
100
AcDbPolyline
 90
        4
 70
         1
 43
0.1
 10
70.0
 20
3.4
 10
70.0
 20
7.4
 10
110.0
 20
7.4
 10
110.0
 20
3.4
  0
LWPOLYLINE
  5
58
100
AcDbEntity
  8
ASSEMBLY_OUTLINES_TOP
100
AcDbPolyline
 90
        4
 70
         1
 10
124.34
 20
95.5
 10
124.34
 20
104.5
 10
138.84
 20
104.5
 10
138.84
 20
95.5
  0
LWPOLYLINE
  5
59
100
AcDbEntity
  8
ASSEMBLY_OUTLINES_TOP
100
AcDbPolyline
 90
        4
 70
         1
 43
0.1
 10
121.45
 20
59.55
 10
121.45
 20
62.45
 10
122.75
 20
62.45
 10
122.75
 20
59.55
  0
LWPOLYLINE
  5
5A
100
AcDbEntity
  8
ASSEMBLY_OUTLINES_TOP
100
AcDbPolyline
 90
        4
 70
         1
 43
0.1
 10
78.2
 20
65.85
 10
78.2
 20
67.15
 10
81.0
 20
67.15
 10
81.0
 20
65.85
  0
LWPOLYLINE
  5
5B
100
AcDbEntity
  8
ASSEMBLY_OUTLINES_TOP
100
AcDbPolyline
 90
        4
 70
         1
 43
0.1
 10
95.45
 20
21.15
 10
95.45
 20
24.05
 10
96.75
 20
24.05
 10
96.75
 20
21.15
  0
LWPOLYLINE
  5
5C
100
AcDbEntity
  8
ASSEMBLY_OUTLINES_TOP
100
AcDbPolyline
 90
        4
 70
         1
 43
0.1
 10
123.75
 20
77.25
 10
123.75
 20
80.15
 10
125.05
 20
80.15
 10
125.05
 20
77.25
  0
LWPOLYLINE
  5
5D
100
AcDbEntity
  8
ASSEMBLY_OUTLINES_TOP
100
AcDbPolyline
 90
        4
 70
         1
 43
0.1
 10
70.95
 20
59.95
 10
70.95
 20
61.25
 10
73.85
 20
61.25
 10
73.85
 20
59.95
  0
LWPOLYLINE
  5
5E
100
AcDbEntity
  8
ASSEMBLY_OUTLINES_TOP
100
AcDbPolyline
 90
        4
 70
         1
 43
0.1
 10
109.55
 20
67.5
 10
109.55
 20
70.3
 10
110.85
 20
70.3
 10
110.85
 20
67.5
  0
LWPOLYLINE
  5
5F
100
AcDbEntity
  8
ASSEMBLY_OUTLINES_TOP
100
AcDbPolyline
 90
        4
 70
         1
 10
78.73
 20
95.69
 10
78.73
 20
103.19
 10
81.27
 20
103.19
 10
81.27
 20
95.69
  0
LWPOLYLINE
  5
60
100
AcDbEntity
  8
ASSEMBLY_OUTLINES_TOP
100
AcDbPolyline
 90
        4
 70
         1
 43
0.1
 10
104.25
 20
82.4
 10
104.25
 20
85.2
 10
105.55
 20
85.2
 10
105.55
 20
82.4
  0
LWPOLYLINE
  5
61
100
AcDbEntity
  8
ASSEMBLY_OUTLINES_TOP
100
AcDbPolyline
 90
        4
 70
         1
 43
0.1
 10
118.4
 20
63.0
 10
118.4
 20
73.0
 10
122.4
 20
73.0
 10
122.4
 20
63.0
  0
LWPOLYLINE
  5
62
100
AcDbEntity
  8
ASSEMBLY_OUTLINES_TOP
100
AcDbPolyline
 90
        2
 70
         1
 43
0.1
 10
118.9
 20
72.0
 42
-1.0
 10
119.9
 20
72.0
 42
-1.0
  0
LWPOLYLINE
  5
63
100
AcDbEntity
  8
ASSEMBLY_OUTLINES_TOP
100
AcDbPolyline
 90
        4
 70
         1
 43
0.1
 10
78.2
 20
64.55
 10
78.2
 20
65.85
 10
81.0
 20
65.85
 10
81.0
 20
64.55
  0
LWPOLYLINE
  5
64
100
AcDbEntity
  8
ASSEMBLY_OUTLINES_TOP
100
AcDbPolyline
 90
        4
 70
         1
 43
0.1
 10
75.1
 20
76.15
 10
75.1
 20
77.45
 10
77.9
 20
77.45
 10
77.9
 20
76.15
  0
LWPOLYLINE
  5
65
100
AcDbEntity
  8
ASSEMBLY_OUTLINES_TOP
100
AcDbPolyline
 90
        4
 70
         1
 43
0.1
 10
113.95
 20
36.05
 10
113.95
 20
38.95
 10
115.25
 20
38.95
 10
115.25
 20
36.05
  0
LWPOLYLINE
  5
66
100
AcDbEntity
  8
ASSEMBLY_OUTLINES_TOP
100
AcDbPolyline
 90
        4
 70
         1
 43
0.1
 10
109.75
 20
81.05
 10
109.75
 20
84.15
 10
111.45
 20
84.15
 10
111.45
 20
81.05
  0
LWPOLYLINE
  5
67
100
AcDbEntity
  8
ASSEMBLY_OUTLINES_TOP
100
AcDbPolyline
 90
        2
 70
         0
 43
0.1
 10
109.75
 20
84.05
 10
111.45
 20
84.05
  0
LWPOLYLINE
  5
68
100
AcDbEntity
  8
ASSEMBLY_OUTLINES_TOP
100
AcDbPolyline
 90
        2
 70
         0
 43
0.1
 10
109.75
 20
83.95
 10
111.45
 20
83.95
  0
LWPOLYLINE
  5
69
100
AcDbEntity
  8
ASSEMBLY_OUTLINES_TOP
100
AcDbPolyline
 90
        2
 70
         0
 43
0.1
 10
109.75
 20
83.85
 10
111.45
 20
83.85
  0
LWPOLYLINE
  5
6A
100
AcDbEntity
  8
ASSEMBLY_OUTLINES_TOP
100
AcDbPolyline
 90
        2
 70
         0
 43
0.1
 10
109.75
 20
83.75
 10
111.45
 20
83.75
  0
LWPOLYLINE
  5
6B
100
AcDbEntity
  8
ASSEMBLY_OUTLINES_TOP
100
AcDbPolyline
 90
        2
 70
         0
 43
0.1
 10
109.75
 20
83.65
 10
111.45
 20
83.65
  0
LWPOLYLINE
  5
6C
100
AcDbEntity
  8
ASSEMBLY_OUTLINES_TOP
100
AcDbPolyline
 90
        2
 70
         0
 43
0.1
 10
109.75
 20
83.55
 10
111.45
 20
83.55
  0
LWPOLYLINE
  5
6D
100
AcDbEntity
  8
ASSEMBLY_OUTLINES_TOP
100
AcDbPolyline
 90
        4
 70
         1
 43
0.1
 10
118.25
 20
59.55
 10
118.25
 20
62.45
 10
119.55
 20
62.45
 10
119.55
 20
59.55
  0
LWPOLYLINE
  5
6E
100
AcDbEntity
  8
ASSEMBLY_OUTLINES_TOP
100
AcDbPolyline
 90
        4
 70
         1
 43
0.1
 10
105.8
 20
93.7
 10
105.8
 20
96.7
 10
107.2
 20
96.7
 10
107.2
 20
93.7
  0
LWPOLYLINE
  5
6F
100
AcDbEntity
  8
ASSEMBLY_OUTLINES_TOP
100
AcDbPolyline
 90
        2
 70
         0
 43
0.1
 10
105.8
 20
96.6
 10
105.9
 20
96.7
  0
LWPOLYLINE
  5
70
100
AcDbEntity
  8
ASSEMBLY_OUTLINES_TOP
100
AcDbPolyline
 90
        2
 70
         0
 43
0.1
 10
105.8
 20
96.5
 10
106.0
 20
96.7
  0
LWPOLYLINE
  5
71
100
AcDbEntity
  8
ASSEMBLY_OUTLINES_TOP
100
AcDbPolyline
 90
        2
 70
         0
 43
0.1
 10
105.8
 20
96.4
 10
106.1
 20
96.7
  0
LWPOLYLINE
  5
72
100
AcDbEntity
  8
ASSEMBLY_OUTLINES_TOP
100
AcDbPolyline
 90
        2
 70
         0
 43
0.1
 10
105.8
 20
96.3
 10
106.2
 20
96.7
  0
LWPOLYLINE
  5
73
100
AcDbEntity
  8
ASSEMBLY_OUTLINES_TOP
100
AcDbPolyline
 90
        2
 70
         0
 43
0.1
 10
105.8
 20
96.2
 10
106.3
 20
96.7
  0
LWPOLYLINE
  5
74
100
AcDbEntity
  8
ASSEMBLY_OUTLINES_TOP
100
AcDbPolyline
 90
        2
 70
         0
 43
0.1
 10
105.8
 20
96.1
 10
106.4
 20
96.7
  0
LWPOLYLINE
  5
75
100
AcDbEntity
  8
ASSEMBLY_OUTLINES_TOP
100
AcDbPolyline
 90
        4
 70
         1
 10
113.45
 20
4.4
 10
113.45
 20
20.4
 10
138.85
 20
20.4
 10
138.85
 20
4.4
  0
LWPOLYLINE
  5
76
100
AcDbEntity
  8
ASSEMBLY_OUTLINES_TOP
100
AcDbPolyline
 90
        4
 70
         1
 43
0.1
 10
85.0
 20
15.8
 10
85.0
 20
19.8
 10
90.0
 20
19.8
 10
90.0
 20
15.8
  0
LWPOLYLINE
  5
77
100
AcDbEntity
  8
ASSEMBLY_OUTLINES_TOP
100
AcDbPolyline
 90
        2
 70
         1
 43
0.1
 10
88.5
 20
18.8
 42
-1.0
 10
89.5
 20
18.8
 42
-1.0
  0
LWPOLYLINE
  5
78
100
AcDbEntity
  8
ASSEMBLY_OUTLINES_TOP
100
AcDbPolyline
 90
        4
 70
         1
 43
0.1
 10
121.25
 20
84.7
 10
121.25
 20
87.5
 10
122.55
 20
87.5
 10
122.55
 20
84.7
  0
LWPOLYLINE
  5
79
100
AcDbEntity
  8
ASSEMBLY_OUTLINES_TOP
100
AcDbPolyline
 90
        4
 70
         1
 43
0.1
 10
102.45
 20
51.0
 10
102.45
 20
53.8
 10
103.75
 20
53.8
 10
103.75
 20
51.0
  0
LWPOLYLINE
  5
7A
100
AcDbEntity
  8
ASSEMBLY_OUTLINES_TOP
100
AcDbPolyline
 90
        4
 70
         1
 43
0.1
 10
100.95
 20
16.3
 10
100.95
 20
19.1
 10
102.25
 20
19.1
 10
102.25
 20
16.3
  0
LWPOLYLINE
  5
7B
100
AcDbEntity
  8
ASSEMBLY_OUTLINES_TOP
100
AcDbPolyline
 90
        4
 70
         1
 43
0.1
 10
109.65
 20
15.75
 10
109.65
 20
17.05
 10
112.55
 20
17.05
 10
112.55
 20
15.75
  0
LWPOLYLINE
  5
7C
100
AcDbEntity
  8
ASSEMBLY_OUTLINES_TOP
100
AcDbPolyline
 90
        4
 70
         1
 43
0.1
 10
109.55
 20
55.0
 10
109.55
 20
57.8
 10
110.85
 20
57.8
 10
110.85
 20
55.0
  0
LWPOLYLINE
  5
7D
100
AcDbEntity
  8
ASSEMBLY_OUTLINES_TOP
100
AcDbPolyline
 90
        4
 70
         1
 43
0.1
 10
105.35
 20
21.45
 10
105.35
 20
24.35
 10
106.65
 20
24.35
 10
106.65
 20
21.45
  0
LWPOLYLINE
  5
7E
100
AcDbEntity
  8
ASSEMBLY_OUTLINES_TOP
100
AcDbPolyline
 90
        4
 70
         1
 43
0.1
 10
126.7
 20
69.1
 10
126.7
 20
70.3
 10
127.5
 20
70.3
 10
127.5
 20
69.1
  0
LWPOLYLINE
  5
7F
100
AcDbEntity
  8
ASSEMBLY_OUTLINES_TOP
100
AcDbPolyline
 90
        2
 70
         0
 43
0.1
 10
127.5
 20
69.1
 10
126.7
 20
69.1
  0
LWPOLYLINE
  5
80
100
AcDbEntity
  8
ASSEMBLY_OUTLINES_TOP
100
AcDbPolyline
 90
        2
 70
         0
 43
0.1
 10
127.5
 20
69.2
 10
126.7
 20
69.2
  0
LWPOLYLINE
  5
81
100
AcDbEntity
  8
ASSEMBLY_OUTLINES_TOP
100
AcDbPolyline
 90
        2
 70
         0
 43
0.1
 10
127.5
 20
69.3
 10
126.7
 20
69.3
  0
LWPOLYLINE
  5
82
100
AcDbEntity
  8
ASSEMBLY_OUTLINES_TOP
100
AcDbPolyline
 90
        2
 70
         0
 43
0.1
 10
127.5
 20
69.4
 10
126.7
 20
69.4
  0
LWPOLYLINE
  5
83
100
AcDbEntity
  8
ASSEMBLY_OUTLINES_TOP
100
AcDbPolyline
 90
        2
 70
         0
 43
0.1
 10
127.5
 20
69.5
 10
126.7
 20
69.5
  0
LWPOLYLINE
  5
84
100
AcDbEntity
  8
ASSEMBLY_OUTLINES_TOP
100
AcDbPolyline
 90
        2
 70
         0
 43
0.1
 10
127.5
 20
69.6
 10
126.7
 20
69.6
  0
LWPOLYLINE
  5
85
100
AcDbEntity
  8
ASSEMBLY_OUTLINES_TOP
100
AcDbPolyline
 90
        4
 70
         1
 43
0.1
 10
111.95
 20
81.15
 10
111.95
 20
84.05
 10
113.25
 20
84.05
 10
113.25
 20
81.15
  0
LWPOLYLINE
  5
86
100
AcDbEntity
  8
ASSEMBLY_OUTLINES_TOP
100
AcDbPolyline
 90
        4
 70
         1
 43
0.1
 10
108.1
 20
9.35
 10
108.1
 20
10.65
 10
110.9
 20
10.65
 10
110.9
 20
9.35
  0
CIRCLE
  5
87
100
AcDbEntity
  8
ASSEMBLY_OUTLINES_TOP
100
AcDbCircle
 10
78.8
 20
76.100002
 30
0.0
 40
2.0
  0
LWPOLYLINE
  5
88
100
AcDbEntity
  8
ASSEMBLY_OUTLINES_TOP
100
AcDbPolyline
 90
        4
 70
         1
 43
0.1
 10
86.15
 20
30.5
 10
86.15
 20
33.3
 10
87.45
 20
33.3
 10
87.45
 20
30.5
  0
LWPOLYLINE
  5
89
100
AcDbEntity
  8
ASSEMBLY_OUTLINES_TOP
100
AcDbPolyline
 90
        4
 70
         1
 10
137.35
 20
28.5
 10
137.35
 20
44.5
 10
143.25
 20
44.5
 10
143.25
 20
28.5
  0
LWPOLYLINE
  5
8A
100
AcDbEntity
  8
ASSEMBLY_OUTLINES_TOP
100
AcDbPolyline
 90
        4
 70
         1
 10
124.95
 20
21.1
 10
124.95
 20
51.9
 10
137.35
 20
51.9
 10
137.35
 20
21.1
  0
LWPOLYLINE
  5
8B
100
AcDbEntity
  8
ASSEMBLY_OUTLINES_TOP
100
AcDbPolyline
 90
        4
 70
         1
 43
0.1
 10
111.35
 20
20.15
 10
111.35
 20
23.05
 10
112.65
 20
23.05
 10
112.65
 20
20.15
  0
LWPOLYLINE
  5
8C
100
AcDbEntity
  8
ASSEMBLY_OUTLINES_TOP
100
AcDbPolyline
 90
        4
 70
         1
 10
125.83
 20
71.33
 10
125.83
 20
76.41
 10
128.37
 20
76.41
 10
128.37
 20
71.33
  0
LWPOLYLINE
  5
8D
100
AcDbEntity
  8
ASSEMBLY_OUTLINES_TOP
100
AcDbPolyline
 90
        4
 70
         1
 43
0.1
 10
109.05
 20
7.85
 10
109.05
 20
9.15
 10
111.95
 20
9.15
 10
111.95
 20
7.85
  0
LWPOLYLINE
  5
8E
100
AcDbEntity
  8
ASSEMBLY_OUTLINES_TOP
100
AcDbPolyline
 90
        4
 70
         1
 43
0.1
 10
125.95
 20
77.35
 10
125.95
 20
80.25
 10
127.25
 20
80.25
 10
127.25
 20
77.35
  0
LWPOLYLINE
  5
8F
100
AcDbEntity
  8
ASSEMBLY_OUTLINES_TOP
100
AcDbPolyline
 90
        4
 70
         1
 43
0.1
 10
108.2
 20
22.55
 10
108.2
 20
23.85
 10
111.0
 20
23.85
 10
111.0
 20
22.55
  0
LWPOLYLINE
  5
90
100
AcDbEntity
  8
ASSEMBLY_OUTLINES_TOP
100
AcDbPolyline
 90
        4
 70
         1
 43
0.1
 10
101.55
 20
32.8
 10
101.55
 20
35.6
 10
102.85
 20
35.6
 10
102.85
 20
32.8
  0
LWPOLYLINE
  5
91
100
AcDbEntity
  8
ASSEMBLY_OUTLINES_TOP
100
AcDbPolyline
 90
        4
 70
         1
 43
0.1
 10
83.5
 20
56.0
 10
83.5
 20
80.0
 10
107.5
 20
80.0
 10
107.5
 20
56.0
  0
LWPOLYLINE
  5
92
100
AcDbEntity
  8
ASSEMBLY_OUTLINES_TOP
100
AcDbPolyline
 90
        2
 70
         1
 43
0.1
 10
84.05
 20
78.95
 42
-1.0
 10
85.05
 20
78.95
 42
-1.0
  0
LWPOLYLINE
  5
93
100
AcDbEntity
  8
ASSEMBLY_OUTLINES_TOP
100
AcDbPolyline
 90
        4
 70
         1
 10
124.84
 20
53.16
 10
124.84
 20
66.36
 10
138.84
 20
66.36
 10
138.84
 20
53.16
  0
LWPOLYLINE
  5
94
100
AcDbEntity
  8
ASSEMBLY_OUTLINES_TOP
100
AcDbPolyline
 90
        4
 70
         1
 10
106.75
 20
29.3
 10
106.75
 20
34.3
 10
113.05
 20
34.3
 10
113.05
 20
29.3
  0
LWPOLYLINE
  5
95
100
AcDbEntity
  8
ASSEMBLY_OUTLINES_TOP
100
AcDbPolyline
 90
        4
 70
         1
 43
0.1
 10
100.95
 20
13.15
 10
100.95
 20
16.05
 10
102.25
 20
16.05
 10
102.25
 20
13.15
  0
LWPOLYLINE
  5
96
100
AcDbEntity
  8
ASSEMBLY_OUTLINES_TOP
100
AcDbPolyline
 90
        4
 70
         1
 43
0.1
 10
75.1
 20
74.75
 10
75.1
 20
76.05
 10
77.9
 20
76.05
 10
77.9
 20
74.75
  0
LWPOLYLINE
  5
97
100
AcDbEntity
  8
ASSEMBLY_OUTLINES_TOP
100
AcDbPolyline
 90
        4
 70
         1
 43
0.1
 10
111.05
 20
10.95
 10
111.05
 20
13.85
 10
112.35
 20
13.85
 10
112.35
 20
10.95
  0
LWPOLYLINE
  5
98
100
AcDbEntity
  8
ASSEMBLY_OUTLINES_TOP
100
AcDbPolyline
 90
        4
 70
         1
 43
0.1
 10
117.6
 20
73.45
 10
117.6
 20
74.75
 10
120.4
 20
74.75
 10
120.4
 20
73.45
  0
LWPOLYLINE
  5
99
100
AcDbEntity
  8
ASSEMBLY_OUTLINES_TOP
100
AcDbPolyline
 90
        4
 70
         1
 43
0.1
 10
92.75
 20
51.0
 10
92.75
 20
53.8
 10
94.05
 20
53.8
 10
94.05
 20
51.0
  0
LWPOLYLINE
  5
9A
100
AcDbEntity
  8
ASSEMBLY_OUTLINES_TOP
100
AcDbPolyline
 90
        4
 70
         1
 43
0.1
 10
70.8
 20
56.35
 10
70.8
 20
57.65
 10
73.6
 20
57.65
 10
73.6
 20
56.35
  0
LWPOLYLINE
  5
9B
100
AcDbEntity
  8
ASSEMBLY_OUTLINES_TOP
100
AcDbPolyline
 90
        4
 70
         1
 43
0.1
 10
115.15
 20
69.7
 10
115.15
 20
72.5
 10
116.45
 20
72.5
 10
116.45
 20
69.7
  0
LWPOLYLINE
  5
9C
100
AcDbEntity
  8
ASSEMBLY_OUTLINES_TOP
100
AcDbPolyline
 90
        4
 70
         1
 10
115.92
 20
26.17
 10
115.92
 20
59.17
 10
124.62
 20
59.17
 10
124.62
 20
26.17
  0
LWPOLYLINE
  5
9D
100
AcDbEntity
  8
ASSEMBLY_OUTLINES_TOP
100
AcDbPolyline
 90
        4
 70
         1
 10
115.92
 20
39.6
 10
115.92
 20
46.1
 10
116.5
 20
46.1
 10
116.5
 20
39.6
  0
LWPOLYLINE
  5
9E
100
AcDbEntity
  8
ASSEMBLY_OUTLINES_TOP
100
AcDbPolyline
 90
        4
 70
         1
 43
0.1
 10
118.45
 20
91.45
 10
118.45
 20
92.75
 10
121.35
 20
92.75
 10
121.35
 20
91.45
  0
LWPOLYLINE
  5
9F
100
AcDbEntity
  8
ASSEMBLY_OUTLINES_TOP
100
AcDbPolyline
 90
        4
 70
         1
 43
0.1
 10
110.75
 20
4.1
 10
110.75
 20
6.9
 10
112.05
 20
6.9
 10
112.05
 20
4.1
  0
LWPOLYLINE
  5
A0
100
AcDbEntity
  8
ASSEMBLY_OUTLINES_TOP
100
AcDbPolyline
 90
        4
 70
         1
 43
0.1
 10
70.8
 20
61.85
 10
70.8
 20
63.15
 10
73.6
 20
63.15
 10
73.6
 20
61.85
  0
LWPOLYLINE
  5
A1
100
AcDbEntity
  8
ASSEMBLY_OUTLINES_TOP
100
AcDbPolyline
 90
        4
 70
         1
 43
0.1
 10
103.95
 20
13.15
 10
103.95
 20
16.05
 10
105.25
 20
16.05
 10
105.25
 20
13.15
  0
LWPOLYLINE
  5
A2
100
AcDbEntity
  8
ASSEMBLY_OUTLINES_TOP
100
AcDbPolyline
 90
        4
 70
         1
 43
0.1
 10
92.9
 20
13.75
 10
92.9
 20
15.05
 10
95.7
 20
15.05
 10
95.7
 20
13.75
  0
LWPOLYLINE
  5
A3
100
AcDbEntity
  8
ASSEMBLY_OUTLINES_TOP
100
AcDbPolyline
 90
        4
 70
         1
 43
0.1
 10
85.55
 20
12.05
 10
85.55
 20
13.35
 10
88.45
 20
13.35
 10
88.45
 20
12.05
  0
LWPOLYLINE
  5
A4
100
AcDbEntity
  8
ASSEMBLY_OUTLINES_TOP
100
AcDbPolyline
 90
        4
 70
         1
 43
0.1
 10
101.55
 20
28.1
 10
101.55
 20
30.9
 10
102.85
 20
30.9
 10
102.85
 20
28.1
  0
LWPOLYLINE
  5
A5
100
AcDbEntity
  8
ASSEMBLY_OUTLINES_TOP
100
AcDbPolyline
 90
        4
 70
         1
 43
0.1
 10
115.15
 20
66.6
 10
115.15
 20
69.4
 10
116.45
 20
69.4
 10
116.45
 20
66.6
  0
LWPOLYLINE
  5
A6
100
AcDbEntity
  8
ASSEMBLY_OUTLINES_TOP
100
AcDbPolyline
 90
        4
 70
         1
 43
0.1
 10
124.25
 20
70.1
 10
124.25
 20
72.9
 10
125.55
 20
72.9
 10
125.55
 20
70.1
  0
LWPOLYLINE
  5
A7
100
AcDbEntity
  8
ASSEMBLY_OUTLINES_TOP
100
AcDbPolyline
 90
        4
 70
         1
 43
0.1
 10
118.45
 20
87.85
 10
118.45
 20
89.15
 10
121.35
 20
89.15
 10
121.35
 20
87.85
  0
LWPOLYLINE
  5
A8
100
AcDbEntity
  8
ASSEMBLY_OUTLINES_TOP
100
AcDbPolyline
 90
        4
 70
         1
 43
0.1
 10
122.6
 20
104.2
 10
122.6
 20
105.4
 10
123.4
 20
105.4
 10
123.4
 20
104.2
  0
LWPOLYLINE
  5
A9
100
AcDbEntity
  8
ASSEMBLY_OUTLINES_TOP
100
AcDbPolyline
 90
        2
 70
         0
 43
0.1
 10
123.4
 20
104.2
 10
122.6
 20
104.2
  0
LWPOLYLINE
  5
AA
100
AcDbEntity
  8
ASSEMBLY_OUTLINES_TOP
100
AcDbPolyline
 90
        2
 70
         0
 43
0.1
 10
123.4
 20
104.3
 10
122.6
 20
104.3
  0
LWPOLYLINE
  5
AB
100
AcDbEntity
  8
ASSEMBLY_OUTLINES_TOP
100
AcDbPolyline
 90
        2
 70
         0
 43
0.1
 10
123.4
 20
104.4
 10
122.6
 20
104.4
  0
LWPOLYLINE
  5
AC
100
AcDbEntity
  8
ASSEMBLY_OUTLINES_TOP
100
AcDbPolyline
 90
        2
 70
         0
 43
0.1
 10
123.4
 20
104.5
 10
122.6
 20
104.5
  0
LWPOLYLINE
  5
AD
100
AcDbEntity
  8
ASSEMBLY_OUTLINES_TOP
100
AcDbPolyline
 90
        2
 70
         0
 43
0.1
 10
123.4
 20
104.6
 10
122.6
 20
104.6
  0
LWPOLYLINE
  5
AE
100
AcDbEntity
  8
ASSEMBLY_OUTLINES_TOP
100
AcDbPolyline
 90
        2
 70
         0
 43
0.1
 10
123.4
 20
104.7
 10
122.6
 20
104.7
  0
LWPOLYLINE
  5
AF
100
AcDbEntity
  8
ASSEMBLY_OUTLINES_TOP
100
AcDbPolyline
 90
        4
 70
         1
 43
0.1
 10
118.75
 20
81.85
 10
118.75
 20
84.75
 10
120.05
 20
84.75
 10
120.05
 20
81.85
  0
LWPOLYLINE
  5
B0
100
AcDbEntity
  8
ASSEMBLY_OUTLINES_TOP
100
AcDbPolyline
 90
        4
 70
         1
 43
0.1
 10
123.15
 20
59.55
 10
123.15
 20
62.45
 10
124.45
 20
62.45
 10
124.45
 20
59.55
  0
LWPOLYLINE
  5
B1
100
AcDbEntity
  8
ASSEMBLY_OUTLINES_TOP
100
AcDbPolyline
 90
        4
 70
         1
 43
0.1
 10
113.95
 20
41.95
 10
113.95
 20
44.85
 10
115.25
 20
44.85
 10
115.25
 20
41.95
  0
LWPOLYLINE
  5
B2
100
AcDbEntity
  8
ASSEMBLY_OUTLINES_TOP
100
AcDbPolyline
 90
        4
 70
         1
 43
0.1
 10
86.15
 20
35.0
 10
86.15
 20
37.8
 10
87.45
 20
37.8
 10
87.45
 20
35.0
  0
LWPOLYLINE
  5
B3
100
AcDbEntity
  8
ASSEMBLY_OUTLINES_TOP
100
AcDbPolyline
 90
        4
 70
         1
 43
0.1
 10
115.55
 20
24.25
 10
115.55
 20
25.55
 10
118.45
 20
25.55
 10
118.45
 20
24.25
  0
LWPOLYLINE
  5
B4
100
AcDbEntity
  8
ASSEMBLY_OUTLINES_TOP
100
AcDbPolyline
 90
        4
 70
         1
 43
0.1
 10
109.85
 20
19.35
 10
109.85
 20
22.25
 10
111.15
 20
22.25
 10
111.15
 20
19.35
  0
LWPOLYLINE
  5
B5
100
AcDbEntity
  8
ASSEMBLY_OUTLINES_TOP
100
AcDbPolyline
 90
        4
 70
         1
 43
0.1
 10
86.0
 20
21.55
 10
86.0
 20
22.85
 10
88.8
 20
22.85
 10
88.8
 20
21.55
  0
LWPOLYLINE
  5
B6
100
AcDbEntity
  8
ASSEMBLY_OUTLINES_TOP
100
AcDbPolyline
 90
        4
 70
         1
 43
0.1
 10
70.0
 20
63.7
 10
70.0
 20
103.7
 10
74.0
 20
103.7
 10
74.0
 20
63.7
  0
LWPOLYLINE
  5
B7
100
AcDbEntity
  8
ASSEMBLY_OUTLINES_TOP
100
AcDbPolyline
 90
        4
 70
         1
 43
0.1
 10
113.85
 20
27.15
 10
113.85
 20
30.05
 10
115.15
 20
30.05
 10
115.15
 20
27.15
  0
LWPOLYLINE
  5
B8
100
AcDbEntity
  8
ASSEMBLY_OUTLINES_TOP
100
AcDbPolyline
 90
        4
 70
         1
 43
0.1
 10
70.9
 20
104.45
 10
70.9
 20
105.75
 10
73.7
 20
105.75
 10
73.7
 20
104.45
  0
LWPOLYLINE
  5
B9
100
AcDbEntity
  8
ASSEMBLY_OUTLINES_TOP
100
AcDbPolyline
 90
        8
 70
         1
 10
137.8
 20
69.95
 10
136.8
 20
69.95
 10
136.8
 20
68.35
 10
128.8
 20
68.35
 10
128.8
 20
79.25
 10
136.8
 20
79.25
 10
136.8
 20
77.7
 10
137.8
 20
77.7
  0
LWPOLYLINE
  5
BA
100
AcDbEntity
  8
ASSEMBLY_OUTLINES_TOP
100
AcDbPolyline
 90
        4
 70
         1
 43
0.1
 10
70.0
 20
15.5
 10
70.0
 20
55.5
 10
74.0
 20
55.5
 10
74.0
 20
15.5
  0
LWPOLYLINE
  5
BB
100
AcDbEntity
  8
ASSEMBLY_OUTLINES_TOP
100
AcDbPolyline
 90
        4
 70
         1
 43
0.1
 10
113.95
 20
31.15
 10
113.95
 20
34.05
 10
115.25
 20
34.05
 10
115.25
 20
31.15
  0
LWPOLYLINE
  5
BC
100
AcDbEntity
  8
ASSEMBLY_OUTLINES_TOP
100
AcDbPolyline
 90
        4
 70
         1
 43
0.1
 10
120.45
 20
79.95
 10
120.45
 20
81.25
 10
123.35
 20
81.25
 10
123.35
 20
79.95
  0
LWPOLYLINE
  5
BD
100
AcDbEntity
  8
ASSEMBLY_OUTLINES_TOP
100
AcDbPolyline
 90
        4
 70
         1
 43
0.1
 10
88.85
 20
90.45
 10
88.85
 20
93.35
 10
90.15
 20
93.35
 10
90.15
 20
90.45
  0
LWPOLYLINE
  5
BE
100
AcDbEntity
  8
ASSEMBLY_OUTLINES_TOP
100
AcDbPolyline
 90
        4
 70
         1
 43
0.1
 10
118.45
 20
89.85
 10
118.45
 20
91.15
 10
121.35
 20
91.15
 10
121.35
 20
89.85
  0
LWPOLYLINE
  5
BF
100
AcDbEntity
  8
ASSEMBLY_OUTLINES_TOP
100
AcDbPolyline
 90
        4
 70
         1
 10
125.148995
 20
80.851663
 10
125.148995
 20
94.251663
 10
137.248995
 20
94.251663
 10
137.248995
 20
80.851663
  0
LWPOLYLINE
  5
C0
100
AcDbEntity
  8
ASSEMBLY_OUTLINES_TOP
100
AcDbPolyline
 90
        4
 70
         1
 10
137.248995
 20
81.551663
 10
137.248995
 20
92.551663
 10
144.248995
 20
92.551663
 10
144.248995
 20
81.551663
  0
LWPOLYLINE
  5
C1
100
AcDbEntity
  8
ASSEMBLY_OUTLINES_TOP
100
AcDbPolyline
 90
        4
 70
         1
 43
0.1
 10
90.35
 20
16.85
 10
90.35
 20
19.75
 10
91.65
 20
19.75
 10
91.65
 20
16.85
  0
LWPOLYLINE
  5
C2
100
AcDbEntity
  8
ASSEMBLY_OUTLINES_TOP
100
AcDbPolyline
 90
        4
 70
         1
 10
81.43
 20
95.69
 10
81.43
 20
103.19
 10
83.97
 20
103.19
 10
83.97
 20
95.69
  0
LWPOLYLINE
  5
C3
100
AcDbEntity
  8
ASSEMBLY_OUTLINES_TOP
100
AcDbPolyline
 90
        4
 70
         1
 43
0.1
 10
132.65
 20
104.95
 10
132.65
 20
106.25
 10
135.55
 20
106.25
 10
135.55
 20
104.95
  0
LWPOLYLINE
  5
C4
100
AcDbEntity
  8
ASSEMBLY_OUTLINES_TOP
100
AcDbPolyline
 90
        4
 70
         1
 43
0.1
 10
111.55
 20
90.35
 10
111.55
 20
91.65
 10
114.45
 20
91.65
 10
114.45
 20
90.35
  0
LWPOLYLINE
  5
C5
100
AcDbEntity
  8
ASSEMBLY_OUTLINES_TOP
100
AcDbPolyline
 90
        4
 70
         1
 43
0.1
 10
115.15
 20
63.4
 10
115.15
 20
66.2
 10
116.45
 20
66.2
 10
116.45
 20
63.4
  0
LWPOLYLINE
  5
C6
100
AcDbEntity
  8
ASSEMBLY_OUTLINES_TOP
100
AcDbPolyline
 90
        4
 70
         1
 43
0.1
 10
95.7
 20
15.5
 10
95.7
 20
19.5
 10
99.7
 20
19.5
 10
99.7
 20
15.5
  0
LWPOLYLINE
  5
C7
100
AcDbEntity
  8
ASSEMBLY_OUTLINES_TOP
100
AcDbPolyline
 90
        2
 70
         0
 43
0.1
 10
99.6
 20
15.5
 10
99.7
 20
15.6
  0
LWPOLYLINE
  5
C8
100
AcDbEntity
  8
ASSEMBLY_OUTLINES_TOP
100
AcDbPolyline
 90
        2
 70
         0
 43
0.1
 10
99.5
 20
15.5
 10
99.7
 20
15.7
  0
LWPOLYLINE
  5
C9
100
AcDbEntity
  8
ASSEMBLY_OUTLINES_TOP
100
AcDbPolyline
 90
        2
 70
         0
 43
0.1
 10
99.4
 20
15.5
 10
99.7
 20
15.8
  0
LWPOLYLINE
  5
CA
100
AcDbEntity
  8
ASSEMBLY_OUTLINES_TOP
100
AcDbPolyline
 90
        2
 70
         0
 43
0.1
 10
99.3
 20
15.5
 10
99.7
 20
15.9
  0
LWPOLYLINE
  5
CB
100
AcDbEntity
  8
ASSEMBLY_OUTLINES_TOP
100
AcDbPolyline
 90
        2
 70
         0
 43
0.1
 10
99.2
 20
15.5
 10
99.7
 20
16.0
  0
LWPOLYLINE
  5
CC
100
AcDbEntity
  8
ASSEMBLY_OUTLINES_TOP
100
AcDbPolyline
 90
        2
 70
         0
 43
0.1
 10
99.1
 20
15.5
 10
99.7
 20
16.1
  0
LWPOLYLINE
  5
CD
100
AcDbEntity
  8
ASSEMBLY_OUTLINES_TOP
100
AcDbPolyline
 90
        2
 70
         0
 43
0.1
 10
99.0
 20
15.5
 10
99.7
 20
16.2
  0
LWPOLYLINE
  5
CE
100
AcDbEntity
  8
ASSEMBLY_OUTLINES_TOP
100
AcDbPolyline
 90
        2
 70
         0
 43
0.1
 10
98.9
 20
15.5
 10
99.7
 20
16.3
  0
LWPOLYLINE
  5
CF
100
AcDbEntity
  8
ASSEMBLY_OUTLINES_TOP
100
AcDbPolyline
 90
        2
 70
         0
 43
0.1
 10
98.8
 20
15.5
 10
99.7
 20
16.4
  0
LWPOLYLINE
  5
D0
100
AcDbEntity
  8
ASSEMBLY_OUTLINES_TOP
100
AcDbPolyline
 90
        2
 70
         0
 43
0.1
 10
98.7
 20
15.5
 10
99.7
 20
16.5
  0
LWPOLYLINE
  5
D1
100
AcDbEntity
  8
ASSEMBLY_OUTLINES_TOP
100
AcDbPolyline
 90
        4
 70
         1
 43
0.1
 10
109.4
 20
76.25
 10
109.4
 20
77.55
 10
112.2
 20
77.55
 10
112.2
 20
76.25
  0
LWPOLYLINE
  5
D2
100
AcDbEntity
  8
ASSEMBLY_OUTLINES_TOP
100
AcDbPolyline
 90
        4
 70
         1
 43
0.1
 10
112.45
 20
92.3
 10
112.45
 20
94.1
 10
115.75
 20
94.1
 10
115.75
 20
92.3
  0
LWPOLYLINE
  5
D3
100
AcDbEntity
  8
ASSEMBLY_OUTLINES_TOP
100
AcDbPolyline
 90
        4
 70
         1
 10
85.73
 20
91.73
 10
85.73
 20
96.81
 10
88.27
 20
96.81
 10
88.27
 20
91.73
  0
LWPOLYLINE
  5
D4
100
AcDbEntity
  8
ASSEMBLY_OUTLINES_TOP
100
AcDbPolyline
 90
        4
 70
         1
 43
0.1
 10
109.55
 20
11.75
 10
109.55
 20
14.65
 10
110.85
 20
14.65
 10
110.85
 20
11.75
  0
LWPOLYLINE
  5
D5
100
AcDbEntity
  8
ASSEMBLY_OUTLINES_TOP
100
AcDbPolyline
 90
        4
 70
         1
 43
0.1
 10
109.735
 20
98.198
 10
109.735
 20
104.418
 10
116.465
 20
104.418
 10
116.465
 20
98.198
  0
LWPOLYLINE
  5
D6
100
AcDbEntity
  8
ASSEMBLY_OUTLINES_TOP
100
AcDbPolyline
 90
        4
 70
         1
 43
0.1
 10
84.9
 20
52.45
 10
84.9
 20
53.75
 10
87.7
 20
53.75
 10
87.7
 20
52.45
  0
LWPOLYLINE
  5
D7
100
AcDbEntity
  8
ASSEMBLY_OUTLINES_TOP
100
AcDbPolyline
 90
        4
 70
         1
 43
0.1
 10
109.4
 20
74.65
 10
109.4
 20
75.95
 10
112.2
 20
75.95
 10
112.2
 20
74.65
  0
LWPOLYLINE
  5
D8
100
AcDbEntity
  8
ASSEMBLY_OUTLINES_TOP
100
AcDbPolyline
 90
        4
 70
         1
 43
0.1
 10
102.45
 20
13.15
 10
102.45
 20
16.05
 10
103.75
 20
16.05
 10
103.75
 20
13.15
  0
LWPOLYLINE
  5
D9
100
AcDbEntity
  8
ASSEMBLY_OUTLINES_TOP
100
AcDbPolyline
 90
        8
 70
         0
 10
101.7
 20
93.9
 42
-2.549150321
 10
101.7
 20
104.1
 10
101.7
 20
106.0
 10
103.7
 20
106.0
 10
103.7
 20
92.0
 10
101.7
 20
92.0
 10
101.7
 20
93.9
 10
101.7
 20
93.8
  0
LWPOLYLINE
  5
DA
100
AcDbEntity
  8
ASSEMBLY_OUTLINES_TOP
100
AcDbPolyline
 90
        4
 70
         1
 43
0.1
 10
92.55
 20
82.4
 10
92.55
 20
85.2
 10
93.85
 20
85.2
 10
93.85
 20
82.4
  0
TEXT
  5
DC
100
AcDbEntity
  8
ASSEMBLY_REF_DES_TOP
100
AcDbText
 10
93.475
 20
36.6065
 30
0.0
 40
1.0
  1
DD1
  7
GOST_TYPE_B
 72
         1
 11
94.5
 21
37.1
 31
0.0
100
AcDbText
 73
         2
  0
TEXT
  5
DD
100
AcDbEntity
  8
ASSEMBLY_REF_DES_TOP
100
AcDbText
 10
97.8065
 20
84.826
 30
0.0
 40
1.0
  1
C20
 50
270.0
  7
GOST_TYPE_B
 72
         1
 11
98.3
 21
83.8
 31
0.0
100
AcDbText
 73
         2
  0
TEXT
  5
DE
100
AcDbEntity
  8
ASSEMBLY_REF_DES_TOP
100
AcDbText
 10
107.30455
 20
92.3339
 30
0.0
 40
0.7
  1
R13
 50
270.0
  7
GOST_TYPE_B
 72
         1
 11
107.65
 21
91.65
 31
0.0
100
AcDbText
 73
         2
  0
TEXT
  5
DF
100
AcDbEntity
  8
ASSEMBLY_REF_DES_TOP
100
AcDbText
 10
116.749325
 20
62.048625
 30
0.0
 40
1.0
  1
R27
 50
270.0
  7
GOST_TYPE_B
 72
         1
 11
117.242825
 21
60.973625
 31
0.0
100
AcDbText
 73
         2
  0
TEXT
  5
E0
100
AcDbEntity
  8
ASSEMBLY_REF_DES_TOP
100
AcDbText
 10
107.7065
 20
105.226
 30
0.0
 40
1.0
  1
C30
 50
270.0
  7
GOST_TYPE_B
 72
         1
 11
108.2
 21
104.2
 31
0.0
100
AcDbText
 73
         2
  0
TEXT
  5
E1
100
AcDbEntity
  8
ASSEMBLY_REF_DES_TOP
100
AcDbText
 10
108.8065
 20
92.726
 30
0.0
 40
1.0
  1
C29
 50
270.0
  7
GOST_TYPE_B
 72
         1
 11
109.3
 21
91.7
 31
0.0
100
AcDbText
 73
         2
  0
TEXT
  5
E2
100
AcDbEntity
  8
ASSEMBLY_REF_DES_TOP
100
AcDbText
 10
118.028
 20
102.5065
 30
0.0
 40
1.0
  1
VD2
  7
GOST_TYPE_B
 72
         1
 11
119.2
 21
103.0
 31
0.0
100
AcDbText
 73
         2
  0
TEXT
  5
E3
100
AcDbEntity
  8
ASSEMBLY_REF_DES_TOP
100
AcDbText
 10
97.95455
 20
53.0496
 30
0.0
 40
0.7
  1
C19
 50
270.0
  7
GOST_TYPE_B
 72
         1
 11
98.3
 21
52.4
 31
0.0
100
AcDbText
 73
         2
  0
TEXT
  5
E4
100
AcDbEntity
  8
ASSEMBLY_REF_DES_TOP
100
AcDbText
 10
71.4898
 20
8.15455
 30
0.0
 40
0.7
  1
C1
  7
GOST_TYPE_B
 72
         1
 11
71.9
 21
8.5
 31
0.0
100
AcDbText
 73
         2
  0
TEXT
  5
E5
100
AcDbEntity
  8
ASSEMBLY_REF_DES_TOP
100
AcDbText
 10
87.26
 20
11.27
 30
0.0
 40
1.0
  1
J3
 50
270.0
  7
GOST_TYPE_B
 72
         2
 11
87.26
 21
10.0
 31
0.0
100
AcDbText
 73
         1
  0
TEXT
  5
E6
100
AcDbEntity
  8
ASSEMBLY_REF_DES_TOP
100
AcDbText
 10
80.35455
 20
60.281
 30
0.0
 40
0.7
  1
C11
 50
270.0
  7
GOST_TYPE_B
 72
         1
 11
80.7
 21
59.7
 31
0.0
100
AcDbText
 73
         2
  0
TEXT
  5
E7
100
AcDbEntity
  8
ASSEMBLY_REF_DES_TOP
100
AcDbText
 10
97.4565
 20
23.432
 30
0.0
 40
1.0
  1
R8
 50
270.0
  7
GOST_TYPE_B
 72
         1
 11
97.95
 21
22.65
 31
0.0
100
AcDbText
 73
         2
  0
TEXT
  5
E8
100
AcDbEntity
  8
ASSEMBLY_REF_DES_TOP
100
AcDbText
 10
75.4212
 20
16.05455
 30
0.0
 40
0.7
  1
C5
  7
GOST_TYPE_B
 72
         1
 11
75.9
 21
16.4
 31
0.0
100
AcDbText
 73
         2
  0
TEXT
  5
E9
100
AcDbEntity
  8
ASSEMBLY_REF_DES_TOP
100
AcDbText
 10
78.672
 20
71.2065
 30
0.0
 40
1.0
  1
C10
  7
GOST_TYPE_B
 72
         1
 11
79.6
 21
71.7
 31
0.0
100
AcDbText
 73
         2
  0
TEXT
  5
EA
100
AcDbEntity
  8
ASSEMBLY_REF_DES_TOP
100
AcDbText
 10
120.164725
 20
62.133225
 30
0.0
 40
1.0
  1
R30
 50
270.0
  7
GOST_TYPE_B
 72
         1
 11
120.658225
 21
61.058225
 31
0.0
100
AcDbText
 73
         2
  0
TEXT
  5
EB
100
AcDbEntity
  8
ASSEMBLY_REF_DES_TOP
100
AcDbText
 10
71.773725
 20
58.298275
 30
0.0
 40
1.0
  1
R1
  7
GOST_TYPE_B
 72
         1
 11
72.408225
 21
58.791775
 31
0.0
100
AcDbText
 73
         2
  0
TEXT
  5
EC
100
AcDbEntity
  8
ASSEMBLY_REF_DES_TOP
100
AcDbText
 10
80.23725
 20
93.90455
 30
0.0
 40
0.7
  1
R3
  7
GOST_TYPE_B
 72
         1
 11
80.75
 21
94.25
 31
0.0
100
AcDbText
 73
         2
  0
TEXT
  5
ED
100
AcDbEntity
  8
ASSEMBLY_REF_DES_TOP
100
AcDbText
 10
99.75455
 20
22.5182
 30
0.0
 40
0.7
  1
C22
 50
270.0
  7
GOST_TYPE_B
 72
         1
 11
100.1
 21
21.8
 31
0.0
100
AcDbText
 73
         2
  0
TEXT
  5
EE
100
AcDbEntity
  8
ASSEMBLY_REF_DES_TOP
100
AcDbText
 10
89.9185
 20
4.8565
 30
0.0
 40
1.0
  1
X3
  7
GOST_TYPE_B
 72
         1
 11
90.7
 21
5.35
 31
0.0
100
AcDbText
 73
         2
  0
TEXT
  5
EF
100
AcDbEntity
  8
ASSEMBLY_REF_DES_TOP
100
AcDbText
 10
131.54
 20
101.813
 30
0.0
 40
1.0
  1
X7
 50
270.0
  7
GOST_TYPE_B
 72
         2
 11
131.54
 21
100.25
 31
0.0
100
AcDbText
 73
         1
  0
TEXT
  5
F0
100
AcDbEntity
  8
ASSEMBLY_REF_DES_TOP
100
AcDbText
 10
121.714725
 20
62.132225
 30
0.0
 40
1.0
  1
R34
 50
270.0
  7
GOST_TYPE_B
 72
         1
 11
122.208225
 21
61.008225
 31
0.0
100
AcDbText
 73
         2
  0
TEXT
  5
F1
100
AcDbEntity
  8
ASSEMBLY_REF_DES_TOP
100
AcDbText
 10
78.974225
 20
65.948275
 30
0.0
 40
1.0
  1
C9
  7
GOST_TYPE_B
 72
         1
 11
79.658225
 21
66.441775
 31
0.0
100
AcDbText
 73
         2
  0
TEXT
  5
F2
100
AcDbEntity
  8
ASSEMBLY_REF_DES_TOP
100
AcDbText
 10
95.6065
 20
23.333
 30
0.0
 40
1.0
  1
R7
 50
270.0
  7
GOST_TYPE_B
 72
         1
 11
96.1
 21
22.6
 31
0.0
100
AcDbText
 73
         2
  0
TEXT
  5
F3
100
AcDbEntity
  8
ASSEMBLY_REF_DES_TOP
100
AcDbText
 10
123.964725
 20
79.833225
 30
0.0
 40
1.0
  1
R37
 50
270.0
  7
GOST_TYPE_B
 72
         1
 11
124.458225
 21
78.758225
 31
0.0
100
AcDbText
 73
         2
  0
TEXT
  5
F4
100
AcDbEntity
  8
ASSEMBLY_REF_DES_TOP
100
AcDbText
 10
71.6175
 20
60.0565
 30
0.0
 40
1.0
  1
R2
  7
GOST_TYPE_B
 72
         1
 11
72.35
 21
60.55
 31
0.0
100
AcDbText
 73
         2
  0
TEXT
  5
F5
100
AcDbEntity
  8
ASSEMBLY_REF_DES_TOP
100
AcDbText
 10
109.85455
 20
69.6182
 30
0.0
 40
0.7
  1
C33
 50
270.0
  7
GOST_TYPE_B
 72
         1
 11
110.2
 21
68.9
 31
0.0
100
AcDbText
 73
         2
  0
TEXT
  5
F6
100
AcDbEntity
  8
ASSEMBLY_REF_DES_TOP
100
AcDbText
 10
80.5
 20
104.505
 30
0.0
 40
1.0
  1
J1
 50
270.0
  7
VERIBEST_GERBER_0
 72
         2
 11
80.5
 21
102.65
 31
0.0
100
AcDbText
 73
         1
  0
TEXT
  5
F7
100
AcDbEntity
  8
ASSEMBLY_REF_DES_TOP
100
AcDbText
 10
104.4065
 20
84.826
 30
0.0
 40
1.0
  1
C26
 50
270.0
  7
GOST_TYPE_B
 72
         1
 11
104.9
 21
83.8
 31
0.0
100
AcDbText
 73
         2
  0
TEXT
  5
F8
100
AcDbEntity
  8
ASSEMBLY_REF_DES_TOP
100
AcDbText
 10
119.9065
 20
69.1725
 30
0.0
 40
1.0
  1
DA3
 50
270.0
  7
GOST_TYPE_B
 72
         1
 11
120.4
 21
68.0
 31
0.0
100
AcDbText
 73
         2
  0
TEXT
  5
F9
100
AcDbEntity
  8
ASSEMBLY_REF_DES_TOP
100
AcDbText
 10
78.925725
 20
64.648275
 30
0.0
 40
1.0
  1
C8
  7
GOST_TYPE_B
 72
         1
 11
79.658225
 21
65.141775
 31
0.0
100
AcDbText
 73
         2
  0
TEXT
  5
FA
100
AcDbEntity
  8
ASSEMBLY_REF_DES_TOP
100
AcDbText
 10
75.874225
 20
76.248275
 30
0.0
 40
1.0
  1
C7
  7
GOST_TYPE_B
 72
         1
 11
76.558225
 21
76.741775
 31
0.0
100
AcDbText
 73
         2
  0
TEXT
  5
FB
100
AcDbEntity
  8
ASSEMBLY_REF_DES_TOP
100
AcDbText
 10
114.06165
 20
38.56885
 30
0.0
 40
1.0
  1
R24
 50
270.0
  7
GOST_TYPE_B
 72
         1
 11
114.55515
 21
37.44485
 31
0.0
100
AcDbText
 73
         2
  0
TEXT
  5
FC
100
AcDbEntity
  8
ASSEMBLY_REF_DES_TOP
100
AcDbText
 10
108.194225
 20
83.599575
 30
0.0
 40
1.0
  1
HL1
 50
270.0
  7
GOST_TYPE_B
 72
         1
 11
108.687725
 21
82.622575
 31
0.0
100
AcDbText
 73
         2
  0
TEXT
  5
FD
100
AcDbEntity
  8
ASSEMBLY_REF_DES_TOP
100
AcDbText
 10
118.414725
 20
62.132225
 30
0.0
 40
1.0
  1
R28
 50
270.0
  7
GOST_TYPE_B
 72
         1
 11
118.908225
 21
61.008225
 31
0.0
100
AcDbText
 73
         2
  0
TEXT
  5
FE
100
AcDbEntity
  8
ASSEMBLY_REF_DES_TOP
100
AcDbText
 10
105.426
 20
92.3065
 30
0.0
 40
1.0
  1
VD1
  7
GOST_TYPE_B
 72
         1
 11
106.5
 21
92.8
 31
0.0
100
AcDbText
 73
         2
  0
TEXT
  5
FF
100
AcDbEntity
  8
ASSEMBLY_REF_DES_TOP
100
AcDbText
 10
124.6935
 20
11.515
 30
0.0
 40
1.0
  1
T1
 50
90.0
  7
GOST_TYPE_B
 72
         1
 11
124.2
 21
12.15
 31
0.0
100
AcDbText
 73
         2
  0
TEXT
  5
100
100
AcDbEntity
  8
ASSEMBLY_REF_DES_TOP
100
AcDbText
 10
87.0065
 20
18.7745
 30
0.0
 40
1.0
  1
DA1
 50
270.0
  7
GOST_TYPE_B
 72
         1
 11
87.5
 21
17.7
 31
0.0
100
AcDbText
 73
         2
  0
TEXT
  5
101
100
AcDbEntity
  8
ASSEMBLY_REF_DES_TOP
100
AcDbText
 10
121.4065
 20
87.077
 30
0.0
 40
1.0
  1
C41
 50
270.0
  7
GOST_TYPE_B
 72
         1
 11
121.9
 21
86.1
 31
0.0
100
AcDbText
 73
         2
  0
TEXT
  5
102
100
AcDbEntity
  8
ASSEMBLY_REF_DES_TOP
100
AcDbText
 10
102.75455
 20
53.1182
 30
0.0
 40
0.7
  1
C25
 50
270.0
  7
GOST_TYPE_B
 72
         1
 11
103.1
 21
52.4
 31
0.0
100
AcDbText
 73
         2
  0
TEXT
  5
103
100
AcDbEntity
  8
ASSEMBLY_REF_DES_TOP
100
AcDbText
 10
101.1065
 20
18.628
 30
0.0
 40
1.0
  1
C21
 50
270.0
  7
GOST_TYPE_B
 72
         1
 11
101.6
 21
17.7
 31
0.0
100
AcDbText
 73
         2
  0
TEXT
  5
104
100
AcDbEntity
  8
ASSEMBLY_REF_DES_TOP
100
AcDbText
 10
110.1235
 20
15.9065
 30
0.0
 40
1.0
  1
R17
  7
GOST_TYPE_B
 72
         1
 11
111.1
 21
16.4
 31
0.0
100
AcDbText
 73
         2
  0
TEXT
  5
105
100
AcDbEntity
  8
ASSEMBLY_REF_DES_TOP
100
AcDbText
 10
109.85455
 20
57.1182
 30
0.0
 40
0.7
  1
C32
 50
270.0
  7
GOST_TYPE_B
 72
         1
 11
110.2
 21
56.4
 31
0.0
100
AcDbText
 73
         2
  0
TEXT
  5
106
100
AcDbEntity
  8
ASSEMBLY_REF_DES_TOP
100
AcDbText
 10
105.5065
 20
23.877
 30
0.0
 40
1.0
  1
R12
 50
270.0
  7
GOST_TYPE_B
 72
         1
 11
106.0
 21
22.9
 31
0.0
100
AcDbText
 73
         2
  0
TEXT
  5
107
100
AcDbEntity
  8
ASSEMBLY_REF_DES_TOP
100
AcDbText
 10
128.3141
 20
69.2719
 30
0.0
 40
1.0
  1
VD4
  7
GOST_TYPE_B
 72
         1
 11
129.5346
 21
69.7654
 31
0.0
100
AcDbText
 73
         2
  0
TEXT
  5
108
100
AcDbEntity
  8
ASSEMBLY_REF_DES_TOP
100
AcDbText
 10
112.1065
 20
83.675
 30
0.0
 40
1.0
  1
R20
 50
270.0
  7
GOST_TYPE_B
 72
         1
 11
112.6
 21
82.6
 31
0.0
100
AcDbText
 73
         2
  0
TEXT
  5
109
100
AcDbEntity
  8
ASSEMBLY_REF_DES_TOP
100
AcDbText
 10
108.415775
 20
9.564725
 30
0.0
 40
1.0
  1
C27
  7
GOST_TYPE_B
 72
         1
 11
109.441775
 21
10.058225
 31
0.0
100
AcDbText
 73
         2
  0
TEXT
  5
10A
100
AcDbEntity
  8
ASSEMBLY_REF_DES_TOP
100
AcDbText
 10
81.2
 20
77.196002
 30
0.0
 40
1.0
  1
ZQ1
 50
270.0
  7
GOST_TYPE_B
 72
         2
 11
81.2
 21
74.950002
 31
0.0
100
AcDbText
 73
         1
  0
TEXT
  5
10B
100
AcDbEntity
  8
ASSEMBLY_REF_DES_TOP
100
AcDbText
 10
86.248275
 20
32.769775
 30
0.0
 40
1.0
  1
C13
 50
270.0
  7
GOST_TYPE_B
 72
         1
 11
86.741775
 21
31.841775
 31
0.0
100
AcDbText
 73
         2
  0
TEXT
  5
10C
100
AcDbEntity
  8
ASSEMBLY_REF_DES_TOP
100
AcDbText
 10
126.4
 20
43.88
 30
0.0
 40
1.0
  1
X5
 50
270.0
  7
VERIBEST_GERBER_0
 72
         2
 11
126.4
 21
41.99
 31
0.0
100
AcDbText
 73
         1
  0
TEXT
  5
10D
100
AcDbEntity
  8
ASSEMBLY_REF_DES_TOP
100
AcDbText
 10
111.5065
 20
22.577
 30
0.0
 40
1.0
  1
R19
 50
270.0
  7
GOST_TYPE_B
 72
         1
 11
112.0
 21
21.6
 31
0.0
100
AcDbText
 73
         2
  0
TEXT
  5
10E
100
AcDbEntity
  8
ASSEMBLY_REF_DES_TOP
100
AcDbText
 10
127.579825
 20
75.716375
 30
0.0
 40
1.0
  1
J5
 50
270.0
  7
GOST_TYPE_B
 72
         2
 11
127.579825
 21
74.446375
 31
0.0
100
AcDbText
 73
         1
  0
TEXT
  5
10F
100
AcDbEntity
  8
ASSEMBLY_REF_DES_TOP
100
AcDbText
 10
109.416775
 20
8.064725
 30
0.0
 40
1.0
  1
R14
  7
GOST_TYPE_B
 72
         1
 11
110.441775
 21
8.558225
 31
0.0
100
AcDbText
 73
         2
  0
TEXT
  5
110
100
AcDbEntity
  8
ASSEMBLY_REF_DES_TOP
100
AcDbText
 10
126.199325
 20
79.900375
 30
0.0
 40
1.0
  1
R38
 50
270.0
  7
GOST_TYPE_B
 72
         1
 11
126.692825
 21
78.776375
 31
0.0
100
AcDbText
 73
         2
  0
TEXT
  5
111
100
AcDbEntity
  8
ASSEMBLY_REF_DES_TOP
100
AcDbText
 10
108.467275
 20
22.764725
 30
0.0
 40
1.0
  1
C28
  7
GOST_TYPE_B
 72
         1
 11
109.541775
 21
23.258225
 31
0.0
100
AcDbText
 73
         2
  0
TEXT
  5
112
100
AcDbEntity
  8
ASSEMBLY_REF_DES_TOP
100
AcDbText
 10
101.648275
 20
35.216775
 30
0.0
 40
1.0
  1
C24
 50
270.0
  7
GOST_TYPE_B
 72
         1
 11
102.141775
 21
34.141775
 31
0.0
100
AcDbText
 73
         2
  0
TEXT
  5
113
100
AcDbEntity
  8
ASSEMBLY_REF_DES_TOP
100
AcDbText
 10
94.377
 20
67.5065
 30
0.0
 40
1.0
  1
DD2
  7
GOST_TYPE_B
 72
         1
 11
95.5
 21
68.0
 31
0.0
100
AcDbText
 73
         2
  0
TEXT
  5
114
100
AcDbEntity
  8
ASSEMBLY_REF_DES_TOP
100
AcDbText
 10
132.04
 20
62.473
 30
0.0
 40
1.0
  1
X6
 50
270.0
  7
GOST_TYPE_B
 72
         2
 11
132.04
 21
60.91
 31
0.0
100
AcDbText
 73
         1
  0
TEXT
  5
115
100
AcDbEntity
  8
ASSEMBLY_REF_DES_TOP
100
AcDbText
 10
110.35
 20
35.445
 30
0.0
 40
1.0
  1
SW1
 50
270.0
  7
GOST_TYPE_B
 72
         2
 11
110.35
 21
33.1
 31
0.0
100
AcDbText
 73
         1
  0
TEXT
  5
116
100
AcDbEntity
  8
ASSEMBLY_REF_DES_TOP
100
AcDbText
 10
101.1065
 20
15.333
 30
0.0
 40
1.0
  1
R9
 50
270.0
  7
GOST_TYPE_B
 72
         1
 11
101.6
 21
14.6
 31
0.0
100
AcDbText
 73
         2
  0
TEXT
  5
117
100
AcDbEntity
  8
ASSEMBLY_REF_DES_TOP
100
AcDbText
 10
75.874225
 20
74.848275
 30
0.0
 40
1.0
  1
C6
  7
GOST_TYPE_B
 72
         1
 11
76.558225
 21
75.341775
 31
0.0
100
AcDbText
 73
         2
  0
TEXT
  5
118
100
AcDbEntity
  8
ASSEMBLY_REF_DES_TOP
100
AcDbText
 10
111.2065
 20
13.377
 30
0.0
 40
1.0
  1
R15
 50
270.0
  7
GOST_TYPE_B
 72
         1
 11
111.7
 21
12.4
 31
0.0
100
AcDbText
 73
         2
  0
TEXT
  5
119
100
AcDbEntity
  8
ASSEMBLY_REF_DES_TOP
100
AcDbText
 10
118.66165
 20
75.33015
 30
0.0
 40
1.0
  1
C40
 50
270.0
  7
GOST_TYPE_B
 72
         1
 11
119.15515
 21
74.25515
 31
0.0
100
AcDbText
 73
         2
  0
TEXT
  5
11A
100
AcDbEntity
  8
ASSEMBLY_REF_DES_TOP
100
AcDbText
 10
93.05455
 20
53.0496
 30
0.0
 40
0.7
  1
C16
 50
270.0
  7
GOST_TYPE_B
 72
         1
 11
93.4
 21
52.4
 31
0.0
100
AcDbText
 73
         2
  0
TEXT
  5
11B
100
AcDbEntity
  8
ASSEMBLY_REF_DES_TOP
100
AcDbText
 10
71.7212
 20
56.65455
 30
0.0
 40
0.7
  1
C2
  7
GOST_TYPE_B
 72
         1
 11
72.2
 21
57.0
 31
0.0
100
AcDbText
 73
         2
  0
TEXT
  5
11C
100
AcDbEntity
  8
ASSEMBLY_REF_DES_TOP
100
AcDbText
 10
115.26165
 20
72.11985
 30
0.0
 40
1.0
  1
C38
 50
270.0
  7
GOST_TYPE_B
 72
         1
 11
115.75515
 21
71.04485
 31
0.0
100
AcDbText
 73
         2
  0
TEXT
  5
11D
100
AcDbEntity
  8
ASSEMBLY_REF_DES_TOP
100
AcDbText
 10
121.1
 20
40.489
 30
0.0
 40
1.0
  1
X4
 50
90.0
  7
GOST_TYPE_B
 72
         2
 11
121.1
 21
42.15
 31
0.0
100
AcDbText
 73
         1
  0
TEXT
  5
11E
100
AcDbEntity
  8
ASSEMBLY_REF_DES_TOP
100
AcDbText
 10
119.4065
 20
93.175
 30
0.0
 40
1.0
  1
R33
 50
270.0
  7
GOST_TYPE_B
 72
         1
 11
119.9
 21
92.1
 31
0.0
100
AcDbText
 73
         2
  0
TEXT
  5
11F
100
AcDbEntity
  8
ASSEMBLY_REF_DES_TOP
100
AcDbText
 10
111.05455
 20
6.1496
 30
0.0
 40
0.7
  1
C31
 50
270.0
  7
GOST_TYPE_B
 72
         1
 11
111.4
 21
5.5
 31
0.0
100
AcDbText
 73
         2
  0
TEXT
  5
120
100
AcDbEntity
  8
ASSEMBLY_REF_DES_TOP
100
AcDbText
 10
71.7212
 20
62.15455
 30
0.0
 40
0.7
  1
C3
  7
GOST_TYPE_B
 72
         1
 11
72.2
 21
62.5
 31
0.0
100
AcDbText
 73
         2
  0
TEXT
  5
121
100
AcDbEntity
  8
ASSEMBLY_REF_DES_TOP
100
AcDbText
 10
104.0565
 20
15.529
 30
0.0
 40
1.0
  1
R11
 50
270.0
  7
GOST_TYPE_B
 72
         1
 11
104.55
 21
14.65
 31
0.0
100
AcDbText
 73
         2
  0
TEXT
  5
122
100
AcDbEntity
  8
ASSEMBLY_REF_DES_TOP
100
AcDbText
 10
93.210125
 20
13.909575
 30
0.0
 40
1.0
  1
C18
  7
GOST_TYPE_B
 72
         1
 11
94.186625
 21
14.403075
 31
0.0
100
AcDbText
 73
         2
  0
TEXT
  5
123
100
AcDbEntity
  8
ASSEMBLY_REF_DES_TOP
100
AcDbText
 10
86.277225
 20
12.148275
 30
0.0
 40
1.0
  1
R4
  7
GOST_TYPE_B
 72
         1
 11
87.058225
 21
12.641775
 31
0.0
100
AcDbText
 73
         2
  0
TEXT
  5
124
100
AcDbEntity
  8
ASSEMBLY_REF_DES_TOP
100
AcDbText
 10
101.7065
 20
30.526
 30
0.0
 40
1.0
  1
C23
 50
270.0
  7
GOST_TYPE_B
 72
         1
 11
102.2
 21
29.5
 31
0.0
100
AcDbText
 73
         2
  0
TEXT
  5
125
100
AcDbEntity
  8
ASSEMBLY_REF_DES_TOP
100
AcDbText
 10
115.3065
 20
69.026
 30
0.0
 40
1.0
  1
C37
 50
270.0
  7
GOST_TYPE_B
 72
         1
 11
115.8
 21
68.0
 31
0.0
100
AcDbText
 73
         2
  0
TEXT
  5
126
100
AcDbEntity
  8
ASSEMBLY_REF_DES_TOP
100
AcDbText
 10
123.8255
 20
71.0065
 30
0.0
 40
1.0
  1
C42
  7
GOST_TYPE_B
 72
         1
 11
124.9
 21
71.5
 31
0.0
100
AcDbText
 73
         2
  0
TEXT
  5
127
100
AcDbEntity
  8
ASSEMBLY_REF_DES_TOP
100
AcDbText
 10
119.4065
 20
89.477
 30
0.0
 40
1.0
  1
R31
 50
270.0
  7
GOST_TYPE_B
 72
         1
 11
119.9
 21
88.5
 31
0.0
100
AcDbText
 73
         2
  0
TEXT
  5
128
100
AcDbEntity
  8
ASSEMBLY_REF_DES_TOP
100
AcDbText
 10
122.75325
 20
105.38625
 30
0.0
 40
0.5
  1
VD3
 50
270.0
  7
GOST_TYPE_B
 72
         1
 11
123.0
 21
104.8
 31
0.0
100
AcDbText
 73
         2
  0
TEXT
  5
129
100
AcDbEntity
  8
ASSEMBLY_REF_DES_TOP
100
AcDbText
 10
118.9065
 20
84.375
 30
0.0
 40
1.0
  1
R29
 50
270.0
  7
GOST_TYPE_B
 72
         1
 11
119.4
 21
83.3
 31
0.0
100
AcDbText
 73
         2
  0
TEXT
  5
12A
100
AcDbEntity
  8
ASSEMBLY_REF_DES_TOP
100
AcDbText
 10
123.364725
 20
62.133225
 30
0.0
 40
1.0
  1
R35
 50
270.0
  7
GOST_TYPE_B
 72
         1
 11
123.858225
 21
61.058225
 31
0.0
100
AcDbText
 73
         2
  0
TEXT
  5
12B
100
AcDbEntity
  8
ASSEMBLY_REF_DES_TOP
100
AcDbText
 10
114.1065
 20
44.475
 30
0.0
 40
1.0
  1
R25
 50
270.0
  7
GOST_TYPE_B
 72
         1
 11
114.6
 21
43.4
 31
0.0
100
AcDbText
 73
         2
  0
TEXT
  5
12C
100
AcDbEntity
  8
ASSEMBLY_REF_DES_TOP
100
AcDbText
 10
86.364725
 20
37.435225
 30
0.0
 40
1.0
  1
C14
 50
270.0
  7
GOST_TYPE_B
 72
         1
 11
86.858225
 21
36.458225
 31
0.0
100
AcDbText
 73
         2
  0
TEXT
  5
12D
100
AcDbEntity
  8
ASSEMBLY_REF_DES_TOP
100
AcDbText
 10
115.9755
 20
24.4565
 30
0.0
 40
1.0
  1
R26
  7
GOST_TYPE_B
 72
         1
 11
117.05
 21
24.95
 31
0.0
100
AcDbText
 73
         2
  0
TEXT
  5
12E
100
AcDbEntity
  8
ASSEMBLY_REF_DES_TOP
100
AcDbText
 10
110.0065
 20
21.826
 30
0.0
 40
1.0
  1
R18
 50
270.0
  7
GOST_TYPE_B
 72
         1
 11
110.5
 21
20.8
 31
0.0
100
AcDbText
 73
         2
  0
TEXT
  5
12F
100
AcDbEntity
  8
ASSEMBLY_REF_DES_TOP
100
AcDbText
 10
86.430225
 20
21.748275
 30
0.0
 40
1.0
  1
C12
  7
GOST_TYPE_B
 72
         1
 11
87.358225
 21
22.241775
 31
0.0
100
AcDbText
 73
         2
  0
TEXT
  5
130
100
AcDbEntity
  8
ASSEMBLY_REF_DES_TOP
100
AcDbText
 10
71.4565
 20
83.7815
 30
0.0
 40
1.0
  1
X2
 50
270.0
  7
GOST_TYPE_B
 72
         1
 11
71.95
 21
83.0
 31
0.0
100
AcDbText
 73
         2
  0
TEXT
  5
131
100
AcDbEntity
  8
ASSEMBLY_REF_DES_TOP
100
AcDbText
 10
114.0065
 20
29.675
 30
0.0
 40
1.0
  1
R22
 50
270.0
  7
GOST_TYPE_B
 72
         1
 11
114.5
 21
28.6
 31
0.0
100
AcDbText
 73
         2
  0
TEXT
  5
132
100
AcDbEntity
  8
ASSEMBLY_REF_DES_TOP
100
AcDbText
 10
71.78725
 20
104.75455
 30
0.0
 40
0.7
  1
C4
  7
GOST_TYPE_B
 72
         1
 11
72.3
 21
105.1
 31
0.0
100
AcDbText
 73
         2
  0
TEXT
  5
133
100
AcDbEntity
  8
ASSEMBLY_REF_DES_TOP
100
AcDbText
 10
140.46
 20
79.7
 30
0.0
 40
1.0
  1
X9
  7
VERIBEST_GERBER_0
 72
         2
 11
142.35
 21
79.7
 31
0.0
100
AcDbText
 73
         1
  0
TEXT
  5
134
100
AcDbEntity
  8
ASSEMBLY_REF_DES_TOP
100
AcDbText
 10
71.4565
 20
35.4835
 30
0.0
 40
1.0
  1
X1
 50
270.0
  7
GOST_TYPE_B
 72
         1
 11
71.95
 21
34.8
 31
0.0
100
AcDbText
 73
         2
  0
TEXT
  5
135
100
AcDbEntity
  8
ASSEMBLY_REF_DES_TOP
100
AcDbText
 10
114.048275
 20
33.616775
 30
0.0
 40
1.0
  1
R23
 50
270.0
  7
GOST_TYPE_B
 72
         1
 11
114.541775
 21
32.541775
 31
0.0
100
AcDbText
 73
         2
  0
TEXT
  5
136
100
AcDbEntity
  8
ASSEMBLY_REF_DES_TOP
100
AcDbText
 10
120.767275
 20
80.164725
 30
0.0
 40
1.0
  1
R36
  7
GOST_TYPE_B
 72
         1
 11
121.841775
 21
80.658225
 31
0.0
100
AcDbText
 73
         2
  0
TEXT
  5
137
100
AcDbEntity
  8
ASSEMBLY_REF_DES_TOP
100
AcDbText
 10
89.10455
 20
92.4631
 30
0.0
 40
0.7
  1
R5
 50
270.0
  7
GOST_TYPE_B
 72
         1
 11
89.45
 21
91.95
 31
0.0
100
AcDbText
 73
         2
  0
TEXT
  5
138
100
AcDbEntity
  8
ASSEMBLY_REF_DES_TOP
100
AcDbText
 10
119.4065
 20
91.575
 30
0.0
 40
1.0
  1
R32
 50
270.0
  7
GOST_TYPE_B
 72
         1
 11
119.9
 21
90.5
 31
0.0
100
AcDbText
 73
         2
  0
TEXT
  5
139
100
AcDbEntity
  8
ASSEMBLY_REF_DES_TOP
100
AcDbText
 10
129.41267
 20
88.405788
 30
0.0
 40
1.0
  1
X8
 50
270.0
  7
GOST_TYPE_B
 72
         1
 11
129.90617
 21
87.575288
 31
0.0
100
AcDbText
 73
         2
  0
TEXT
  5
13A
100
AcDbEntity
  8
ASSEMBLY_REF_DES_TOP
100
AcDbText
 10
90.5065
 20
19.033
 30
0.0
 40
1.0
  1
R6
 50
270.0
  7
GOST_TYPE_B
 72
         1
 11
91.0
 21
18.3
 31
0.0
100
AcDbText
 73
         2
  0
TEXT
  5
13B
100
AcDbEntity
  8
ASSEMBLY_REF_DES_TOP
100
AcDbText
 10
83.2
 20
104.54
 30
0.0
 40
1.0
  1
J2
 50
270.0
  7
VERIBEST_GERBER_0
 72
         2
 11
83.2
 21
102.65
 31
0.0
100
AcDbText
 73
         1
  0
TEXT
  5
13C
100
AcDbEntity
  8
ASSEMBLY_REF_DES_TOP
100
AcDbText
 10
133.6065
 20
106.675
 30
0.0
 40
1.0
  1
R39
 50
270.0
  7
GOST_TYPE_B
 72
         1
 11
134.1
 21
105.6
 31
0.0
100
AcDbText
 73
         2
  0
TEXT
  5
13D
100
AcDbEntity
  8
ASSEMBLY_REF_DES_TOP
100
AcDbText
 10
112.5065
 20
91.977
 30
0.0
 40
1.0
  1
R21
 50
270.0
  7
GOST_TYPE_B
 72
         1
 11
113.0
 21
91.0
 31
0.0
100
AcDbText
 73
         2
  0
TEXT
  5
13E
100
AcDbEntity
  8
ASSEMBLY_REF_DES_TOP
100
AcDbText
 10
115.26165
 20
65.77085
 30
0.0
 40
1.0
  1
C36
 50
270.0
  7
GOST_TYPE_B
 72
         1
 11
115.75515
 21
64.74485
 31
0.0
100
AcDbText
 73
         2
  0
TEXT
  5
13F
100
AcDbEntity
  8
ASSEMBLY_REF_DES_TOP
100
AcDbText
 10
97.2065
 20
18.624
 30
0.0
 40
1.0
  1
DD3
 50
270.0
  7
GOST_TYPE_B
 72
         1
 11
97.7
 21
17.5
 31
0.0
100
AcDbText
 73
         2
  0
TEXT
  5
140
100
AcDbEntity
  8
ASSEMBLY_REF_DES_TOP
100
AcDbText
 10
110.0818
 20
76.55455
 30
0.0
 40
0.7
  1
C35
  7
GOST_TYPE_B
 72
         1
 11
110.8
 21
76.9
 31
0.0
100
AcDbText
 73
         2
  0
TEXT
  5
141
100
AcDbEntity
  8
ASSEMBLY_REF_DES_TOP
100
AcDbText
 10
113.074
 20
92.7065
 30
0.0
 40
1.0
  1
C39
  7
GOST_TYPE_B
 72
         1
 11
114.1
 21
93.2
 31
0.0
100
AcDbText
 73
         2
  0
TEXT
  5
142
100
AcDbEntity
  8
ASSEMBLY_REF_DES_TOP
100
AcDbText
 10
86.5565
 20
94.934
 30
0.0
 40
1.0
  1
J4
 50
270.0
  7
GOST_TYPE_B
 72
         1
 11
87.05
 21
94.25
 31
0.0
100
AcDbText
 73
         2
  0
TEXT
  5
143
100
AcDbEntity
  8
ASSEMBLY_REF_DES_TOP
100
AcDbText
 10
109.7065
 20
14.177
 30
0.0
 40
1.0
  1
R16
 50
270.0
  7
GOST_TYPE_B
 72
         1
 11
110.2
 21
13.2
 31
0.0
100
AcDbText
 73
         2
  0
TEXT
  5
144
100
AcDbEntity
  8
ASSEMBLY_REF_DES_TOP
100
AcDbText
 10
112.6065
 20
101.4725
 30
0.0
 40
1.0
  1
DA2
 50
270.0
  7
GOST_TYPE_B
 72
         1
 11
113.1
 21
100.3
 31
0.0
100
AcDbText
 73
         2
  0
TEXT
  5
145
100
AcDbEntity
  8
ASSEMBLY_REF_DES_TOP
100
AcDbText
 10
85.372
 20
52.6065
 30
0.0
 40
1.0
  1
C15
  7
GOST_TYPE_B
 72
         1
 11
86.3
 21
53.1
 31
0.0
100
AcDbText
 73
         2
  0
TEXT
  5
146
100
AcDbEntity
  8
ASSEMBLY_REF_DES_TOP
100
AcDbText
 10
110.04785
 20
74.95455
 30
0.0
 40
0.7
  1
C34
  7
GOST_TYPE_B
 72
         1
 11
110.8
 21
75.3
 31
0.0
100
AcDbText
 73
         2
  0
TEXT
  5
147
100
AcDbEntity
  8
ASSEMBLY_REF_DES_TOP
100
AcDbText
 10
102.6065
 20
15.577
 30
0.0
 40
1.0
  1
R10
 50
270.0
  7
GOST_TYPE_B
 72
         1
 11
103.1
 21
14.6
 31
0.0
100
AcDbText
 73
         2
  0
TEXT
  5
148
100
AcDbEntity
  8
ASSEMBLY_REF_DES_TOP
100
AcDbText
 10
94.9305
 20
98.5065
 30
0.0
 40
1.0
  1
Bat1
  7
GOST_TYPE_B
 72
         1
 11
96.2
 21
99.0
 31
0.0
100
AcDbText
 73
         2
  0
TEXT
  5
149
100
AcDbEntity
  8
ASSEMBLY_REF_DES_TOP
100
AcDbText
 10
92.764725
 20
84.786225
 30
0.0
 40
1.0
  1
C17
 50
270.0
  7
GOST_TYPE_B
 72
         1
 11
93.258225
 21
83.858225
 31
0.0
100
AcDbText
 73
         2
  0
LWPOLYLINE
  5
14A
100
AcDbEntity
  8
BOARD_OUTLINE
100
AcDbPolyline
 90
        4
 70
         1
 43
0.25
 10
69.8
 20
2.7
 10
69.8
 20
107.2
 10
137.3
 20
107.2
 10
137.3
 20
2.7
  0
CIRCLE
  5
14B
100
AcDbEntity
  8
MOUNTING_HOLES_LAYER_TOP
100
AcDbCircle
 10
122.3
 20
23.5
 30
0.0
 40
1.5
  0
HATCH
  5
14C
100
AcDbEntity
  8
MOUNTING_HOLES_LAYER_TOP
100
AcDbHatch
 10
0.0
 20
0.0
 30
0.0
210
0.0
220
0.0
230
1.0
  2
SOLID
 70
         1
 71
         1
 91
        1
 92
        1
 93
        1
 72
         2
 10
122.3
 20
23.5
 40
1.5
 50
0.0
 51
360.0
 73
         1
 97
        1
330
14B
 75
         0
 76
         1
 98
        1
 10
0.0
 20
0.0
  0
CIRCLE
  5
14D
100
AcDbEntity
  8
MOUNTING_HOLES_LAYER_TOP
100
AcDbCircle
 10
120.5
 20
96.6
 30
0.0
 40
1.5
  0
HATCH
  5
14E
100
AcDbEntity
  8
MOUNTING_HOLES_LAYER_TOP
100
AcDbHatch
 10
0.0
 20
0.0
 30
0.0
210
0.0
220
0.0
230
1.0
  2
SOLID
 70
         1
 71
         1
 91
        1
 92
        1
 93
        1
 72
         2
 10
120.5
 20
96.599999999999994
 40
1.5
 50
0.0
 51
360.0
 73
         1
 97
        1
330
14D
 75
         0
 76
         1
 98
        1
 10
0.0
 20
0.0
  0
CIRCLE
  5
14F
100
AcDbEntity
  8
MOUNTING_HOLES_LAYER_TOP
100
AcDbCircle
 10
76.3
 20
104.5
 30
0.0
 40
1.5
  0
HATCH
  5
150
100
AcDbEntity
  8
MOUNTING_HOLES_LAYER_TOP
100
AcDbHatch
 10
0.0
 20
0.0
 30
0.0
210
0.0
220
0.0
230
1.0
  2
SOLID
 70
         1
 71
         1
 91
        1
 92
        1
 93
        1
 72
         2
 10
76.299999999999997
 20
104.5
 40
1.5
 50
0.0
 51
360.0
 73
         1
 97
        1
330
14F
 75
         0
 76
         1
 98
        1
 10
0.0
 20
0.0
  0
CIRCLE
  5
151
100
AcDbEntity
  8
MOUNTING_HOLES_LAYER_TOP
100
AcDbCircle
 10
72.5
 20
11.8
 30
0.0
 40
1.5
  0
HATCH
  5
152
100
AcDbEntity
  8
MOUNTING_HOLES_LAYER_TOP
100
AcDbHatch
 10
0.0
 20
0.0
 30
0.0
210
0.0
220
0.0
230
1.0
  2
SOLID
 70
         1
 71
         1
 91
        1
 92
        1
 93
        1
 72
         2
 10
72.5
 20
11.800000000000001
 40
1.5
 50
0.0
 51
360.0
 73
         1
 97
        1
330
151
 75
         0
 76
         1
 98
        1
 10
0.0
 20
0.0
  0
CIRCLE
  5
153
100
AcDbEntity
  8
MOUNTING_HOLES_LAYER_TOP
100
AcDbCircle
 10
128.05
 20
18.11
 30
0.0
 40
1.625
  0
HATCH
  5
154
100
AcDbEntity
  8
MOUNTING_HOLES_LAYER_TOP
100
AcDbHatch
 10
0.0
 20
0.0
 30
0.0
210
0.0
220
0.0
230
1.0
  2
SOLID
 70
         1
 71
         1
 91
        1
 92
        1
 93
        1
 72
         2
 10
128.05000000000001
 20
18.109999999999999
 40
1.625
 50
0.0
 51
360.0
 73
         1
 97
        1
330
153
 75
         0
 76
         1
 98
        1
 10
0.0
 20
0.0
  0
CIRCLE
  5
155
100
AcDbEntity
  8
MOUNTING_HOLES_LAYER_TOP
100
AcDbCircle
 10
128.05
 20
6.69
 30
0.0
 40
1.625
  0
HATCH
  5
156
100
AcDbEntity
  8
MOUNTING_HOLES_LAYER_TOP
100
AcDbHatch
 10
0.0
 20
0.0
 30
0.0
210
0.0
220
0.0
230
1.0
  2
SOLID
 70
         1
 71
         1
 91
        1
 92
        1
 93
        1
 72
         2
 10
128.05000000000001
 20
6.6900000000000004
 40
1.625
 50
0.0
 51
360.0
 73
         1
 97
        1
330
155
 75
         0
 76
         1
 98
        1
 10
0.0
 20
0.0
  0
CIRCLE
  5
157
100
AcDbEntity
  8
MOUNTING_HOLES_LAYER_TOP
100
AcDbCircle
 10
127.748995
 20
92.551663
 30
0.0
 40
0.75
  0
HATCH
  5
158
100
AcDbEntity
  8
MOUNTING_HOLES_LAYER_TOP
100
AcDbHatch
 10
0.0
 20
0.0
 30
0.0
210
0.0
220
0.0
230
1.0
  2
SOLID
 70
         1
 71
         1
 91
        1
 92
        1
 93
        1
 72
         2
 10
127.74899499999999
 20
92.551663000000005
 40
0.75
 50
0.0
 51
360.0
 73
         1
 97
        1
330
157
 75
         0
 76
         1
 98
        1
 10
0.0
 20
0.0
  0
CIRCLE
  5
159
100
AcDbEntity
  8
MOUNTING_HOLES_LAYER_TOP
100
AcDbCircle
 10
127.748995
 20
82.551663
 30
0.0
 40
0.75
  0
HATCH
  5
15A
100
AcDbEntity
  8
MOUNTING_HOLES_LAYER_TOP
100
AcDbHatch
 10
0.0
 20
0.0
 30
0.0
210
0.0
220
0.0
230
1.0
  2
SOLID
 70
         1
 71
         1
 91
        1
 92
        1
 93
        1
 72
         2
 10
127.74899499999999
 20
82.551663000000005
 40
0.75
 50
0.0
 51
360.0
 73
         1
 97
        1
330
159
 75
         0
 76
         1
 98
        1
 10
0.0
 20
0.0
  0
CIRCLE
  5
15B
100
AcDbEntity
  8
MOUNTING_HOLES_LAYER_TOP
100
AcDbCircle
 10
92.95
 20
99.0
 30
0.0
 40
0.75
  0
HATCH
  5
15C
100
AcDbEntity
  8
MOUNTING_HOLES_LAYER_TOP
100
AcDbHatch
 10
0.0
 20
0.0
 30
0.0
210
0.0
220
0.0
230
1.0
  2
SOLID
 70
         1
 71
         1
 91
        1
 92
        1
 93
        1
 72
         2
 10
92.950000000000003
 20
99.0
 40
0.75
 50
0.0
 51
360.0
 73
         1
 97
        1
330
15B
 75
         0
 76
         1
 98
        1
 10
0.0
 20
0.0
  0
CIRCLE
  5
15D
100
AcDbEntity
  8
MOUNTING_HOLES_LAYER_TOP
100
AcDbCircle
 10
100.45
 20
99.0
 30
0.0
 40
0.75
  0
HATCH
  5
15E
100
AcDbEntity
  8
MOUNTING_HOLES_LAYER_TOP
100
AcDbHatch
 10
0.0
 20
0.0
 30
0.0
210
0.0
220
0.0
230
1.0
  2
SOLID
 70
         1
 71
         1
 91
        1
 92
        1
 93
        1
 72
         2
 10
100.45
 20
99.0
 40
0.75
 50
0.0
 51
360.0
 73
         1
 97
        1
330
15D
 75
         0
 76
         1
 98
        1
 10
0.0
 20
0.0
  0
CIRCLE
  5
15F
100
AcDbEntity
  8
PART_HOLES_LAYER_TOP
100
AcDbCircle
 10
86.36
 20
10.4
 30
0.0
 40
0.45
  0
HATCH
  5
160
100
AcDbEntity
  8
PART_HOLES_LAYER_TOP
100
AcDbHatch
 10
0.0
 20
0.0
 30
0.0
210
0.0
220
0.0
230
1.0
  2
SOLID
 70
         1
 71
         1
 91
        1
 92
        1
 93
        1
 72
         2
 10
86.359999999999999
 20
10.4
 40
0.45
 50
0.0
 51
360.0
 73
         1
 97
        1
330
15F
 75
         0
 76
         1
 98
        1
 10
0.0
 20
0.0
  0
CIRCLE
  5
161
100
AcDbEntity
  8
PART_HOLES_LAYER_TOP
100
AcDbCircle
 10
88.9
 20
10.4
 30
0.0
 40
0.45
  0
HATCH
  5
162
100
AcDbEntity
  8
PART_HOLES_LAYER_TOP
100
AcDbHatch
 10
0.0
 20
0.0
 30
0.0
210
0.0
220
0.0
230
1.0
  2
SOLID
 70
         1
 71
         1
 91
        1
 92
        1
 93
        1
 72
         2
 10
88.900000000000006
 20
10.4
 40
0.45
 50
0.0
 51
360.0
 73
         1
 97
        1
330
161
 75
         0
 76
         1
 98
        1
 10
0.0
 20
0.0
  0
CIRCLE
  5
163
100
AcDbEntity
  8
PART_HOLES_LAYER_TOP
100
AcDbCircle
 10
109.0
 20
6.4
 30
0.0
 40
0.4
  0
HATCH
  5
164
100
AcDbEntity
  8
PART_HOLES_LAYER_TOP
100
AcDbHatch
 10
0.0
 20
0.0
 30
0.0
210
0.0
220
0.0
230
1.0
  2
SOLID
 70
         1
 71
         1
 91
        1
 92
        1
 93
        1
 72
         2
 10
109.0
 20
6.4000000000000004
 40
0.4
 50
0.0
 51
360.0
 73
         1
 97
        1
330
163
 75
         0
 76
         1
 98
        1
 10
0.0
 20
0.0
  0
CIRCLE
  5
165
100
AcDbEntity
  8
PART_HOLES_LAYER_TOP
100
AcDbCircle
 10
109.0
 20
4.4
 30
0.0
 40
0.4
  0
HATCH
  5
166
100
AcDbEntity
  8
PART_HOLES_LAYER_TOP
100
AcDbHatch
 10
0.0
 20
0.0
 30
0.0
210
0.0
220
0.0
230
1.0
  2
SOLID
 70
         1
 71
         1
 91
        1
 92
        1
 93
        1
 72
         2
 10
109.0
 20
4.4000000000000004
 40
0.4
 50
0.0
 51
360.0
 73
         1
 97
        1
330
165
 75
         0
 76
         1
 98
        1
 10
0.0
 20
0.0
  0
CIRCLE
  5
167
100
AcDbEntity
  8
PART_HOLES_LAYER_TOP
100
AcDbCircle
 10
107.0
 20
6.4
 30
0.0
 40
0.4
  0
HATCH
  5
168
100
AcDbEntity
  8
PART_HOLES_LAYER_TOP
100
AcDbHatch
 10
0.0
 20
0.0
 30
0.0
210
0.0
220
0.0
230
1.0
  2
SOLID
 70
         1
 71
         1
 91
        1
 92
        1
 93
        1
 72
         2
 10
107.0
 20
6.4000000000000004
 40
0.4
 50
0.0
 51
360.0
 73
         1
 97
        1
330
167
 75
         0
 76
         1
 98
        1
 10
0.0
 20
0.0
  0
CIRCLE
  5
169
100
AcDbEntity
  8
PART_HOLES_LAYER_TOP
100
AcDbCircle
 10
107.0
 20
4.4
 30
0.0
 40
0.4
  0
HATCH
  5
16A
100
AcDbEntity
  8
PART_HOLES_LAYER_TOP
100
AcDbHatch
 10
0.0
 20
0.0
 30
0.0
210
0.0
220
0.0
230
1.0
  2
SOLID
 70
         1
 71
         1
 91
        1
 92
        1
 93
        1
 72
         2
 10
107.0
 20
4.4000000000000004
 40
0.4
 50
0.0
 51
360.0
 73
         1
 97
        1
330
169
 75
         0
 76
         1
 98
        1
 10
0.0
 20
0.0
  0
CIRCLE
  5
16B
100
AcDbEntity
  8
PART_HOLES_LAYER_TOP
100
AcDbCircle
 10
105.0
 20
6.4
 30
0.0
 40
0.4
  0
HATCH
  5
16C
100
AcDbEntity
  8
PART_HOLES_LAYER_TOP
100
AcDbHatch
 10
0.0
 20
0.0
 30
0.0
210
0.0
220
0.0
230
1.0
  2
SOLID
 70
         1
 71
         1
 91
        1
 92
        1
 93
        1
 72
         2
 10
105.0
 20
6.4000000000000004
 40
0.4
 50
0.0
 51
360.0
 73
         1
 97
        1
330
16B
 75
         0
 76
         1
 98
        1
 10
0.0
 20
0.0
  0
CIRCLE
  5
16D
100
AcDbEntity
  8
PART_HOLES_LAYER_TOP
100
AcDbCircle
 10
105.0
 20
4.4
 30
0.0
 40
0.4
  0
HATCH
  5
16E
100
AcDbEntity
  8
PART_HOLES_LAYER_TOP
100
AcDbHatch
 10
0.0
 20
0.0
 30
0.0
210
0.0
220
0.0
230
1.0
  2
SOLID
 70
         1
 71
         1
 91
        1
 92
        1
 93
        1
 72
         2
 10
105.0
 20
4.4000000000000004
 40
0.4
 50
0.0
 51
360.0
 73
         1
 97
        1
330
16D
 75
         0
 76
         1
 98
        1
 10
0.0
 20
0.0
  0
CIRCLE
  5
16F
100
AcDbEntity
  8
PART_HOLES_LAYER_TOP
100
AcDbCircle
 10
103.0
 20
6.4
 30
0.0
 40
0.4
  0
HATCH
  5
170
100
AcDbEntity
  8
PART_HOLES_LAYER_TOP
100
AcDbHatch
 10
0.0
 20
0.0
 30
0.0
210
0.0
220
0.0
230
1.0
  2
SOLID
 70
         1
 71
         1
 91
        1
 92
        1
 93
        1
 72
         2
 10
103.0
 20
6.4000000000000004
 40
0.4
 50
0.0
 51
360.0
 73
         1
 97
        1
330
16F
 75
         0
 76
         1
 98
        1
 10
0.0
 20
0.0
  0
CIRCLE
  5
171
100
AcDbEntity
  8
PART_HOLES_LAYER_TOP
100
AcDbCircle
 10
103.0
 20
4.4
 30
0.0
 40
0.4
  0
HATCH
  5
172
100
AcDbEntity
  8
PART_HOLES_LAYER_TOP
100
AcDbHatch
 10
0.0
 20
0.0
 30
0.0
210
0.0
220
0.0
230
1.0
  2
SOLID
 70
         1
 71
         1
 91
        1
 92
        1
 93
        1
 72
         2
 10
103.0
 20
4.4000000000000004
 40
0.4
 50
0.0
 51
360.0
 73
         1
 97
        1
330
171
 75
         0
 76
         1
 98
        1
 10
0.0
 20
0.0
  0
CIRCLE
  5
173
100
AcDbEntity
  8
PART_HOLES_LAYER_TOP
100
AcDbCircle
 10
101.0
 20
6.4
 30
0.0
 40
0.4
  0
HATCH
  5
174
100
AcDbEntity
  8
PART_HOLES_LAYER_TOP
100
AcDbHatch
 10
0.0
 20
0.0
 30
0.0
210
0.0
220
0.0
230
1.0
  2
SOLID
 70
         1
 71
         1
 91
        1
 92
        1
 93
        1
 72
         2
 10
101.0
 20
6.4000000000000004
 40
0.4
 50
0.0
 51
360.0
 73
         1
 97
        1
330
173
 75
         0
 76
         1
 98
        1
 10
0.0
 20
0.0
  0
CIRCLE
  5
175
100
AcDbEntity
  8
PART_HOLES_LAYER_TOP
100
AcDbCircle
 10
101.0
 20
4.4
 30
0.0
 40
0.4
  0
HATCH
  5
176
100
AcDbEntity
  8
PART_HOLES_LAYER_TOP
100
AcDbHatch
 10
0.0
 20
0.0
 30
0.0
210
0.0
220
0.0
230
1.0
  2
SOLID
 70
         1
 71
         1
 91
        1
 92
        1
 93
        1
 72
         2
 10
101.0
 20
4.4000000000000004
 40
0.4
 50
0.0
 51
360.0
 73
         1
 97
        1
330
175
 75
         0
 76
         1
 98
        1
 10
0.0
 20
0.0
  0
CIRCLE
  5
177
100
AcDbEntity
  8
PART_HOLES_LAYER_TOP
100
AcDbCircle
 10
99.0
 20
6.4
 30
0.0
 40
0.4
  0
HATCH
  5
178
100
AcDbEntity
  8
PART_HOLES_LAYER_TOP
100
AcDbHatch
 10
0.0
 20
0.0
 30
0.0
210
0.0
220
0.0
230
1.0
  2
SOLID
 70
         1
 71
         1
 91
        1
 92
        1
 93
        1
 72
         2
 10
99.0
 20
6.4000000000000004
 40
0.4
 50
0.0
 51
360.0
 73
         1
 97
        1
330
177
 75
         0
 76
         1
 98
        1
 10
0.0
 20
0.0
  0
CIRCLE
  5
179
100
AcDbEntity
  8
PART_HOLES_LAYER_TOP
100
AcDbCircle
 10
99.0
 20
4.4
 30
0.0
 40
0.4
  0
HATCH
  5
17A
100
AcDbEntity
  8
PART_HOLES_LAYER_TOP
100
AcDbHatch
 10
0.0
 20
0.0
 30
0.0
210
0.0
220
0.0
230
1.0
  2
SOLID
 70
         1
 71
         1
 91
        1
 92
        1
 93
        1
 72
         2
 10
99.0
 20
4.4000000000000004
 40
0.4
 50
0.0
 51
360.0
 73
         1
 97
        1
330
179
 75
         0
 76
         1
 98
        1
 10
0.0
 20
0.0
  0
CIRCLE
  5
17B
100
AcDbEntity
  8
PART_HOLES_LAYER_TOP
100
AcDbCircle
 10
97.0
 20
6.4
 30
0.0
 40
0.4
  0
HATCH
  5
17C
100
AcDbEntity
  8
PART_HOLES_LAYER_TOP
100
AcDbHatch
 10
0.0
 20
0.0
 30
0.0
210
0.0
220
0.0
230
1.0
  2
SOLID
 70
         1
 71
         1
 91
        1
 92
        1
 93
        1
 72
         2
 10
97.0
 20
6.4000000000000004
 40
0.4
 50
0.0
 51
360.0
 73
         1
 97
        1
330
17B
 75
         0
 76
         1
 98
        1
 10
0.0
 20
0.0
  0
CIRCLE
  5
17D
100
AcDbEntity
  8
PART_HOLES_LAYER_TOP
100
AcDbCircle
 10
97.0
 20
4.4
 30
0.0
 40
0.4
  0
HATCH
  5
17E
100
AcDbEntity
  8
PART_HOLES_LAYER_TOP
100
AcDbHatch
 10
0.0
 20
0.0
 30
0.0
210
0.0
220
0.0
230
1.0
  2
SOLID
 70
         1
 71
         1
 91
        1
 92
        1
 93
        1
 72
         2
 10
97.0
 20
4.4000000000000004
 40
0.4
 50
0.0
 51
360.0
 73
         1
 97
        1
330
17D
 75
         0
 76
         1
 98
        1
 10
0.0
 20
0.0
  0
CIRCLE
  5
17F
100
AcDbEntity
  8
PART_HOLES_LAYER_TOP
100
AcDbCircle
 10
95.0
 20
6.4
 30
0.0
 40
0.4
  0
HATCH
  5
180
100
AcDbEntity
  8
PART_HOLES_LAYER_TOP
100
AcDbHatch
 10
0.0
 20
0.0
 30
0.0
210
0.0
220
0.0
230
1.0
  2
SOLID
 70
         1
 71
         1
 91
        1
 92
        1
 93
        1
 72
         2
 10
95.0
 20
6.4000000000000004
 40
0.4
 50
0.0
 51
360.0
 73
         1
 97
        1
330
17F
 75
         0
 76
         1
 98
        1
 10
0.0
 20
0.0
  0
CIRCLE
  5
181
100
AcDbEntity
  8
PART_HOLES_LAYER_TOP
100
AcDbCircle
 10
95.0
 20
4.4
 30
0.0
 40
0.4
  0
HATCH
  5
182
100
AcDbEntity
  8
PART_HOLES_LAYER_TOP
100
AcDbHatch
 10
0.0
 20
0.0
 30
0.0
210
0.0
220
0.0
230
1.0
  2
SOLID
 70
         1
 71
         1
 91
        1
 92
        1
 93
        1
 72
         2
 10
95.0
 20
4.4000000000000004
 40
0.4
 50
0.0
 51
360.0
 73
         1
 97
        1
330
181
 75
         0
 76
         1
 98
        1
 10
0.0
 20
0.0
  0
CIRCLE
  5
183
100
AcDbEntity
  8
PART_HOLES_LAYER_TOP
100
AcDbCircle
 10
93.0
 20
6.4
 30
0.0
 40
0.4
  0
HATCH
  5
184
100
AcDbEntity
  8
PART_HOLES_LAYER_TOP
100
AcDbHatch
 10
0.0
 20
0.0
 30
0.0
210
0.0
220
0.0
230
1.0
  2
SOLID
 70
         1
 71
         1
 91
        1
 92
        1
 93
        1
 72
         2
 10
93.0
 20
6.4000000000000004
 40
0.4
 50
0.0
 51
360.0
 73
         1
 97
        1
330
183
 75
         0
 76
         1
 98
        1
 10
0.0
 20
0.0
  0
CIRCLE
  5
185
100
AcDbEntity
  8
PART_HOLES_LAYER_TOP
100
AcDbCircle
 10
93.0
 20
4.4
 30
0.0
 40
0.4
  0
HATCH
  5
186
100
AcDbEntity
  8
PART_HOLES_LAYER_TOP
100
AcDbHatch
 10
0.0
 20
0.0
 30
0.0
210
0.0
220
0.0
230
1.0
  2
SOLID
 70
         1
 71
         1
 91
        1
 92
        1
 93
        1
 72
         2
 10
93.0
 20
4.4000000000000004
 40
0.4
 50
0.0
 51
360.0
 73
         1
 97
        1
330
185
 75
         0
 76
         1
 98
        1
 10
0.0
 20
0.0
  0
CIRCLE
  5
187
100
AcDbEntity
  8
PART_HOLES_LAYER_TOP
100
AcDbCircle
 10
91.0
 20
6.4
 30
0.0
 40
0.4
  0
HATCH
  5
188
100
AcDbEntity
  8
PART_HOLES_LAYER_TOP
100
AcDbHatch
 10
0.0
 20
0.0
 30
0.0
210
0.0
220
0.0
230
1.0
  2
SOLID
 70
         1
 71
         1
 91
        1
 92
        1
 93
        1
 72
         2
 10
91.0
 20
6.4000000000000004
 40
0.4
 50
0.0
 51
360.0
 73
         1
 97
        1
330
187
 75
         0
 76
         1
 98
        1
 10
0.0
 20
0.0
  0
CIRCLE
  5
189
100
AcDbEntity
  8
PART_HOLES_LAYER_TOP
100
AcDbCircle
 10
91.0
 20
4.4
 30
0.0
 40
0.4
  0
HATCH
  5
18A
100
AcDbEntity
  8
PART_HOLES_LAYER_TOP
100
AcDbHatch
 10
0.0
 20
0.0
 30
0.0
210
0.0
220
0.0
230
1.0
  2
SOLID
 70
         1
 71
         1
 91
        1
 92
        1
 93
        1
 72
         2
 10
91.0
 20
4.4000000000000004
 40
0.4
 50
0.0
 51
360.0
 73
         1
 97
        1
330
189
 75
         0
 76
         1
 98
        1
 10
0.0
 20
0.0
  0
CIRCLE
  5
18B
100
AcDbEntity
  8
PART_HOLES_LAYER_TOP
100
AcDbCircle
 10
89.0
 20
6.4
 30
0.0
 40
0.4
  0
HATCH
  5
18C
100
AcDbEntity
  8
PART_HOLES_LAYER_TOP
100
AcDbHatch
 10
0.0
 20
0.0
 30
0.0
210
0.0
220
0.0
230
1.0
  2
SOLID
 70
         1
 71
         1
 91
        1
 92
        1
 93
        1
 72
         2
 10
89.0
 20
6.4000000000000004
 40
0.4
 50
0.0
 51
360.0
 73
         1
 97
        1
330
18B
 75
         0
 76
         1
 98
        1
 10
0.0
 20
0.0
  0
CIRCLE
  5
18D
100
AcDbEntity
  8
PART_HOLES_LAYER_TOP
100
AcDbCircle
 10
89.0
 20
4.4
 30
0.0
 40
0.4
  0
HATCH
  5
18E
100
AcDbEntity
  8
PART_HOLES_LAYER_TOP
100
AcDbHatch
 10
0.0
 20
0.0
 30
0.0
210
0.0
220
0.0
230
1.0
  2
SOLID
 70
         1
 71
         1
 91
        1
 92
        1
 93
        1
 72
         2
 10
89.0
 20
4.4000000000000004
 40
0.4
 50
0.0
 51
360.0
 73
         1
 97
        1
330
18D
 75
         0
 76
         1
 98
        1
 10
0.0
 20
0.0
  0
CIRCLE
  5
18F
100
AcDbEntity
  8
PART_HOLES_LAYER_TOP
100
AcDbCircle
 10
87.0
 20
6.4
 30
0.0
 40
0.4
  0
HATCH
  5
190
100
AcDbEntity
  8
PART_HOLES_LAYER_TOP
100
AcDbHatch
 10
0.0
 20
0.0
 30
0.0
210
0.0
220
0.0
230
1.0
  2
SOLID
 70
         1
 71
         1
 91
        1
 92
        1
 93
        1
 72
         2
 10
87.0
 20
6.4000000000000004
 40
0.4
 50
0.0
 51
360.0
 73
         1
 97
        1
330
18F
 75
         0
 76
         1
 98
        1
 10
0.0
 20
0.0
  0
CIRCLE
  5
191
100
AcDbEntity
  8
PART_HOLES_LAYER_TOP
100
AcDbCircle
 10
87.0
 20
4.4
 30
0.0
 40
0.4
  0
HATCH
  5
192
100
AcDbEntity
  8
PART_HOLES_LAYER_TOP
100
AcDbHatch
 10
0.0
 20
0.0
 30
0.0
210
0.0
220
0.0
230
1.0
  2
SOLID
 70
         1
 71
         1
 91
        1
 92
        1
 93
        1
 72
         2
 10
87.0
 20
4.4000000000000004
 40
0.4
 50
0.0
 51
360.0
 73
         1
 97
        1
330
191
 75
         0
 76
         1
 98
        1
 10
0.0
 20
0.0
  0
CIRCLE
  5
193
100
AcDbEntity
  8
PART_HOLES_LAYER_TOP
100
AcDbCircle
 10
85.0
 20
6.4
 30
0.0
 40
0.4
  0
HATCH
  5
194
100
AcDbEntity
  8
PART_HOLES_LAYER_TOP
100
AcDbHatch
 10
0.0
 20
0.0
 30
0.0
210
0.0
220
0.0
230
1.0
  2
SOLID
 70
         1
 71
         1
 91
        1
 92
        1
 93
        1
 72
         2
 10
85.0
 20
6.4000000000000004
 40
0.4
 50
0.0
 51
360.0
 73
         1
 97
        1
330
193
 75
         0
 76
         1
 98
        1
 10
0.0
 20
0.0
  0
CIRCLE
  5
195
100
AcDbEntity
  8
PART_HOLES_LAYER_TOP
100
AcDbCircle
 10
85.0
 20
4.4
 30
0.0
 40
0.4
  0
HATCH
  5
196
100
AcDbEntity
  8
PART_HOLES_LAYER_TOP
100
AcDbHatch
 10
0.0
 20
0.0
 30
0.0
210
0.0
220
0.0
230
1.0
  2
SOLID
 70
         1
 71
         1
 91
        1
 92
        1
 93
        1
 72
         2
 10
85.0
 20
4.4000000000000004
 40
0.4
 50
0.0
 51
360.0
 73
         1
 97
        1
330
195
 75
         0
 76
         1
 98
        1
 10
0.0
 20
0.0
  0
CIRCLE
  5
197
100
AcDbEntity
  8
PART_HOLES_LAYER_TOP
100
AcDbCircle
 10
83.0
 20
6.4
 30
0.0
 40
0.4
  0
HATCH
  5
198
100
AcDbEntity
  8
PART_HOLES_LAYER_TOP
100
AcDbHatch
 10
0.0
 20
0.0
 30
0.0
210
0.0
220
0.0
230
1.0
  2
SOLID
 70
         1
 71
         1
 91
        1
 92
        1
 93
        1
 72
         2
 10
83.0
 20
6.4000000000000004
 40
0.4
 50
0.0
 51
360.0
 73
         1
 97
        1
330
197
 75
         0
 76
         1
 98
        1
 10
0.0
 20
0.0
  0
CIRCLE
  5
199
100
AcDbEntity
  8
PART_HOLES_LAYER_TOP
100
AcDbCircle
 10
83.0
 20
4.4
 30
0.0
 40
0.4
  0
HATCH
  5
19A
100
AcDbEntity
  8
PART_HOLES_LAYER_TOP
100
AcDbHatch
 10
0.0
 20
0.0
 30
0.0
210
0.0
220
0.0
230
1.0
  2
SOLID
 70
         1
 71
         1
 91
        1
 92
        1
 93
        1
 72
         2
 10
83.0
 20
4.4000000000000004
 40
0.4
 50
0.0
 51
360.0
 73
         1
 97
        1
330
199
 75
         0
 76
         1
 98
        1
 10
0.0
 20
0.0
  0
CIRCLE
  5
19B
100
AcDbEntity
  8
PART_HOLES_LAYER_TOP
100
AcDbCircle
 10
81.0
 20
6.4
 30
0.0
 40
0.4
  0
HATCH
  5
19C
100
AcDbEntity
  8
PART_HOLES_LAYER_TOP
100
AcDbHatch
 10
0.0
 20
0.0
 30
0.0
210
0.0
220
0.0
230
1.0
  2
SOLID
 70
         1
 71
         1
 91
        1
 92
        1
 93
        1
 72
         2
 10
81.0
 20
6.4000000000000004
 40
0.4
 50
0.0
 51
360.0
 73
         1
 97
        1
330
19B
 75
         0
 76
         1
 98
        1
 10
0.0
 20
0.0
  0
CIRCLE
  5
19D
100
AcDbEntity
  8
PART_HOLES_LAYER_TOP
100
AcDbCircle
 10
81.0
 20
4.4
 30
0.0
 40
0.4
  0
HATCH
  5
19E
100
AcDbEntity
  8
PART_HOLES_LAYER_TOP
100
AcDbHatch
 10
0.0
 20
0.0
 30
0.0
210
0.0
220
0.0
230
1.0
  2
SOLID
 70
         1
 71
         1
 91
        1
 92
        1
 93
        1
 72
         2
 10
81.0
 20
4.4000000000000004
 40
0.4
 50
0.0
 51
360.0
 73
         1
 97
        1
330
19D
 75
         0
 76
         1
 98
        1
 10
0.0
 20
0.0
  0
CIRCLE
  5
19F
100
AcDbEntity
  8
PART_HOLES_LAYER_TOP
100
AcDbCircle
 10
79.0
 20
6.4
 30
0.0
 40
0.4
  0
HATCH
  5
1A0
100
AcDbEntity
  8
PART_HOLES_LAYER_TOP
100
AcDbHatch
 10
0.0
 20
0.0
 30
0.0
210
0.0
220
0.0
230
1.0
  2
SOLID
 70
         1
 71
         1
 91
        1
 92
        1
 93
        1
 72
         2
 10
79.0
 20
6.4000000000000004
 40
0.4
 50
0.0
 51
360.0
 73
         1
 97
        1
330
19F
 75
         0
 76
         1
 98
        1
 10
0.0
 20
0.0
  0
CIRCLE
  5
1A1
100
AcDbEntity
  8
PART_HOLES_LAYER_TOP
100
AcDbCircle
 10
79.0
 20
4.4
 30
0.0
 40
0.4
  0
HATCH
  5
1A2
100
AcDbEntity
  8
PART_HOLES_LAYER_TOP
100
AcDbHatch
 10
0.0
 20
0.0
 30
0.0
210
0.0
220
0.0
230
1.0
  2
SOLID
 70
         1
 71
         1
 91
        1
 92
        1
 93
        1
 72
         2
 10
79.0
 20
4.4000000000000004
 40
0.4
 50
0.0
 51
360.0
 73
         1
 97
        1
330
1A1
 75
         0
 76
         1
 98
        1
 10
0.0
 20
0.0
  0
CIRCLE
  5
1A3
100
AcDbEntity
  8
PART_HOLES_LAYER_TOP
100
AcDbCircle
 10
77.0
 20
6.4
 30
0.0
 40
0.4
  0
HATCH
  5
1A4
100
AcDbEntity
  8
PART_HOLES_LAYER_TOP
100
AcDbHatch
 10
0.0
 20
0.0
 30
0.0
210
0.0
220
0.0
230
1.0
  2
SOLID
 70
         1
 71
         1
 91
        1
 92
        1
 93
        1
 72
         2
 10
77.0
 20
6.4000000000000004
 40
0.4
 50
0.0
 51
360.0
 73
         1
 97
        1
330
1A3
 75
         0
 76
         1
 98
        1
 10
0.0
 20
0.0
  0
CIRCLE
  5
1A5
100
AcDbEntity
  8
PART_HOLES_LAYER_TOP
100
AcDbCircle
 10
77.0
 20
4.4
 30
0.0
 40
0.4
  0
HATCH
  5
1A6
100
AcDbEntity
  8
PART_HOLES_LAYER_TOP
100
AcDbHatch
 10
0.0
 20
0.0
 30
0.0
210
0.0
220
0.0
230
1.0
  2
SOLID
 70
         1
 71
         1
 91
        1
 92
        1
 93
        1
 72
         2
 10
77.0
 20
4.4000000000000004
 40
0.4
 50
0.0
 51
360.0
 73
         1
 97
        1
330
1A5
 75
         0
 76
         1
 98
        1
 10
0.0
 20
0.0
  0
CIRCLE
  5
1A7
100
AcDbEntity
  8
PART_HOLES_LAYER_TOP
100
AcDbCircle
 10
75.0
 20
6.4
 30
0.0
 40
0.4
  0
HATCH
  5
1A8
100
AcDbEntity
  8
PART_HOLES_LAYER_TOP
100
AcDbHatch
 10
0.0
 20
0.0
 30
0.0
210
0.0
220
0.0
230
1.0
  2
SOLID
 70
         1
 71
         1
 91
        1
 92
        1
 93
        1
 72
         2
 10
75.0
 20
6.4000000000000004
 40
0.4
 50
0.0
 51
360.0
 73
         1
 97
        1
330
1A7
 75
         0
 76
         1
 98
        1
 10
0.0
 20
0.0
  0
CIRCLE
  5
1A9
100
AcDbEntity
  8
PART_HOLES_LAYER_TOP
100
AcDbCircle
 10
75.0
 20
4.4
 30
0.0
 40
0.4
  0
HATCH
  5
1AA
100
AcDbEntity
  8
PART_HOLES_LAYER_TOP
100
AcDbHatch
 10
0.0
 20
0.0
 30
0.0
210
0.0
220
0.0
230
1.0
  2
SOLID
 70
         1
 71
         1
 91
        1
 92
        1
 93
        1
 72
         2
 10
75.0
 20
4.4000000000000004
 40
0.4
 50
0.0
 51
360.0
 73
         1
 97
        1
330
1A9
 75
         0
 76
         1
 98
        1
 10
0.0
 20
0.0
  0
CIRCLE
  5
1AB
100
AcDbEntity
  8
PART_HOLES_LAYER_TOP
100
AcDbCircle
 10
73.0
 20
6.4
 30
0.0
 40
0.4
  0
HATCH
  5
1AC
100
AcDbEntity
  8
PART_HOLES_LAYER_TOP
100
AcDbHatch
 10
0.0
 20
0.0
 30
0.0
210
0.0
220
0.0
230
1.0
  2
SOLID
 70
         1
 71
         1
 91
        1
 92
        1
 93
        1
 72
         2
 10
73.0
 20
6.4000000000000004
 40
0.4
 50
0.0
 51
360.0
 73
         1
 97
        1
330
1AB
 75
         0
 76
         1
 98
        1
 10
0.0
 20
0.0
  0
CIRCLE
  5
1AD
100
AcDbEntity
  8
PART_HOLES_LAYER_TOP
100
AcDbCircle
 10
73.0
 20
4.4
 30
0.0
 40
0.4
  0
HATCH
  5
1AE
100
AcDbEntity
  8
PART_HOLES_LAYER_TOP
100
AcDbHatch
 10
0.0
 20
0.0
 30
0.0
210
0.0
220
0.0
230
1.0
  2
SOLID
 70
         1
 71
         1
 91
        1
 92
        1
 93
        1
 72
         2
 10
73.0
 20
4.4000000000000004
 40
0.4
 50
0.0
 51
360.0
 73
         1
 97
        1
330
1AD
 75
         0
 76
         1
 98
        1
 10
0.0
 20
0.0
  0
CIRCLE
  5
1AF
100
AcDbEntity
  8
PART_HOLES_LAYER_TOP
100
AcDbCircle
 10
71.0
 20
6.4
 30
0.0
 40
0.4
  0
HATCH
  5
1B0
100
AcDbEntity
  8
PART_HOLES_LAYER_TOP
100
AcDbHatch
 10
0.0
 20
0.0
 30
0.0
210
0.0
220
0.0
230
1.0
  2
SOLID
 70
         1
 71
         1
 91
        1
 92
        1
 93
        1
 72
         2
 10
71.0
 20
6.4000000000000004
 40
0.4
 50
0.0
 51
360.0
 73
         1
 97
        1
330
1AF
 75
         0
 76
         1
 98
        1
 10
0.0
 20
0.0
  0
CIRCLE
  5
1B1
100
AcDbEntity
  8
PART_HOLES_LAYER_TOP
100
AcDbCircle
 10
71.0
 20
4.4
 30
0.0
 40
0.4
  0
HATCH
  5
1B2
100
AcDbEntity
  8
PART_HOLES_LAYER_TOP
100
AcDbHatch
 10
0.0
 20
0.0
 30
0.0
210
0.0
220
0.0
230
1.0
  2
SOLID
 70
         1
 71
         1
 91
        1
 92
        1
 93
        1
 72
         2
 10
71.0
 20
4.4000000000000004
 40
0.4
 50
0.0
 51
360.0
 73
         1
 97
        1
330
1B1
 75
         0
 76
         1
 98
        1
 10
0.0
 20
0.0
  0
CIRCLE
  5
1B3
100
AcDbEntity
  8
PART_HOLES_LAYER_TOP
100
AcDbCircle
 10
124.939998
 20
99.8
 30
0.0
 40
1.4
  0
HATCH
  5
1B4
100
AcDbEntity
  8
PART_HOLES_LAYER_TOP
100
AcDbHatch
 10
0.0
 20
0.0
 30
0.0
210
0.0
220
0.0
230
1.0
  2
SOLID
 70
         1
 71
         1
 91
        1
 92
        1
 93
        1
 72
         2
 10
124.939998
 20
99.799999999999997
 40
1.3999999999999999
 50
0.0
 51
360.0
 73
         1
 97
        1
330
1B3
 75
         0
 76
         1
 98
        1
 10
0.0
 20
0.0
  0
CIRCLE
  5
1B5
100
AcDbEntity
  8
PART_HOLES_LAYER_TOP
100
AcDbCircle
 10
128.14
 20
104.5
 30
0.0
 40
1.4
  0
HATCH
  5
1B6
100
AcDbEntity
  8
PART_HOLES_LAYER_TOP
100
AcDbHatch
 10
0.0
 20
0.0
 30
0.0
210
0.0
220
0.0
230
1.0
  2
SOLID
 70
         1
 71
         1
 91
        1
 92
        1
 93
        1
 72
         2
 10
128.13999999999999
 20
104.5
 40
1.3999999999999999
 50
0.0
 51
360.0
 73
         1
 97
        1
330
1B5
 75
         0
 76
         1
 98
        1
 10
0.0
 20
0.0
  0
CIRCLE
  5
1B7
100
AcDbEntity
  8
PART_HOLES_LAYER_TOP
100
AcDbCircle
 10
131.139998
 20
99.8
 30
0.0
 40
1.4
  0
HATCH
  5
1B8
100
AcDbEntity
  8
PART_HOLES_LAYER_TOP
100
AcDbHatch
 10
0.0
 20
0.0
 30
0.0
210
0.0
220
0.0
230
1.0
  2
SOLID
 70
         1
 71
         1
 91
        1
 92
        1
 93
        1
 72
         2
 10
131.13999799999999
 20
99.799999999999997
 40
1.3999999999999999
 50
0.0
 51
360.0
 73
         1
 97
        1
330
1B7
 75
         0
 76
         1
 98
        1
 10
0.0
 20
0.0
  0
CIRCLE
  5
1B9
100
AcDbEntity
  8
PART_HOLES_LAYER_TOP
100
AcDbCircle
 10
80.0
 20
96.9
 30
0.0
 40
0.45
  0
HATCH
  5
1BA
100
AcDbEntity
  8
PART_HOLES_LAYER_TOP
100
AcDbHatch
 10
0.0
 20
0.0
 30
0.0
210
0.0
220
0.0
230
1.0
  2
SOLID
 70
         1
 71
         1
 91
        1
 92
        1
 93
        1
 72
         2
 10
80.0
 20
96.900000000000006
 40
0.45
 50
0.0
 51
360.0
 73
         1
 97
        1
330
1B9
 75
         0
 76
         1
 98
        1
 10
0.0
 20
0.0
  0
CIRCLE
  5
1BB
100
AcDbEntity
  8
PART_HOLES_LAYER_TOP
100
AcDbCircle
 10
80.0
 20
99.44
 30
0.0
 40
0.45
  0
HATCH
  5
1BC
100
AcDbEntity
  8
PART_HOLES_LAYER_TOP
100
AcDbHatch
 10
0.0
 20
0.0
 30
0.0
210
0.0
220
0.0
230
1.0
  2
SOLID
 70
         1
 71
         1
 91
        1
 92
        1
 93
        1
 72
         2
 10
80.0
 20
99.439999999999998
 40
0.45
 50
0.0
 51
360.0
 73
         1
 97
        1
330
1BB
 75
         0
 76
         1
 98
        1
 10
0.0
 20
0.0
  0
CIRCLE
  5
1BD
100
AcDbEntity
  8
PART_HOLES_LAYER_TOP
100
AcDbCircle
 10
80.0
 20
101.98
 30
0.0
 40
0.45
  0
HATCH
  5
1BE
100
AcDbEntity
  8
PART_HOLES_LAYER_TOP
100
AcDbHatch
 10
0.0
 20
0.0
 30
0.0
210
0.0
220
0.0
230
1.0
  2
SOLID
 70
         1
 71
         1
 91
        1
 92
        1
 93
        1
 72
         2
 10
80.0
 20
101.98
 40
0.45
 50
0.0
 51
360.0
 73
         1
 97
        1
330
1BD
 75
         0
 76
         1
 98
        1
 10
0.0
 20
0.0
  0
CIRCLE
  5
1BF
100
AcDbEntity
  8
PART_HOLES_LAYER_TOP
100
AcDbCircle
 10
121.7
 20
7.955
 30
0.0
 40
0.45
  0
HATCH
  5
1C0
100
AcDbEntity
  8
PART_HOLES_LAYER_TOP
100
AcDbHatch
 10
0.0
 20
0.0
 30
0.0
210
0.0
220
0.0
230
1.0
  2
SOLID
 70
         1
 71
         1
 91
        1
 92
        1
 93
        1
 72
         2
 10
121.7
 20
7.9550000000000001
 40
0.45
 50
0.0
 51
360.0
 73
         1
 97
        1
330
1BF
 75
         0
 76
         1
 98
        1
 10
0.0
 20
0.0
  0
CIRCLE
  5
1C1
100
AcDbEntity
  8
PART_HOLES_LAYER_TOP
100
AcDbCircle
 10
121.7
 20
10.495
 30
0.0
 40
0.45
  0
HATCH
  5
1C2
100
AcDbEntity
  8
PART_HOLES_LAYER_TOP
100
AcDbHatch
 10
0.0
 20
0.0
 30
0.0
210
0.0
220
0.0
230
1.0
  2
SOLID
 70
         1
 71
         1
 91
        1
 92
        1
 93
        1
 72
         2
 10
121.7
 20
10.494999999999999
 40
0.45
 50
0.0
 51
360.0
 73
         1
 97
        1
330
1C1
 75
         0
 76
         1
 98
        1
 10
0.0
 20
0.0
  0
CIRCLE
  5
1C3
100
AcDbEntity
  8
PART_HOLES_LAYER_TOP
100
AcDbCircle
 10
121.7
 20
13.035
 30
0.0
 40
0.45
  0
HATCH
  5
1C4
100
AcDbEntity
  8
PART_HOLES_LAYER_TOP
100
AcDbHatch
 10
0.0
 20
0.0
 30
0.0
210
0.0
220
0.0
230
1.0
  2
SOLID
 70
         1
 71
         1
 91
        1
 92
        1
 93
        1
 72
         2
 10
121.7
 20
13.035
 40
0.45
 50
0.0
 51
360.0
 73
         1
 97
        1
330
1C3
 75
         0
 76
         1
 98
        1
 10
0.0
 20
0.0
  0
CIRCLE
  5
1C5
100
AcDbEntity
  8
PART_HOLES_LAYER_TOP
100
AcDbCircle
 10
119.16
 20
11.765
 30
0.0
 40
0.45
  0
HATCH
  5
1C6
100
AcDbEntity
  8
PART_HOLES_LAYER_TOP
100
AcDbHatch
 10
0.0
 20
0.0
 30
0.0
210
0.0
220
0.0
230
1.0
  2
SOLID
 70
         1
 71
         1
 91
        1
 92
        1
 93
        1
 72
         2
 10
119.16
 20
11.765000000000001
 40
0.45
 50
0.0
 51
360.0
 73
         1
 97
        1
330
1C5
 75
         0
 76
         1
 98
        1
 10
0.0
 20
0.0
  0
CIRCLE
  5
1C7
100
AcDbEntity
  8
PART_HOLES_LAYER_TOP
100
AcDbCircle
 10
125.0
 20
20.27
 30
0.0
 40
0.95
  0
HATCH
  5
1C8
100
AcDbEntity
  8
PART_HOLES_LAYER_TOP
100
AcDbHatch
 10
0.0
 20
0.0
 30
0.0
210
0.0
220
0.0
230
1.0
  2
SOLID
 70
         1
 71
         1
 91
        1
 92
        1
 93
        1
 72
         2
 10
125.0
 20
20.27
 40
0.95
 50
0.0
 51
360.0
 73
         1
 97
        1
330
1C7
 75
         0
 76
         1
 98
        1
 10
0.0
 20
0.0
  0
CIRCLE
  5
1C9
100
AcDbEntity
  8
PART_HOLES_LAYER_TOP
100
AcDbCircle
 10
119.16
 20
14.305
 30
0.0
 40
0.45
  0
HATCH
  5
1CA
100
AcDbEntity
  8
PART_HOLES_LAYER_TOP
100
AcDbHatch
 10
0.0
 20
0.0
 30
0.0
210
0.0
220
0.0
230
1.0
  2
SOLID
 70
         1
 71
         1
 91
        1
 92
        1
 93
        1
 72
         2
 10
119.16
 20
14.305
 40
0.45
 50
0.0
 51
360.0
 73
         1
 97
        1
330
1C9
 75
         0
 76
         1
 98
        1
 10
0.0
 20
0.0
  0
CIRCLE
  5
1CB
100
AcDbEntity
  8
PART_HOLES_LAYER_TOP
100
AcDbCircle
 10
133.13
 20
6.07
 30
0.0
 40
0.6
  0
HATCH
  5
1CC
100
AcDbEntity
  8
PART_HOLES_LAYER_TOP
100
AcDbHatch
 10
0.0
 20
0.0
 30
0.0
210
0.0
220
0.0
230
1.0
  2
SOLID
 70
         1
 71
         1
 91
        1
 92
        1
 93
        1
 72
         2
 10
133.13
 20
6.0700000000000003
 40
0.6
 50
0.0
 51
360.0
 73
         1
 97
        1
330
1CB
 75
         0
 76
         1
 98
        1
 10
0.0
 20
0.0
  0
CIRCLE
  5
1CD
100
AcDbEntity
  8
PART_HOLES_LAYER_TOP
100
AcDbCircle
 10
114.33
 20
6.94
 30
0.0
 40
0.75
  0
HATCH
  5
1CE
100
AcDbEntity
  8
PART_HOLES_LAYER_TOP
100
AcDbHatch
 10
0.0
 20
0.0
 30
0.0
210
0.0
220
0.0
230
1.0
  2
SOLID
 70
         1
 71
         1
 91
        1
 92
        1
 93
        1
 72
         2
 10
114.33
 20
6.9400000000000004
 40
0.75
 50
0.0
 51
360.0
 73
         1
 97
        1
330
1CD
 75
         0
 76
         1
 98
        1
 10
0.0
 20
0.0
  0
CIRCLE
  5
1CF
100
AcDbEntity
  8
PART_HOLES_LAYER_TOP
100
AcDbCircle
 10
131.43
 20
8.61
 30
0.0
 40
0.6
  0
HATCH
  5
1D0
100
AcDbEntity
  8
PART_HOLES_LAYER_TOP
100
AcDbHatch
 10
0.0
 20
0.0
 30
0.0
210
0.0
220
0.0
230
1.0
  2
SOLID
 70
         1
 71
         1
 91
        1
 92
        1
 93
        1
 72
         2
 10
131.43000000000001
 20
8.6099999999999994
 40
0.6
 50
0.0
 51
360.0
 73
         1
 97
        1
330
1CF
 75
         0
 76
         1
 98
        1
 10
0.0
 20
0.0
  0
CIRCLE
  5
1D1
100
AcDbEntity
  8
PART_HOLES_LAYER_TOP
100
AcDbCircle
 10
114.33
 20
9.48
 30
0.0
 40
0.75
  0
HATCH
  5
1D2
100
AcDbEntity
  8
PART_HOLES_LAYER_TOP
100
AcDbHatch
 10
0.0
 20
0.0
 30
0.0
210
0.0
220
0.0
230
1.0
  2
SOLID
 70
         1
 71
         1
 91
        1
 92
        1
 93
        1
 72
         2
 10
114.33
 20
9.4800000000000004
 40
0.75
 50
0.0
 51
360.0
 73
         1
 97
        1
330
1D1
 75
         0
 76
         1
 98
        1
 10
0.0
 20
0.0
  0
CIRCLE
  5
1D3
100
AcDbEntity
  8
PART_HOLES_LAYER_TOP
100
AcDbCircle
 10
133.13
 20
16.19
 30
0.0
 40
0.6
  0
HATCH
  5
1D4
100
AcDbEntity
  8
PART_HOLES_LAYER_TOP
100
AcDbHatch
 10
0.0
 20
0.0
 30
0.0
210
0.0
220
0.0
230
1.0
  2
SOLID
 70
         1
 71
         1
 91
        1
 92
        1
 93
        1
 72
         2
 10
133.13
 20
16.190000000000001
 40
0.6
 50
0.0
 51
360.0
 73
         1
 97
        1
330
1D3
 75
         0
 76
         1
 98
        1
 10
0.0
 20
0.0
  0
CIRCLE
  5
1D5
100
AcDbEntity
  8
PART_HOLES_LAYER_TOP
100
AcDbCircle
 10
114.33
 20
15.32
 30
0.0
 40
0.75
  0
HATCH
  5
1D6
100
AcDbEntity
  8
PART_HOLES_LAYER_TOP
100
AcDbHatch
 10
0.0
 20
0.0
 30
0.0
210
0.0
220
0.0
230
1.0
  2
SOLID
 70
         1
 71
         1
 91
        1
 92
        1
 93
        1
 72
         2
 10
114.33
 20
15.32
 40
0.75
 50
0.0
 51
360.0
 73
         1
 97
        1
330
1D5
 75
         0
 76
         1
 98
        1
 10
0.0
 20
0.0
  0
CIRCLE
  5
1D7
100
AcDbEntity
  8
PART_HOLES_LAYER_TOP
100
AcDbCircle
 10
125.0
 20
4.53
 30
0.0
 40
0.95
  0
HATCH
  5
1D8
100
AcDbEntity
  8
PART_HOLES_LAYER_TOP
100
AcDbHatch
 10
0.0
 20
0.0
 30
0.0
210
0.0
220
0.0
230
1.0
  2
SOLID
 70
         1
 71
         1
 91
        1
 92
        1
 93
        1
 72
         2
 10
125.0
 20
4.5300000000000002
 40
0.95
 50
0.0
 51
360.0
 73
         1
 97
        1
330
1D7
 75
         0
 76
         1
 98
        1
 10
0.0
 20
0.0
  0
CIRCLE
  5
1D9
100
AcDbEntity
  8
PART_HOLES_LAYER_TOP
100
AcDbCircle
 10
131.43
 20
18.73
 30
0.0
 40
0.6
  0
HATCH
  5
1DA
100
AcDbEntity
  8
PART_HOLES_LAYER_TOP
100
AcDbHatch
 10
0.0
 20
0.0
 30
0.0
210
0.0
220
0.0
230
1.0
  2
SOLID
 70
         1
 71
         1
 91
        1
 92
        1
 93
        1
 72
         2
 10
131.43000000000001
 20
18.73
 40
0.6
 50
0.0
 51
360.0
 73
         1
 97
        1
330
1D9
 75
         0
 76
         1
 98
        1
 10
0.0
 20
0.0
  0
CIRCLE
  5
1DB
100
AcDbEntity
  8
PART_HOLES_LAYER_TOP
100
AcDbCircle
 10
114.33
 20
17.86
 30
0.0
 40
0.75
  0
HATCH
  5
1DC
100
AcDbEntity
  8
PART_HOLES_LAYER_TOP
100
AcDbHatch
 10
0.0
 20
0.0
 30
0.0
210
0.0
220
0.0
230
1.0
  2
SOLID
 70
         1
 71
         1
 91
        1
 92
        1
 93
        1
 72
         2
 10
114.33
 20
17.859999999999999
 40
0.75
 50
0.0
 51
360.0
 73
         1
 97
        1
330
1DB
 75
         0
 76
         1
 98
        1
 10
0.0
 20
0.0
  0
CIRCLE
  5
1DD
100
AcDbEntity
  8
PART_HOLES_LAYER_TOP
100
AcDbCircle
 10
121.7
 20
15.575
 30
0.0
 40
0.45
  0
HATCH
  5
1DE
100
AcDbEntity
  8
PART_HOLES_LAYER_TOP
100
AcDbHatch
 10
0.0
 20
0.0
 30
0.0
210
0.0
220
0.0
230
1.0
  2
SOLID
 70
         1
 71
         1
 91
        1
 92
        1
 93
        1
 72
         2
 10
121.7
 20
15.574999999999999
 40
0.45
 50
0.0
 51
360.0
 73
         1
 97
        1
330
1DD
 75
         0
 76
         1
 98
        1
 10
0.0
 20
0.0
  0
CIRCLE
  5
1DF
100
AcDbEntity
  8
PART_HOLES_LAYER_TOP
100
AcDbCircle
 10
119.16
 20
16.845
 30
0.0
 40
0.45
  0
HATCH
  5
1E0
100
AcDbEntity
  8
PART_HOLES_LAYER_TOP
100
AcDbHatch
 10
0.0
 20
0.0
 30
0.0
210
0.0
220
0.0
230
1.0
  2
SOLID
 70
         1
 71
         1
 91
        1
 92
        1
 93
        1
 72
         2
 10
119.16
 20
16.844999999999999
 40
0.45
 50
0.0
 51
360.0
 73
         1
 97
        1
330
1DF
 75
         0
 76
         1
 98
        1
 10
0.0
 20
0.0
  0
CIRCLE
  5
1E1
100
AcDbEntity
  8
PART_HOLES_LAYER_TOP
100
AcDbCircle
 10
119.16
 20
9.225
 30
0.0
 40
0.45
  0
HATCH
  5
1E2
100
AcDbEntity
  8
PART_HOLES_LAYER_TOP
100
AcDbHatch
 10
0.0
 20
0.0
 30
0.0
210
0.0
220
0.0
230
1.0
  2
SOLID
 70
         1
 71
         1
 91
        1
 92
        1
 93
        1
 72
         2
 10
119.16
 20
9.2249999999999996
 40
0.45
 50
0.0
 51
360.0
 73
         1
 97
        1
330
1E1
 75
         0
 76
         1
 98
        1
 10
0.0
 20
0.0
  0
CIRCLE
  5
1E3
100
AcDbEntity
  8
PART_HOLES_LAYER_TOP
100
AcDbCircle
 10
78.8
 20
77.370002
 30
0.0
 40
0.45
  0
HATCH
  5
1E4
100
AcDbEntity
  8
PART_HOLES_LAYER_TOP
100
AcDbHatch
 10
0.0
 20
0.0
 30
0.0
210
0.0
220
0.0
230
1.0
  2
SOLID
 70
         1
 71
         1
 91
        1
 92
        1
 93
        1
 72
         2
 10
78.799999999999997
 20
77.370001999999999
 40
0.45
 50
0.0
 51
360.0
 73
         1
 97
        1
330
1E3
 75
         0
 76
         1
 98
        1
 10
0.0
 20
0.0
  0
CIRCLE
  5
1E5
100
AcDbEntity
  8
PART_HOLES_LAYER_TOP
100
AcDbCircle
 10
78.8
 20
74.83
 30
0.0
 40
0.45
  0
HATCH
  5
1E6
100
AcDbEntity
  8
PART_HOLES_LAYER_TOP
100
AcDbHatch
 10
0.0
 20
0.0
 30
0.0
210
0.0
220
0.0
230
1.0
  2
SOLID
 70
         1
 71
         1
 91
        1
 92
        1
 93
        1
 72
         2
 10
78.799999999999997
 20
74.829999999999998
 40
0.45
 50
0.0
 51
360.0
 73
         1
 97
        1
330
1E5
 75
         0
 76
         1
 98
        1
 10
0.0
 20
0.0
  0
CIRCLE
  5
1E7
100
AcDbEntity
  8
PART_HOLES_LAYER_TOP
100
AcDbCircle
 10
126.4
 20
36.45
 30
0.0
 40
0.6
  0
HATCH
  5
1E8
100
AcDbEntity
  8
PART_HOLES_LAYER_TOP
100
AcDbHatch
 10
0.0
 20
0.0
 30
0.0
210
0.0
220
0.0
230
1.0
  2
SOLID
 70
         1
 71
         1
 91
        1
 92
        1
 93
        1
 72
         2
 10
126.40000000000001
 20
36.450000000000003
 40
0.6
 50
0.0
 51
360.0
 73
         1
 97
        1
330
1E7
 75
         0
 76
         1
 98
        1
 10
0.0
 20
0.0
  0
CIRCLE
  5
1E9
100
AcDbEntity
  8
PART_HOLES_LAYER_TOP
100
AcDbCircle
 10
126.4
 20
30.91
 30
0.0
 40
0.6
  0
HATCH
  5
1EA
100
AcDbEntity
  8
PART_HOLES_LAYER_TOP
100
AcDbHatch
 10
0.0
 20
0.0
 30
0.0
210
0.0
220
0.0
230
1.0
  2
SOLID
 70
         1
 71
         1
 91
        1
 92
        1
 93
        1
 72
         2
 10
126.40000000000001
 20
30.91
 40
0.6
 50
0.0
 51
360.0
 73
         1
 97
        1
330
1E9
 75
         0
 76
         1
 98
        1
 10
0.0
 20
0.0
  0
CIRCLE
  5
1EB
100
AcDbEntity
  8
PART_HOLES_LAYER_TOP
100
AcDbCircle
 10
126.4
 20
33.68
 30
0.0
 40
0.6
  0
HATCH
  5
1EC
100
AcDbEntity
  8
PART_HOLES_LAYER_TOP
100
AcDbHatch
 10
0.0
 20
0.0
 30
0.0
210
0.0
220
0.0
230
1.0
  2
SOLID
 70
         1
 71
         1
 91
        1
 92
        1
 93
        1
 72
         2
 10
126.40000000000001
 20
33.68
 40
0.6
 50
0.0
 51
360.0
 73
         1
 97
        1
330
1EB
 75
         0
 76
         1
 98
        1
 10
0.0
 20
0.0
  0
CIRCLE
  5
1ED
100
AcDbEntity
  8
PART_HOLES_LAYER_TOP
100
AcDbCircle
 10
126.4
 20
39.22
 30
0.0
 40
0.6
  0
HATCH
  5
1EE
100
AcDbEntity
  8
PART_HOLES_LAYER_TOP
100
AcDbHatch
 10
0.0
 20
0.0
 30
0.0
210
0.0
220
0.0
230
1.0
  2
SOLID
 70
         1
 71
         1
 91
        1
 92
        1
 93
        1
 72
         2
 10
126.40000000000001
 20
39.219999999999999
 40
0.6
 50
0.0
 51
360.0
 73
         1
 97
        1
330
1ED
 75
         0
 76
         1
 98
        1
 10
0.0
 20
0.0
  0
CIRCLE
  5
1EF
100
AcDbEntity
  8
PART_HOLES_LAYER_TOP
100
AcDbCircle
 10
126.4
 20
41.99
 30
0.0
 40
0.6
  0
HATCH
  5
1F0
100
AcDbEntity
  8
PART_HOLES_LAYER_TOP
100
AcDbHatch
 10
0.0
 20
0.0
 30
0.0
210
0.0
220
0.0
230
1.0
  2
SOLID
 70
         1
 71
         1
 91
        1
 92
        1
 93
        1
 72
         2
 10
126.40000000000001
 20
41.990000000000002
 40
0.6
 50
0.0
 51
360.0
 73
         1
 97
        1
330
1EF
 75
         0
 76
         1
 98
        1
 10
0.0
 20
0.0
  0
CIRCLE
  5
1F1
100
AcDbEntity
  8
PART_HOLES_LAYER_TOP
100
AcDbCircle
 10
129.24
 20
32.295
 30
0.0
 40
0.6
  0
HATCH
  5
1F2
100
AcDbEntity
  8
PART_HOLES_LAYER_TOP
100
AcDbHatch
 10
0.0
 20
0.0
 30
0.0
210
0.0
220
0.0
230
1.0
  2
SOLID
 70
         1
 71
         1
 91
        1
 92
        1
 93
        1
 72
         2
 10
129.24000000000001
 20
32.295000000000002
 40
0.6
 50
0.0
 51
360.0
 73
         1
 97
        1
330
1F1
 75
         0
 76
         1
 98
        1
 10
0.0
 20
0.0
  0
CIRCLE
  5
1F3
100
AcDbEntity
  8
PART_HOLES_LAYER_TOP
100
AcDbCircle
 10
129.24
 20
35.065
 30
0.0
 40
0.6
  0
HATCH
  5
1F4
100
AcDbEntity
  8
PART_HOLES_LAYER_TOP
100
AcDbHatch
 10
0.0
 20
0.0
 30
0.0
210
0.0
220
0.0
230
1.0
  2
SOLID
 70
         1
 71
         1
 91
        1
 92
        1
 93
        1
 72
         2
 10
129.24000000000001
 20
35.064999999999998
 40
0.6
 50
0.0
 51
360.0
 73
         1
 97
        1
330
1F3
 75
         0
 76
         1
 98
        1
 10
0.0
 20
0.0
  0
CIRCLE
  5
1F5
100
AcDbEntity
  8
PART_HOLES_LAYER_TOP
100
AcDbCircle
 10
129.24
 20
37.835
 30
0.0
 40
0.6
  0
HATCH
  5
1F6
100
AcDbEntity
  8
PART_HOLES_LAYER_TOP
100
AcDbHatch
 10
0.0
 20
0.0
 30
0.0
210
0.0
220
0.0
230
1.0
  2
SOLID
 70
         1
 71
         1
 91
        1
 92
        1
 93
        1
 72
         2
 10
129.24000000000001
 20
37.835000000000001
 40
0.6
 50
0.0
 51
360.0
 73
         1
 97
        1
330
1F5
 75
         0
 76
         1
 98
        1
 10
0.0
 20
0.0
  0
CIRCLE
  5
1F7
100
AcDbEntity
  8
PART_HOLES_LAYER_TOP
100
AcDbCircle
 10
129.24
 20
40.605
 30
0.0
 40
0.6
  0
HATCH
  5
1F8
100
AcDbEntity
  8
PART_HOLES_LAYER_TOP
100
AcDbHatch
 10
0.0
 20
0.0
 30
0.0
210
0.0
220
0.0
230
1.0
  2
SOLID
 70
         1
 71
         1
 91
        1
 92
        1
 93
        1
 72
         2
 10
129.24000000000001
 20
40.604999999999997
 40
0.6
 50
0.0
 51
360.0
 73
         1
 97
        1
330
1F7
 75
         0
 76
         1
 98
        1
 10
0.0
 20
0.0
  0
CIRCLE
  5
1F9
100
AcDbEntity
  8
PART_HOLES_LAYER_TOP
100
AcDbCircle
 10
127.82
 20
48.95
 30
0.0
 40
1.5
  0
HATCH
  5
1FA
100
AcDbEntity
  8
PART_HOLES_LAYER_TOP
100
AcDbHatch
 10
0.0
 20
0.0
 30
0.0
210
0.0
220
0.0
230
1.0
  2
SOLID
 70
         1
 71
         1
 91
        1
 92
        1
 93
        1
 72
         2
 10
127.81999999999999
 20
48.950000000000003
 40
1.5
 50
0.0
 51
360.0
 73
         1
 97
        1
330
1F9
 75
         0
 76
         1
 98
        1
 10
0.0
 20
0.0
  0
CIRCLE
  5
1FB
100
AcDbEntity
  8
PART_HOLES_LAYER_TOP
100
AcDbCircle
 10
127.82
 20
23.95
 30
0.0
 40
1.5
  0
HATCH
  5
1FC
100
AcDbEntity
  8
PART_HOLES_LAYER_TOP
100
AcDbHatch
 10
0.0
 20
0.0
 30
0.0
210
0.0
220
0.0
230
1.0
  2
SOLID
 70
         1
 71
         1
 91
        1
 92
        1
 93
        1
 72
         2
 10
127.81999999999999
 20
23.949999999999999
 40
1.5
 50
0.0
 51
360.0
 73
         1
 97
        1
330
1FB
 75
         0
 76
         1
 98
        1
 10
0.0
 20
0.0
  0
CIRCLE
  5
1FD
100
AcDbEntity
  8
PART_HOLES_LAYER_TOP
100
AcDbCircle
 10
127.1
 20
72.6
 30
0.0
 40
0.45
  0
HATCH
  5
1FE
100
AcDbEntity
  8
PART_HOLES_LAYER_TOP
100
AcDbHatch
 10
0.0
 20
0.0
 30
0.0
210
0.0
220
0.0
230
1.0
  2
SOLID
 70
         1
 71
         1
 91
        1
 92
        1
 93
        1
 72
         2
 10
127.09999999999999
 20
72.599999999999994
 40
0.45
 50
0.0
 51
360.0
 73
         1
 97
        1
330
1FD
 75
         0
 76
         1
 98
        1
 10
0.0
 20
0.0
  0
CIRCLE
  5
1FF
100
AcDbEntity
  8
PART_HOLES_LAYER_TOP
100
AcDbCircle
 10
127.1
 20
75.14
 30
0.0
 40
0.45
  0
HATCH
  5
200
100
AcDbEntity
  8
PART_HOLES_LAYER_TOP
100
AcDbHatch
 10
0.0
 20
0.0
 30
0.0
210
0.0
220
0.0
230
1.0
  2
SOLID
 70
         1
 71
         1
 91
        1
 92
        1
 93
        1
 72
         2
 10
127.09999999999999
 20
75.140000000000001
 40
0.45
 50
0.0
 51
360.0
 73
         1
 97
        1
330
1FF
 75
         0
 76
         1
 98
        1
 10
0.0
 20
0.0
  0
CIRCLE
  5
201
100
AcDbEntity
  8
PART_HOLES_LAYER_TOP
100
AcDbCircle
 10
125.84
 20
63.26
 30
0.0
 40
0.45
  0
HATCH
  5
202
100
AcDbEntity
  8
PART_HOLES_LAYER_TOP
100
AcDbHatch
 10
0.0
 20
0.0
 30
0.0
210
0.0
220
0.0
230
1.0
  2
SOLID
 70
         1
 71
         1
 91
        1
 92
        1
 93
        1
 72
         2
 10
125.84
 20
63.259999999999998
 40
0.45
 50
0.0
 51
360.0
 73
         1
 97
        1
330
201
 75
         0
 76
         1
 98
        1
 10
0.0
 20
0.0
  0
CIRCLE
  5
203
100
AcDbEntity
  8
PART_HOLES_LAYER_TOP
100
AcDbCircle
 10
125.84
 20
56.26
 30
0.0
 40
0.45
  0
HATCH
  5
204
100
AcDbEntity
  8
PART_HOLES_LAYER_TOP
100
AcDbHatch
 10
0.0
 20
0.0
 30
0.0
210
0.0
220
0.0
230
1.0
  2
SOLID
 70
         1
 71
         1
 91
        1
 92
        1
 93
        1
 72
         2
 10
125.84
 20
56.259999999999998
 40
0.45
 50
0.0
 51
360.0
 73
         1
 97
        1
330
203
 75
         0
 76
         1
 98
        1
 10
0.0
 20
0.0
  0
CIRCLE
  5
205
100
AcDbEntity
  8
PART_HOLES_LAYER_TOP
100
AcDbCircle
 10
128.56
 20
66.36
 30
0.0
 40
1.25
  0
HATCH
  5
206
100
AcDbEntity
  8
PART_HOLES_LAYER_TOP
100
AcDbHatch
 10
0.0
 20
0.0
 30
0.0
210
0.0
220
0.0
230
1.0
  2
SOLID
 70
         1
 71
         1
 91
        1
 92
        1
 93
        1
 72
         2
 10
128.56
 20
66.359999999999999
 40
1.25
 50
0.0
 51
360.0
 73
         1
 97
        1
330
205
 75
         0
 76
         1
 98
        1
 10
0.0
 20
0.0
  0
CIRCLE
  5
207
100
AcDbEntity
  8
PART_HOLES_LAYER_TOP
100
AcDbCircle
 10
128.56
 20
53.16
 30
0.0
 40
1.25
  0
HATCH
  5
208
100
AcDbEntity
  8
PART_HOLES_LAYER_TOP
100
AcDbHatch
 10
0.0
 20
0.0
 30
0.0
210
0.0
220
0.0
230
1.0
  2
SOLID
 70
         1
 71
         1
 91
        1
 92
        1
 93
        1
 72
         2
 10
128.56
 20
53.159999999999997
 40
1.25
 50
0.0
 51
360.0
 73
         1
 97
        1
330
207
 75
         0
 76
         1
 98
        1
 10
0.0
 20
0.0
  0
CIRCLE
  5
209
100
AcDbEntity
  8
PART_HOLES_LAYER_TOP
100
AcDbCircle
 10
125.84
 20
58.76
 30
0.0
 40
0.45
  0
HATCH
  5
20A
100
AcDbEntity
  8
PART_HOLES_LAYER_TOP
100
AcDbHatch
 10
0.0
 20
0.0
 30
0.0
210
0.0
220
0.0
230
1.0
  2
SOLID
 70
         1
 71
         1
 91
        1
 92
        1
 93
        1
 72
         2
 10
125.84
 20
58.759999999999998
 40
0.45
 50
0.0
 51
360.0
 73
         1
 97
        1
330
209
 75
         0
 76
         1
 98
        1
 10
0.0
 20
0.0
  0
CIRCLE
  5
20B
100
AcDbEntity
  8
PART_HOLES_LAYER_TOP
100
AcDbCircle
 10
125.84
 20
60.76
 30
0.0
 40
0.45
  0
HATCH
  5
20C
100
AcDbEntity
  8
PART_HOLES_LAYER_TOP
100
AcDbHatch
 10
0.0
 20
0.0
 30
0.0
210
0.0
220
0.0
230
1.0
  2
SOLID
 70
         1
 71
         1
 91
        1
 92
        1
 93
        1
 72
         2
 10
125.84
 20
60.759999999999998
 40
0.45
 50
0.0
 51
360.0
 73
         1
 97
        1
330
20B
 75
         0
 76
         1
 98
        1
 10
0.0
 20
0.0
  0
CIRCLE
  5
20D
100
AcDbEntity
  8
PART_HOLES_LAYER_TOP
100
AcDbCircle
 10
119.0
 20
54.1
 30
0.0
 40
0.45
  0
HATCH
  5
20E
100
AcDbEntity
  8
PART_HOLES_LAYER_TOP
100
AcDbHatch
 10
0.0
 20
0.0
 30
0.0
210
0.0
220
0.0
230
1.0
  2
SOLID
 70
         1
 71
         1
 91
        1
 92
        1
 93
        1
 72
         2
 10
119.0
 20
54.100000000000001
 40
0.45
 50
0.0
 51
360.0
 73
         1
 97
        1
330
20D
 75
         0
 76
         1
 98
        1
 10
0.0
 20
0.0
  0
CIRCLE
  5
20F
100
AcDbEntity
  8
PART_HOLES_LAYER_TOP
100
AcDbCircle
 10
121.54
 20
31.24
 30
0.0
 40
0.45
  0
HATCH
  5
210
100
AcDbEntity
  8
PART_HOLES_LAYER_TOP
100
AcDbHatch
 10
0.0
 20
0.0
 30
0.0
210
0.0
220
0.0
230
1.0
  2
SOLID
 70
         1
 71
         1
 91
        1
 92
        1
 93
        1
 72
         2
 10
121.54000000000001
 20
31.239999999999998
 40
0.45
 50
0.0
 51
360.0
 73
         1
 97
        1
330
20F
 75
         0
 76
         1
 98
        1
 10
0.0
 20
0.0
  0
CIRCLE
  5
211
100
AcDbEntity
  8
PART_HOLES_LAYER_TOP
100
AcDbCircle
 10
121.54
 20
33.78
 30
0.0
 40
0.45
  0
HATCH
  5
212
100
AcDbEntity
  8
PART_HOLES_LAYER_TOP
100
AcDbHatch
 10
0.0
 20
0.0
 30
0.0
210
0.0
220
0.0
230
1.0
  2
SOLID
 70
         1
 71
         1
 91
        1
 92
        1
 93
        1
 72
         2
 10
121.54000000000001
 20
33.780000000000001
 40
0.45
 50
0.0
 51
360.0
 73
         1
 97
        1
330
211
 75
         0
 76
         1
 98
        1
 10
0.0
 20
0.0
  0
CIRCLE
  5
213
100
AcDbEntity
  8
PART_HOLES_LAYER_TOP
100
AcDbCircle
 10
121.54
 20
36.32
 30
0.0
 40
0.45
  0
HATCH
  5
214
100
AcDbEntity
  8
PART_HOLES_LAYER_TOP
100
AcDbHatch
 10
0.0
 20
0.0
 30
0.0
210
0.0
220
0.0
230
1.0
  2
SOLID
 70
         1
 71
         1
 91
        1
 92
        1
 93
        1
 72
         2
 10
121.54000000000001
 20
36.32
 40
0.45
 50
0.0
 51
360.0
 73
         1
 97
        1
330
213
 75
         0
 76
         1
 98
        1
 10
0.0
 20
0.0
  0
CIRCLE
  5
215
100
AcDbEntity
  8
PART_HOLES_LAYER_TOP
100
AcDbCircle
 10
121.54
 20
51.56
 30
0.0
 40
0.45
  0
HATCH
  5
216
100
AcDbEntity
  8
PART_HOLES_LAYER_TOP
100
AcDbHatch
 10
0.0
 20
0.0
 30
0.0
210
0.0
220
0.0
230
1.0
  2
SOLID
 70
         1
 71
         1
 91
        1
 92
        1
 93
        1
 72
         2
 10
121.54000000000001
 20
51.560000000000002
 40
0.45
 50
0.0
 51
360.0
 73
         1
 97
        1
330
215
 75
         0
 76
         1
 98
        1
 10
0.0
 20
0.0
  0
CIRCLE
  5
217
100
AcDbEntity
  8
PART_HOLES_LAYER_TOP
100
AcDbCircle
 10
121.54
 20
49.02
 30
0.0
 40
0.45
  0
HATCH
  5
218
100
AcDbEntity
  8
PART_HOLES_LAYER_TOP
100
AcDbHatch
 10
0.0
 20
0.0
 30
0.0
210
0.0
220
0.0
230
1.0
  2
SOLID
 70
         1
 71
         1
 91
        1
 92
        1
 93
        1
 72
         2
 10
121.54000000000001
 20
49.020000000000003
 40
0.45
 50
0.0
 51
360.0
 73
         1
 97
        1
330
217
 75
         0
 76
         1
 98
        1
 10
0.0
 20
0.0
  0
CIRCLE
  5
219
100
AcDbEntity
  8
PART_HOLES_LAYER_TOP
100
AcDbCircle
 10
121.54
 20
46.48
 30
0.0
 40
0.45
  0
HATCH
  5
21A
100
AcDbEntity
  8
PART_HOLES_LAYER_TOP
100
AcDbHatch
 10
0.0
 20
0.0
 30
0.0
210
0.0
220
0.0
230
1.0
  2
SOLID
 70
         1
 71
         1
 91
        1
 92
        1
 93
        1
 72
         2
 10
121.54000000000001
 20
46.479999999999997
 40
0.45
 50
0.0
 51
360.0
 73
         1
 97
        1
330
219
 75
         0
 76
         1
 98
        1
 10
0.0
 20
0.0
  0
CIRCLE
  5
21B
100
AcDbEntity
  8
PART_HOLES_LAYER_TOP
100
AcDbCircle
 10
121.54
 20
43.94
 30
0.0
 40
0.45
  0
HATCH
  5
21C
100
AcDbEntity
  8
PART_HOLES_LAYER_TOP
100
AcDbHatch
 10
0.0
 20
0.0
 30
0.0
210
0.0
220
0.0
230
1.0
  2
SOLID
 70
         1
 71
         1
 91
        1
 92
        1
 93
        1
 72
         2
 10
121.54000000000001
 20
43.939999999999998
 40
0.45
 50
0.0
 51
360.0
 73
         1
 97
        1
330
21B
 75
         0
 76
         1
 98
        1
 10
0.0
 20
0.0
  0
CIRCLE
  5
21D
100
AcDbEntity
  8
PART_HOLES_LAYER_TOP
100
AcDbCircle
 10
121.54
 20
41.4
 30
0.0
 40
0.45
  0
HATCH
  5
21E
100
AcDbEntity
  8
PART_HOLES_LAYER_TOP
100
AcDbHatch
 10
0.0
 20
0.0
 30
0.0
210
0.0
220
0.0
230
1.0
  2
SOLID
 70
         1
 71
         1
 91
        1
 92
        1
 93
        1
 72
         2
 10
121.54000000000001
 20
41.399999999999999
 40
0.45
 50
0.0
 51
360.0
 73
         1
 97
        1
330
21D
 75
         0
 76
         1
 98
        1
 10
0.0
 20
0.0
  0
CIRCLE
  5
21F
100
AcDbEntity
  8
PART_HOLES_LAYER_TOP
100
AcDbCircle
 10
119.0
 20
41.4
 30
0.0
 40
0.45
  0
HATCH
  5
220
100
AcDbEntity
  8
PART_HOLES_LAYER_TOP
100
AcDbHatch
 10
0.0
 20
0.0
 30
0.0
210
0.0
220
0.0
230
1.0
  2
SOLID
 70
         1
 71
         1
 91
        1
 92
        1
 93
        1
 72
         2
 10
119.0
 20
41.399999999999999
 40
0.45
 50
0.0
 51
360.0
 73
         1
 97
        1
330
21F
 75
         0
 76
         1
 98
        1
 10
0.0
 20
0.0
  0
CIRCLE
  5
221
100
AcDbEntity
  8
PART_HOLES_LAYER_TOP
100
AcDbCircle
 10
121.54
 20
54.1
 30
0.0
 40
0.45
  0
HATCH
  5
222
100
AcDbEntity
  8
PART_HOLES_LAYER_TOP
100
AcDbHatch
 10
0.0
 20
0.0
 30
0.0
210
0.0
220
0.0
230
1.0
  2
SOLID
 70
         1
 71
         1
 91
        1
 92
        1
 93
        1
 72
         2
 10
121.54000000000001
 20
54.100000000000001
 40
0.45
 50
0.0
 51
360.0
 73
         1
 97
        1
330
221
 75
         0
 76
         1
 98
        1
 10
0.0
 20
0.0
  0
CIRCLE
  5
223
100
AcDbEntity
  8
PART_HOLES_LAYER_TOP
100
AcDbCircle
 10
121.54
 20
38.86
 30
0.0
 40
0.45
  0
HATCH
  5
224
100
AcDbEntity
  8
PART_HOLES_LAYER_TOP
100
AcDbHatch
 10
0.0
 20
0.0
 30
0.0
210
0.0
220
0.0
230
1.0
  2
SOLID
 70
         1
 71
         1
 91
        1
 92
        1
 93
        1
 72
         2
 10
121.54000000000001
 20
38.859999999999999
 40
0.45
 50
0.0
 51
360.0
 73
         1
 97
        1
330
223
 75
         0
 76
         1
 98
        1
 10
0.0
 20
0.0
  0
CIRCLE
  5
225
100
AcDbEntity
  8
PART_HOLES_LAYER_TOP
100
AcDbCircle
 10
119.0
 20
43.94
 30
0.0
 40
0.45
  0
HATCH
  5
226
100
AcDbEntity
  8
PART_HOLES_LAYER_TOP
100
AcDbHatch
 10
0.0
 20
0.0
 30
0.0
210
0.0
220
0.0
230
1.0
  2
SOLID
 70
         1
 71
         1
 91
        1
 92
        1
 93
        1
 72
         2
 10
119.0
 20
43.939999999999998
 40
0.45
 50
0.0
 51
360.0
 73
         1
 97
        1
330
225
 75
         0
 76
         1
 98
        1
 10
0.0
 20
0.0
  0
CIRCLE
  5
227
100
AcDbEntity
  8
PART_HOLES_LAYER_TOP
100
AcDbCircle
 10
119.0
 20
49.02
 30
0.0
 40
0.45
  0
HATCH
  5
228
100
AcDbEntity
  8
PART_HOLES_LAYER_TOP
100
AcDbHatch
 10
0.0
 20
0.0
 30
0.0
210
0.0
220
0.0
230
1.0
  2
SOLID
 70
         1
 71
         1
 91
        1
 92
        1
 93
        1
 72
         2
 10
119.0
 20
49.020000000000003
 40
0.45
 50
0.0
 51
360.0
 73
         1
 97
        1
330
227
 75
         0
 76
         1
 98
        1
 10
0.0
 20
0.0
  0
CIRCLE
  5
229
100
AcDbEntity
  8
PART_HOLES_LAYER_TOP
100
AcDbCircle
 10
119.0
 20
38.86
 30
0.0
 40
0.45
  0
HATCH
  5
22A
100
AcDbEntity
  8
PART_HOLES_LAYER_TOP
100
AcDbHatch
 10
0.0
 20
0.0
 30
0.0
210
0.0
220
0.0
230
1.0
  2
SOLID
 70
         1
 71
         1
 91
        1
 92
        1
 93
        1
 72
         2
 10
119.0
 20
38.859999999999999
 40
0.45
 50
0.0
 51
360.0
 73
         1
 97
        1
330
229
 75
         0
 76
         1
 98
        1
 10
0.0
 20
0.0
  0
CIRCLE
  5
22B
100
AcDbEntity
  8
PART_HOLES_LAYER_TOP
100
AcDbCircle
 10
119.0
 20
46.48
 30
0.0
 40
0.45
  0
HATCH
  5
22C
100
AcDbEntity
  8
PART_HOLES_LAYER_TOP
100
AcDbHatch
 10
0.0
 20
0.0
 30
0.0
210
0.0
220
0.0
230
1.0
  2
SOLID
 70
         1
 71
         1
 91
        1
 92
        1
 93
        1
 72
         2
 10
119.0
 20
46.479999999999997
 40
0.45
 50
0.0
 51
360.0
 73
         1
 97
        1
330
22B
 75
         0
 76
         1
 98
        1
 10
0.0
 20
0.0
  0
CIRCLE
  5
22D
100
AcDbEntity
  8
PART_HOLES_LAYER_TOP
100
AcDbCircle
 10
119.0
 20
51.56
 30
0.0
 40
0.45
  0
HATCH
  5
22E
100
AcDbEntity
  8
PART_HOLES_LAYER_TOP
100
AcDbHatch
 10
0.0
 20
0.0
 30
0.0
210
0.0
220
0.0
230
1.0
  2
SOLID
 70
         1
 71
         1
 91
        1
 92
        1
 93
        1
 72
         2
 10
119.0
 20
51.560000000000002
 40
0.45
 50
0.0
 51
360.0
 73
         1
 97
        1
330
22D
 75
         0
 76
         1
 98
        1
 10
0.0
 20
0.0
  0
CIRCLE
  5
22F
100
AcDbEntity
  8
PART_HOLES_LAYER_TOP
100
AcDbCircle
 10
119.0
 20
36.32
 30
0.0
 40
0.45
  0
HATCH
  5
230
100
AcDbEntity
  8
PART_HOLES_LAYER_TOP
100
AcDbHatch
 10
0.0
 20
0.0
 30
0.0
210
0.0
220
0.0
230
1.0
  2
SOLID
 70
         1
 71
         1
 91
        1
 92
        1
 93
        1
 72
         2
 10
119.0
 20
36.32
 40
0.45
 50
0.0
 51
360.0
 73
         1
 97
        1
330
22F
 75
         0
 76
         1
 98
        1
 10
0.0
 20
0.0
  0
CIRCLE
  5
231
100
AcDbEntity
  8
PART_HOLES_LAYER_TOP
100
AcDbCircle
 10
119.0
 20
31.24
 30
0.0
 40
0.45
  0
HATCH
  5
232
100
AcDbEntity
  8
PART_HOLES_LAYER_TOP
100
AcDbHatch
 10
0.0
 20
0.0
 30
0.0
210
0.0
220
0.0
230
1.0
  2
SOLID
 70
         1
 71
         1
 91
        1
 92
        1
 93
        1
 72
         2
 10
119.0
 20
31.239999999999998
 40
0.45
 50
0.0
 51
360.0
 73
         1
 97
        1
330
231
 75
         0
 76
         1
 98
        1
 10
0.0
 20
0.0
  0
CIRCLE
  5
233
100
AcDbEntity
  8
PART_HOLES_LAYER_TOP
100
AcDbCircle
 10
119.0
 20
33.78
 30
0.0
 40
0.45
  0
HATCH
  5
234
100
AcDbEntity
  8
PART_HOLES_LAYER_TOP
100
AcDbHatch
 10
0.0
 20
0.0
 30
0.0
210
0.0
220
0.0
230
1.0
  2
SOLID
 70
         1
 71
         1
 91
        1
 92
        1
 93
        1
 72
         2
 10
119.0
 20
33.780000000000001
 40
0.45
 50
0.0
 51
360.0
 73
         1
 97
        1
330
233
 75
         0
 76
         1
 98
        1
 10
0.0
 20
0.0
  0
CIRCLE
  5
235
100
AcDbEntity
  8
PART_HOLES_LAYER_TOP
100
AcDbCircle
 10
79.9
 20
68.24
 30
0.0
 40
0.45
  0
HATCH
  5
236
100
AcDbEntity
  8
PART_HOLES_LAYER_TOP
100
AcDbHatch
 10
0.0
 20
0.0
 30
0.0
210
0.0
220
0.0
230
1.0
  2
SOLID
 70
         1
 71
         1
 91
        1
 92
        1
 93
        1
 72
         2
 10
79.900000000000006
 20
68.239999999999995
 40
0.45
 50
0.0
 51
360.0
 73
         1
 97
        1
330
235
 75
         0
 76
         1
 98
        1
 10
0.0
 20
0.0
  0
CIRCLE
  5
237
100
AcDbEntity
  8
PART_HOLES_LAYER_TOP
100
AcDbCircle
 10
79.9
 20
63.36
 30
0.0
 40
0.45
  0
HATCH
  5
238
100
AcDbEntity
  8
PART_HOLES_LAYER_TOP
100
AcDbHatch
 10
0.0
 20
0.0
 30
0.0
210
0.0
220
0.0
230
1.0
  2
SOLID
 70
         1
 71
         1
 91
        1
 92
        1
 93
        1
 72
         2
 10
79.900000000000006
 20
63.359999999999999
 40
0.45
 50
0.0
 51
360.0
 73
         1
 97
        1
330
237
 75
         0
 76
         1
 98
        1
 10
0.0
 20
0.0
  0
CIRCLE
  5
239
100
AcDbEntity
  8
PART_HOLES_LAYER_TOP
100
AcDbCircle
 10
73.0
 20
64.7
 30
0.0
 40
0.4
  0
HATCH
  5
23A
100
AcDbEntity
  8
PART_HOLES_LAYER_TOP
100
AcDbHatch
 10
0.0
 20
0.0
 30
0.0
210
0.0
220
0.0
230
1.0
  2
SOLID
 70
         1
 71
         1
 91
        1
 92
        1
 93
        1
 72
         2
 10
73.0
 20
64.700000000000003
 40
0.4
 50
0.0
 51
360.0
 73
         1
 97
        1
330
239
 75
         0
 76
         1
 98
        1
 10
0.0
 20
0.0
  0
CIRCLE
  5
23B
100
AcDbEntity
  8
PART_HOLES_LAYER_TOP
100
AcDbCircle
 10
71.0
 20
64.7
 30
0.0
 40
0.4
  0
HATCH
  5
23C
100
AcDbEntity
  8
PART_HOLES_LAYER_TOP
100
AcDbHatch
 10
0.0
 20
0.0
 30
0.0
210
0.0
220
0.0
230
1.0
  2
SOLID
 70
         1
 71
         1
 91
        1
 92
        1
 93
        1
 72
         2
 10
71.0
 20
64.700000000000003
 40
0.4
 50
0.0
 51
360.0
 73
         1
 97
        1
330
23B
 75
         0
 76
         1
 98
        1
 10
0.0
 20
0.0
  0
CIRCLE
  5
23D
100
AcDbEntity
  8
PART_HOLES_LAYER_TOP
100
AcDbCircle
 10
73.0
 20
66.7
 30
0.0
 40
0.4
  0
HATCH
  5
23E
100
AcDbEntity
  8
PART_HOLES_LAYER_TOP
100
AcDbHatch
 10
0.0
 20
0.0
 30
0.0
210
0.0
220
0.0
230
1.0
  2
SOLID
 70
         1
 71
         1
 91
        1
 92
        1
 93
        1
 72
         2
 10
73.0
 20
66.700000000000003
 40
0.4
 50
0.0
 51
360.0
 73
         1
 97
        1
330
23D
 75
         0
 76
         1
 98
        1
 10
0.0
 20
0.0
  0
CIRCLE
  5
23F
100
AcDbEntity
  8
PART_HOLES_LAYER_TOP
100
AcDbCircle
 10
71.0
 20
66.7
 30
0.0
 40
0.4
  0
HATCH
  5
240
100
AcDbEntity
  8
PART_HOLES_LAYER_TOP
100
AcDbHatch
 10
0.0
 20
0.0
 30
0.0
210
0.0
220
0.0
230
1.0
  2
SOLID
 70
         1
 71
         1
 91
        1
 92
        1
 93
        1
 72
         2
 10
71.0
 20
66.700000000000003
 40
0.4
 50
0.0
 51
360.0
 73
         1
 97
        1
330
23F
 75
         0
 76
         1
 98
        1
 10
0.0
 20
0.0
  0
CIRCLE
  5
241
100
AcDbEntity
  8
PART_HOLES_LAYER_TOP
100
AcDbCircle
 10
73.0
 20
68.7
 30
0.0
 40
0.4
  0
HATCH
  5
242
100
AcDbEntity
  8
PART_HOLES_LAYER_TOP
100
AcDbHatch
 10
0.0
 20
0.0
 30
0.0
210
0.0
220
0.0
230
1.0
  2
SOLID
 70
         1
 71
         1
 91
        1
 92
        1
 93
        1
 72
         2
 10
73.0
 20
68.700000000000003
 40
0.4
 50
0.0
 51
360.0
 73
         1
 97
        1
330
241
 75
         0
 76
         1
 98
        1
 10
0.0
 20
0.0
  0
CIRCLE
  5
243
100
AcDbEntity
  8
PART_HOLES_LAYER_TOP
100
AcDbCircle
 10
71.0
 20
68.7
 30
0.0
 40
0.4
  0
HATCH
  5
244
100
AcDbEntity
  8
PART_HOLES_LAYER_TOP
100
AcDbHatch
 10
0.0
 20
0.0
 30
0.0
210
0.0
220
0.0
230
1.0
  2
SOLID
 70
         1
 71
         1
 91
        1
 92
        1
 93
        1
 72
         2
 10
71.0
 20
68.700000000000003
 40
0.4
 50
0.0
 51
360.0
 73
         1
 97
        1
330
243
 75
         0
 76
         1
 98
        1
 10
0.0
 20
0.0
  0
CIRCLE
  5
245
100
AcDbEntity
  8
PART_HOLES_LAYER_TOP
100
AcDbCircle
 10
73.0
 20
70.7
 30
0.0
 40
0.4
  0
HATCH
  5
246
100
AcDbEntity
  8
PART_HOLES_LAYER_TOP
100
AcDbHatch
 10
0.0
 20
0.0
 30
0.0
210
0.0
220
0.0
230
1.0
  2
SOLID
 70
         1
 71
         1
 91
        1
 92
        1
 93
        1
 72
         2
 10
73.0
 20
70.700000000000003
 40
0.4
 50
0.0
 51
360.0
 73
         1
 97
        1
330
245
 75
         0
 76
         1
 98
        1
 10
0.0
 20
0.0
  0
CIRCLE
  5
247
100
AcDbEntity
  8
PART_HOLES_LAYER_TOP
100
AcDbCircle
 10
71.0
 20
70.7
 30
0.0
 40
0.4
  0
HATCH
  5
248
100
AcDbEntity
  8
PART_HOLES_LAYER_TOP
100
AcDbHatch
 10
0.0
 20
0.0
 30
0.0
210
0.0
220
0.0
230
1.0
  2
SOLID
 70
         1
 71
         1
 91
        1
 92
        1
 93
        1
 72
         2
 10
71.0
 20
70.700000000000003
 40
0.4
 50
0.0
 51
360.0
 73
         1
 97
        1
330
247
 75
         0
 76
         1
 98
        1
 10
0.0
 20
0.0
  0
CIRCLE
  5
249
100
AcDbEntity
  8
PART_HOLES_LAYER_TOP
100
AcDbCircle
 10
73.0
 20
72.7
 30
0.0
 40
0.4
  0
HATCH
  5
24A
100
AcDbEntity
  8
PART_HOLES_LAYER_TOP
100
AcDbHatch
 10
0.0
 20
0.0
 30
0.0
210
0.0
220
0.0
230
1.0
  2
SOLID
 70
         1
 71
         1
 91
        1
 92
        1
 93
        1
 72
         2
 10
73.0
 20
72.700000000000003
 40
0.4
 50
0.0
 51
360.0
 73
         1
 97
        1
330
249
 75
         0
 76
         1
 98
        1
 10
0.0
 20
0.0
  0
CIRCLE
  5
24B
100
AcDbEntity
  8
PART_HOLES_LAYER_TOP
100
AcDbCircle
 10
71.0
 20
72.7
 30
0.0
 40
0.4
  0
HATCH
  5
24C
100
AcDbEntity
  8
PART_HOLES_LAYER_TOP
100
AcDbHatch
 10
0.0
 20
0.0
 30
0.0
210
0.0
220
0.0
230
1.0
  2
SOLID
 70
         1
 71
         1
 91
        1
 92
        1
 93
        1
 72
         2
 10
71.0
 20
72.700000000000003
 40
0.4
 50
0.0
 51
360.0
 73
         1
 97
        1
330
24B
 75
         0
 76
         1
 98
        1
 10
0.0
 20
0.0
  0
CIRCLE
  5
24D
100
AcDbEntity
  8
PART_HOLES_LAYER_TOP
100
AcDbCircle
 10
73.0
 20
74.7
 30
0.0
 40
0.4
  0
HATCH
  5
24E
100
AcDbEntity
  8
PART_HOLES_LAYER_TOP
100
AcDbHatch
 10
0.0
 20
0.0
 30
0.0
210
0.0
220
0.0
230
1.0
  2
SOLID
 70
         1
 71
         1
 91
        1
 92
        1
 93
        1
 72
         2
 10
73.0
 20
74.700000000000003
 40
0.4
 50
0.0
 51
360.0
 73
         1
 97
        1
330
24D
 75
         0
 76
         1
 98
        1
 10
0.0
 20
0.0
  0
CIRCLE
  5
24F
100
AcDbEntity
  8
PART_HOLES_LAYER_TOP
100
AcDbCircle
 10
71.0
 20
74.7
 30
0.0
 40
0.4
  0
HATCH
  5
250
100
AcDbEntity
  8
PART_HOLES_LAYER_TOP
100
AcDbHatch
 10
0.0
 20
0.0
 30
0.0
210
0.0
220
0.0
230
1.0
  2
SOLID
 70
         1
 71
         1
 91
        1
 92
        1
 93
        1
 72
         2
 10
71.0
 20
74.700000000000003
 40
0.4
 50
0.0
 51
360.0
 73
         1
 97
        1
330
24F
 75
         0
 76
         1
 98
        1
 10
0.0
 20
0.0
  0
CIRCLE
  5
251
100
AcDbEntity
  8
PART_HOLES_LAYER_TOP
100
AcDbCircle
 10
73.0
 20
76.7
 30
0.0
 40
0.4
  0
HATCH
  5
252
100
AcDbEntity
  8
PART_HOLES_LAYER_TOP
100
AcDbHatch
 10
0.0
 20
0.0
 30
0.0
210
0.0
220
0.0
230
1.0
  2
SOLID
 70
         1
 71
         1
 91
        1
 92
        1
 93
        1
 72
         2
 10
73.0
 20
76.700000000000003
 40
0.4
 50
0.0
 51
360.0
 73
         1
 97
        1
330
251
 75
         0
 76
         1
 98
        1
 10
0.0
 20
0.0
  0
CIRCLE
  5
253
100
AcDbEntity
  8
PART_HOLES_LAYER_TOP
100
AcDbCircle
 10
71.0
 20
76.7
 30
0.0
 40
0.4
  0
HATCH
  5
254
100
AcDbEntity
  8
PART_HOLES_LAYER_TOP
100
AcDbHatch
 10
0.0
 20
0.0
 30
0.0
210
0.0
220
0.0
230
1.0
  2
SOLID
 70
         1
 71
         1
 91
        1
 92
        1
 93
        1
 72
         2
 10
71.0
 20
76.700000000000003
 40
0.4
 50
0.0
 51
360.0
 73
         1
 97
        1
330
253
 75
         0
 76
         1
 98
        1
 10
0.0
 20
0.0
  0
CIRCLE
  5
255
100
AcDbEntity
  8
PART_HOLES_LAYER_TOP
100
AcDbCircle
 10
73.0
 20
78.7
 30
0.0
 40
0.4
  0
HATCH
  5
256
100
AcDbEntity
  8
PART_HOLES_LAYER_TOP
100
AcDbHatch
 10
0.0
 20
0.0
 30
0.0
210
0.0
220
0.0
230
1.0
  2
SOLID
 70
         1
 71
         1
 91
        1
 92
        1
 93
        1
 72
         2
 10
73.0
 20
78.700000000000003
 40
0.4
 50
0.0
 51
360.0
 73
         1
 97
        1
330
255
 75
         0
 76
         1
 98
        1
 10
0.0
 20
0.0
  0
CIRCLE
  5
257
100
AcDbEntity
  8
PART_HOLES_LAYER_TOP
100
AcDbCircle
 10
71.0
 20
78.7
 30
0.0
 40
0.4
  0
HATCH
  5
258
100
AcDbEntity
  8
PART_HOLES_LAYER_TOP
100
AcDbHatch
 10
0.0
 20
0.0
 30
0.0
210
0.0
220
0.0
230
1.0
  2
SOLID
 70
         1
 71
         1
 91
        1
 92
        1
 93
        1
 72
         2
 10
71.0
 20
78.700000000000003
 40
0.4
 50
0.0
 51
360.0
 73
         1
 97
        1
330
257
 75
         0
 76
         1
 98
        1
 10
0.0
 20
0.0
  0
CIRCLE
  5
259
100
AcDbEntity
  8
PART_HOLES_LAYER_TOP
100
AcDbCircle
 10
73.0
 20
80.7
 30
0.0
 40
0.4
  0
HATCH
  5
25A
100
AcDbEntity
  8
PART_HOLES_LAYER_TOP
100
AcDbHatch
 10
0.0
 20
0.0
 30
0.0
210
0.0
220
0.0
230
1.0
  2
SOLID
 70
         1
 71
         1
 91
        1
 92
        1
 93
        1
 72
         2
 10
73.0
 20
80.700000000000003
 40
0.4
 50
0.0
 51
360.0
 73
         1
 97
        1
330
259
 75
         0
 76
         1
 98
        1
 10
0.0
 20
0.0
  0
CIRCLE
  5
25B
100
AcDbEntity
  8
PART_HOLES_LAYER_TOP
100
AcDbCircle
 10
71.0
 20
80.7
 30
0.0
 40
0.4
  0
HATCH
  5
25C
100
AcDbEntity
  8
PART_HOLES_LAYER_TOP
100
AcDbHatch
 10
0.0
 20
0.0
 30
0.0
210
0.0
220
0.0
230
1.0
  2
SOLID
 70
         1
 71
         1
 91
        1
 92
        1
 93
        1
 72
         2
 10
71.0
 20
80.700000000000003
 40
0.4
 50
0.0
 51
360.0
 73
         1
 97
        1
330
25B
 75
         0
 76
         1
 98
        1
 10
0.0
 20
0.0
  0
CIRCLE
  5
25D
100
AcDbEntity
  8
PART_HOLES_LAYER_TOP
100
AcDbCircle
 10
73.0
 20
82.7
 30
0.0
 40
0.4
  0
HATCH
  5
25E
100
AcDbEntity
  8
PART_HOLES_LAYER_TOP
100
AcDbHatch
 10
0.0
 20
0.0
 30
0.0
210
0.0
220
0.0
230
1.0
  2
SOLID
 70
         1
 71
         1
 91
        1
 92
        1
 93
        1
 72
         2
 10
73.0
 20
82.700000000000003
 40
0.4
 50
0.0
 51
360.0
 73
         1
 97
        1
330
25D
 75
         0
 76
         1
 98
        1
 10
0.0
 20
0.0
  0
CIRCLE
  5
25F
100
AcDbEntity
  8
PART_HOLES_LAYER_TOP
100
AcDbCircle
 10
71.0
 20
82.7
 30
0.0
 40
0.4
  0
HATCH
  5
260
100
AcDbEntity
  8
PART_HOLES_LAYER_TOP
100
AcDbHatch
 10
0.0
 20
0.0
 30
0.0
210
0.0
220
0.0
230
1.0
  2
SOLID
 70
         1
 71
         1
 91
        1
 92
        1
 93
        1
 72
         2
 10
71.0
 20
82.700000000000003
 40
0.4
 50
0.0
 51
360.0
 73
         1
 97
        1
330
25F
 75
         0
 76
         1
 98
        1
 10
0.0
 20
0.0
  0
CIRCLE
  5
261
100
AcDbEntity
  8
PART_HOLES_LAYER_TOP
100
AcDbCircle
 10
73.0
 20
84.7
 30
0.0
 40
0.4
  0
HATCH
  5
262
100
AcDbEntity
  8
PART_HOLES_LAYER_TOP
100
AcDbHatch
 10
0.0
 20
0.0
 30
0.0
210
0.0
220
0.0
230
1.0
  2
SOLID
 70
         1
 71
         1
 91
        1
 92
        1
 93
        1
 72
         2
 10
73.0
 20
84.700000000000003
 40
0.4
 50
0.0
 51
360.0
 73
         1
 97
        1
330
261
 75
         0
 76
         1
 98
        1
 10
0.0
 20
0.0
  0
CIRCLE
  5
263
100
AcDbEntity
  8
PART_HOLES_LAYER_TOP
100
AcDbCircle
 10
71.0
 20
84.7
 30
0.0
 40
0.4
  0
HATCH
  5
264
100
AcDbEntity
  8
PART_HOLES_LAYER_TOP
100
AcDbHatch
 10
0.0
 20
0.0
 30
0.0
210
0.0
220
0.0
230
1.0
  2
SOLID
 70
         1
 71
         1
 91
        1
 92
        1
 93
        1
 72
         2
 10
71.0
 20
84.700000000000003
 40
0.4
 50
0.0
 51
360.0
 73
         1
 97
        1
330
263
 75
         0
 76
         1
 98
        1
 10
0.0
 20
0.0
  0
CIRCLE
  5
265
100
AcDbEntity
  8
PART_HOLES_LAYER_TOP
100
AcDbCircle
 10
73.0
 20
86.7
 30
0.0
 40
0.4
  0
HATCH
  5
266
100
AcDbEntity
  8
PART_HOLES_LAYER_TOP
100
AcDbHatch
 10
0.0
 20
0.0
 30
0.0
210
0.0
220
0.0
230
1.0
  2
SOLID
 70
         1
 71
         1
 91
        1
 92
        1
 93
        1
 72
         2
 10
73.0
 20
86.700000000000003
 40
0.4
 50
0.0
 51
360.0
 73
         1
 97
        1
330
265
 75
         0
 76
         1
 98
        1
 10
0.0
 20
0.0
  0
CIRCLE
  5
267
100
AcDbEntity
  8
PART_HOLES_LAYER_TOP
100
AcDbCircle
 10
71.0
 20
86.7
 30
0.0
 40
0.4
  0
HATCH
  5
268
100
AcDbEntity
  8
PART_HOLES_LAYER_TOP
100
AcDbHatch
 10
0.0
 20
0.0
 30
0.0
210
0.0
220
0.0
230
1.0
  2
SOLID
 70
         1
 71
         1
 91
        1
 92
        1
 93
        1
 72
         2
 10
71.0
 20
86.700000000000003
 40
0.4
 50
0.0
 51
360.0
 73
         1
 97
        1
330
267
 75
         0
 76
         1
 98
        1
 10
0.0
 20
0.0
  0
CIRCLE
  5
269
100
AcDbEntity
  8
PART_HOLES_LAYER_TOP
100
AcDbCircle
 10
73.0
 20
88.7
 30
0.0
 40
0.4
  0
HATCH
  5
26A
100
AcDbEntity
  8
PART_HOLES_LAYER_TOP
100
AcDbHatch
 10
0.0
 20
0.0
 30
0.0
210
0.0
220
0.0
230
1.0
  2
SOLID
 70
         1
 71
         1
 91
        1
 92
        1
 93
        1
 72
         2
 10
73.0
 20
88.700000000000003
 40
0.4
 50
0.0
 51
360.0
 73
         1
 97
        1
330
269
 75
         0
 76
         1
 98
        1
 10
0.0
 20
0.0
  0
CIRCLE
  5
26B
100
AcDbEntity
  8
PART_HOLES_LAYER_TOP
100
AcDbCircle
 10
71.0
 20
88.7
 30
0.0
 40
0.4
  0
HATCH
  5
26C
100
AcDbEntity
  8
PART_HOLES_LAYER_TOP
100
AcDbHatch
 10
0.0
 20
0.0
 30
0.0
210
0.0
220
0.0
230
1.0
  2
SOLID
 70
         1
 71
         1
 91
        1
 92
        1
 93
        1
 72
         2
 10
71.0
 20
88.700000000000003
 40
0.4
 50
0.0
 51
360.0
 73
         1
 97
        1
330
26B
 75
         0
 76
         1
 98
        1
 10
0.0
 20
0.0
  0
CIRCLE
  5
26D
100
AcDbEntity
  8
PART_HOLES_LAYER_TOP
100
AcDbCircle
 10
73.0
 20
90.7
 30
0.0
 40
0.4
  0
HATCH
  5
26E
100
AcDbEntity
  8
PART_HOLES_LAYER_TOP
100
AcDbHatch
 10
0.0
 20
0.0
 30
0.0
210
0.0
220
0.0
230
1.0
  2
SOLID
 70
         1
 71
         1
 91
        1
 92
        1
 93
        1
 72
         2
 10
73.0
 20
90.700000000000003
 40
0.4
 50
0.0
 51
360.0
 73
         1
 97
        1
330
26D
 75
         0
 76
         1
 98
        1
 10
0.0
 20
0.0
  0
CIRCLE
  5
26F
100
AcDbEntity
  8
PART_HOLES_LAYER_TOP
100
AcDbCircle
 10
71.0
 20
90.7
 30
0.0
 40
0.4
  0
HATCH
  5
270
100
AcDbEntity
  8
PART_HOLES_LAYER_TOP
100
AcDbHatch
 10
0.0
 20
0.0
 30
0.0
210
0.0
220
0.0
230
1.0
  2
SOLID
 70
         1
 71
         1
 91
        1
 92
        1
 93
        1
 72
         2
 10
71.0
 20
90.700000000000003
 40
0.4
 50
0.0
 51
360.0
 73
         1
 97
        1
330
26F
 75
         0
 76
         1
 98
        1
 10
0.0
 20
0.0
  0
CIRCLE
  5
271
100
AcDbEntity
  8
PART_HOLES_LAYER_TOP
100
AcDbCircle
 10
73.0
 20
92.7
 30
0.0
 40
0.4
  0
HATCH
  5
272
100
AcDbEntity
  8
PART_HOLES_LAYER_TOP
100
AcDbHatch
 10
0.0
 20
0.0
 30
0.0
210
0.0
220
0.0
230
1.0
  2
SOLID
 70
         1
 71
         1
 91
        1
 92
        1
 93
        1
 72
         2
 10
73.0
 20
92.700000000000003
 40
0.4
 50
0.0
 51
360.0
 73
         1
 97
        1
330
271
 75
         0
 76
         1
 98
        1
 10
0.0
 20
0.0
  0
CIRCLE
  5
273
100
AcDbEntity
  8
PART_HOLES_LAYER_TOP
100
AcDbCircle
 10
71.0
 20
92.7
 30
0.0
 40
0.4
  0
HATCH
  5
274
100
AcDbEntity
  8
PART_HOLES_LAYER_TOP
100
AcDbHatch
 10
0.0
 20
0.0
 30
0.0
210
0.0
220
0.0
230
1.0
  2
SOLID
 70
         1
 71
         1
 91
        1
 92
        1
 93
        1
 72
         2
 10
71.0
 20
92.700000000000003
 40
0.4
 50
0.0
 51
360.0
 73
         1
 97
        1
330
273
 75
         0
 76
         1
 98
        1
 10
0.0
 20
0.0
  0
CIRCLE
  5
275
100
AcDbEntity
  8
PART_HOLES_LAYER_TOP
100
AcDbCircle
 10
73.0
 20
94.7
 30
0.0
 40
0.4
  0
HATCH
  5
276
100
AcDbEntity
  8
PART_HOLES_LAYER_TOP
100
AcDbHatch
 10
0.0
 20
0.0
 30
0.0
210
0.0
220
0.0
230
1.0
  2
SOLID
 70
         1
 71
         1
 91
        1
 92
        1
 93
        1
 72
         2
 10
73.0
 20
94.700000000000003
 40
0.4
 50
0.0
 51
360.0
 73
         1
 97
        1
330
275
 75
         0
 76
         1
 98
        1
 10
0.0
 20
0.0
  0
CIRCLE
  5
277
100
AcDbEntity
  8
PART_HOLES_LAYER_TOP
100
AcDbCircle
 10
71.0
 20
94.7
 30
0.0
 40
0.4
  0
HATCH
  5
278
100
AcDbEntity
  8
PART_HOLES_LAYER_TOP
100
AcDbHatch
 10
0.0
 20
0.0
 30
0.0
210
0.0
220
0.0
230
1.0
  2
SOLID
 70
         1
 71
         1
 91
        1
 92
        1
 93
        1
 72
         2
 10
71.0
 20
94.700000000000003
 40
0.4
 50
0.0
 51
360.0
 73
         1
 97
        1
330
277
 75
         0
 76
         1
 98
        1
 10
0.0
 20
0.0
  0
CIRCLE
  5
279
100
AcDbEntity
  8
PART_HOLES_LAYER_TOP
100
AcDbCircle
 10
73.0
 20
96.7
 30
0.0
 40
0.4
  0
HATCH
  5
27A
100
AcDbEntity
  8
PART_HOLES_LAYER_TOP
100
AcDbHatch
 10
0.0
 20
0.0
 30
0.0
210
0.0
220
0.0
230
1.0
  2
SOLID
 70
         1
 71
         1
 91
        1
 92
        1
 93
        1
 72
         2
 10
73.0
 20
96.700000000000003
 40
0.4
 50
0.0
 51
360.0
 73
         1
 97
        1
330
279
 75
         0
 76
         1
 98
        1
 10
0.0
 20
0.0
  0
CIRCLE
  5
27B
100
AcDbEntity
  8
PART_HOLES_LAYER_TOP
100
AcDbCircle
 10
71.0
 20
96.7
 30
0.0
 40
0.4
  0
HATCH
  5
27C
100
AcDbEntity
  8
PART_HOLES_LAYER_TOP
100
AcDbHatch
 10
0.0
 20
0.0
 30
0.0
210
0.0
220
0.0
230
1.0
  2
SOLID
 70
         1
 71
         1
 91
        1
 92
        1
 93
        1
 72
         2
 10
71.0
 20
96.700000000000003
 40
0.4
 50
0.0
 51
360.0
 73
         1
 97
        1
330
27B
 75
         0
 76
         1
 98
        1
 10
0.0
 20
0.0
  0
CIRCLE
  5
27D
100
AcDbEntity
  8
PART_HOLES_LAYER_TOP
100
AcDbCircle
 10
73.0
 20
98.7
 30
0.0
 40
0.4
  0
HATCH
  5
27E
100
AcDbEntity
  8
PART_HOLES_LAYER_TOP
100
AcDbHatch
 10
0.0
 20
0.0
 30
0.0
210
0.0
220
0.0
230
1.0
  2
SOLID
 70
         1
 71
         1
 91
        1
 92
        1
 93
        1
 72
         2
 10
73.0
 20
98.700000000000003
 40
0.4
 50
0.0
 51
360.0
 73
         1
 97
        1
330
27D
 75
         0
 76
         1
 98
        1
 10
0.0
 20
0.0
  0
CIRCLE
  5
27F
100
AcDbEntity
  8
PART_HOLES_LAYER_TOP
100
AcDbCircle
 10
71.0
 20
98.7
 30
0.0
 40
0.4
  0
HATCH
  5
280
100
AcDbEntity
  8
PART_HOLES_LAYER_TOP
100
AcDbHatch
 10
0.0
 20
0.0
 30
0.0
210
0.0
220
0.0
230
1.0
  2
SOLID
 70
         1
 71
         1
 91
        1
 92
        1
 93
        1
 72
         2
 10
71.0
 20
98.700000000000003
 40
0.4
 50
0.0
 51
360.0
 73
         1
 97
        1
330
27F
 75
         0
 76
         1
 98
        1
 10
0.0
 20
0.0
  0
CIRCLE
  5
281
100
AcDbEntity
  8
PART_HOLES_LAYER_TOP
100
AcDbCircle
 10
73.0
 20
100.7
 30
0.0
 40
0.4
  0
HATCH
  5
282
100
AcDbEntity
  8
PART_HOLES_LAYER_TOP
100
AcDbHatch
 10
0.0
 20
0.0
 30
0.0
210
0.0
220
0.0
230
1.0
  2
SOLID
 70
         1
 71
         1
 91
        1
 92
        1
 93
        1
 72
         2
 10
73.0
 20
100.7
 40
0.4
 50
0.0
 51
360.0
 73
         1
 97
        1
330
281
 75
         0
 76
         1
 98
        1
 10
0.0
 20
0.0
  0
CIRCLE
  5
283
100
AcDbEntity
  8
PART_HOLES_LAYER_TOP
100
AcDbCircle
 10
71.0
 20
100.7
 30
0.0
 40
0.4
  0
HATCH
  5
284
100
AcDbEntity
  8
PART_HOLES_LAYER_TOP
100
AcDbHatch
 10
0.0
 20
0.0
 30
0.0
210
0.0
220
0.0
230
1.0
  2
SOLID
 70
         1
 71
         1
 91
        1
 92
        1
 93
        1
 72
         2
 10
71.0
 20
100.7
 40
0.4
 50
0.0
 51
360.0
 73
         1
 97
        1
330
283
 75
         0
 76
         1
 98
        1
 10
0.0
 20
0.0
  0
CIRCLE
  5
285
100
AcDbEntity
  8
PART_HOLES_LAYER_TOP
100
AcDbCircle
 10
73.0
 20
102.7
 30
0.0
 40
0.4
  0
HATCH
  5
286
100
AcDbEntity
  8
PART_HOLES_LAYER_TOP
100
AcDbHatch
 10
0.0
 20
0.0
 30
0.0
210
0.0
220
0.0
230
1.0
  2
SOLID
 70
         1
 71
         1
 91
        1
 92
        1
 93
        1
 72
         2
 10
73.0
 20
102.7
 40
0.4
 50
0.0
 51
360.0
 73
         1
 97
        1
330
285
 75
         0
 76
         1
 98
        1
 10
0.0
 20
0.0
  0
CIRCLE
  5
287
100
AcDbEntity
  8
PART_HOLES_LAYER_TOP
100
AcDbCircle
 10
71.0
 20
102.7
 30
0.0
 40
0.4
  0
HATCH
  5
288
100
AcDbEntity
  8
PART_HOLES_LAYER_TOP
100
AcDbHatch
 10
0.0
 20
0.0
 30
0.0
210
0.0
220
0.0
230
1.0
  2
SOLID
 70
         1
 71
         1
 91
        1
 92
        1
 93
        1
 72
         2
 10
71.0
 20
102.7
 40
0.4
 50
0.0
 51
360.0
 73
         1
 97
        1
330
287
 75
         0
 76
         1
 98
        1
 10
0.0
 20
0.0
  0
CIRCLE
  5
289
100
AcDbEntity
  8
PART_HOLES_LAYER_TOP
100
AcDbCircle
 10
132.55
 20
76.0
 30
0.0
 40
0.45
  0
HATCH
  5
28A
100
AcDbEntity
  8
PART_HOLES_LAYER_TOP
100
AcDbHatch
 10
0.0
 20
0.0
 30
0.0
210
0.0
220
0.0
230
1.0
  2
SOLID
 70
         1
 71
         1
 91
        1
 92
        1
 93
        1
 72
         2
 10
132.55000000000001
 20
76.0
 40
0.45
 50
0.0
 51
360.0
 73
         1
 97
        1
330
289
 75
         0
 76
         1
 98
        1
 10
0.0
 20
0.0
  0
CIRCLE
  5
28B
100
AcDbEntity
  8
PART_HOLES_LAYER_TOP
100
AcDbCircle
 10
132.55
 20
71.6
 30
0.0
 40
0.45
  0
HATCH
  5
28C
100
AcDbEntity
  8
PART_HOLES_LAYER_TOP
100
AcDbHatch
 10
0.0
 20
0.0
 30
0.0
210
0.0
220
0.0
230
1.0
  2
SOLID
 70
         1
 71
         1
 91
        1
 92
        1
 93
        1
 72
         2
 10
132.55000000000001
 20
71.599999999999994
 40
0.45
 50
0.0
 51
360.0
 73
         1
 97
        1
330
28B
 75
         0
 76
         1
 98
        1
 10
0.0
 20
0.0
  0
CIRCLE
  5
28D
100
AcDbEntity
  8
PART_HOLES_LAYER_TOP
100
AcDbCircle
 10
73.0
 20
16.5
 30
0.0
 40
0.4
  0
HATCH
  5
28E
100
AcDbEntity
  8
PART_HOLES_LAYER_TOP
100
AcDbHatch
 10
0.0
 20
0.0
 30
0.0
210
0.0
220
0.0
230
1.0
  2
SOLID
 70
         1
 71
         1
 91
        1
 92
        1
 93
        1
 72
         2
 10
73.0
 20
16.5
 40
0.4
 50
0.0
 51
360.0
 73
         1
 97
        1
330
28D
 75
         0
 76
         1
 98
        1
 10
0.0
 20
0.0
  0
CIRCLE
  5
28F
100
AcDbEntity
  8
PART_HOLES_LAYER_TOP
100
AcDbCircle
 10
71.0
 20
16.5
 30
0.0
 40
0.4
  0
HATCH
  5
290
100
AcDbEntity
  8
PART_HOLES_LAYER_TOP
100
AcDbHatch
 10
0.0
 20
0.0
 30
0.0
210
0.0
220
0.0
230
1.0
  2
SOLID
 70
         1
 71
         1
 91
        1
 92
        1
 93
        1
 72
         2
 10
71.0
 20
16.5
 40
0.4
 50
0.0
 51
360.0
 73
         1
 97
        1
330
28F
 75
         0
 76
         1
 98
        1
 10
0.0
 20
0.0
  0
CIRCLE
  5
291
100
AcDbEntity
  8
PART_HOLES_LAYER_TOP
100
AcDbCircle
 10
73.0
 20
18.5
 30
0.0
 40
0.4
  0
HATCH
  5
292
100
AcDbEntity
  8
PART_HOLES_LAYER_TOP
100
AcDbHatch
 10
0.0
 20
0.0
 30
0.0
210
0.0
220
0.0
230
1.0
  2
SOLID
 70
         1
 71
         1
 91
        1
 92
        1
 93
        1
 72
         2
 10
73.0
 20
18.5
 40
0.4
 50
0.0
 51
360.0
 73
         1
 97
        1
330
291
 75
         0
 76
         1
 98
        1
 10
0.0
 20
0.0
  0
CIRCLE
  5
293
100
AcDbEntity
  8
PART_HOLES_LAYER_TOP
100
AcDbCircle
 10
71.0
 20
18.5
 30
0.0
 40
0.4
  0
HATCH
  5
294
100
AcDbEntity
  8
PART_HOLES_LAYER_TOP
100
AcDbHatch
 10
0.0
 20
0.0
 30
0.0
210
0.0
220
0.0
230
1.0
  2
SOLID
 70
         1
 71
         1
 91
        1
 92
        1
 93
        1
 72
         2
 10
71.0
 20
18.5
 40
0.4
 50
0.0
 51
360.0
 73
         1
 97
        1
330
293
 75
         0
 76
         1
 98
        1
 10
0.0
 20
0.0
  0
CIRCLE
  5
295
100
AcDbEntity
  8
PART_HOLES_LAYER_TOP
100
AcDbCircle
 10
73.0
 20
20.5
 30
0.0
 40
0.4
  0
HATCH
  5
296
100
AcDbEntity
  8
PART_HOLES_LAYER_TOP
100
AcDbHatch
 10
0.0
 20
0.0
 30
0.0
210
0.0
220
0.0
230
1.0
  2
SOLID
 70
         1
 71
         1
 91
        1
 92
        1
 93
        1
 72
         2
 10
73.0
 20
20.5
 40
0.4
 50
0.0
 51
360.0
 73
         1
 97
        1
330
295
 75
         0
 76
         1
 98
        1
 10
0.0
 20
0.0
  0
CIRCLE
  5
297
100
AcDbEntity
  8
PART_HOLES_LAYER_TOP
100
AcDbCircle
 10
71.0
 20
20.5
 30
0.0
 40
0.4
  0
HATCH
  5
298
100
AcDbEntity
  8
PART_HOLES_LAYER_TOP
100
AcDbHatch
 10
0.0
 20
0.0
 30
0.0
210
0.0
220
0.0
230
1.0
  2
SOLID
 70
         1
 71
         1
 91
        1
 92
        1
 93
        1
 72
         2
 10
71.0
 20
20.5
 40
0.4
 50
0.0
 51
360.0
 73
         1
 97
        1
330
297
 75
         0
 76
         1
 98
        1
 10
0.0
 20
0.0
  0
CIRCLE
  5
299
100
AcDbEntity
  8
PART_HOLES_LAYER_TOP
100
AcDbCircle
 10
73.0
 20
22.5
 30
0.0
 40
0.4
  0
HATCH
  5
29A
100
AcDbEntity
  8
PART_HOLES_LAYER_TOP
100
AcDbHatch
 10
0.0
 20
0.0
 30
0.0
210
0.0
220
0.0
230
1.0
  2
SOLID
 70
         1
 71
         1
 91
        1
 92
        1
 93
        1
 72
         2
 10
73.0
 20
22.5
 40
0.4
 50
0.0
 51
360.0
 73
         1
 97
        1
330
299
 75
         0
 76
         1
 98
        1
 10
0.0
 20
0.0
  0
CIRCLE
  5
29B
100
AcDbEntity
  8
PART_HOLES_LAYER_TOP
100
AcDbCircle
 10
71.0
 20
22.5
 30
0.0
 40
0.4
  0
HATCH
  5
29C
100
AcDbEntity
  8
PART_HOLES_LAYER_TOP
100
AcDbHatch
 10
0.0
 20
0.0
 30
0.0
210
0.0
220
0.0
230
1.0
  2
SOLID
 70
         1
 71
         1
 91
        1
 92
        1
 93
        1
 72
         2
 10
71.0
 20
22.5
 40
0.4
 50
0.0
 51
360.0
 73
         1
 97
        1
330
29B
 75
         0
 76
         1
 98
        1
 10
0.0
 20
0.0
  0
CIRCLE
  5
29D
100
AcDbEntity
  8
PART_HOLES_LAYER_TOP
100
AcDbCircle
 10
73.0
 20
24.5
 30
0.0
 40
0.4
  0
HATCH
  5
29E
100
AcDbEntity
  8
PART_HOLES_LAYER_TOP
100
AcDbHatch
 10
0.0
 20
0.0
 30
0.0
210
0.0
220
0.0
230
1.0
  2
SOLID
 70
         1
 71
         1
 91
        1
 92
        1
 93
        1
 72
         2
 10
73.0
 20
24.5
 40
0.4
 50
0.0
 51
360.0
 73
         1
 97
        1
330
29D
 75
         0
 76
         1
 98
        1
 10
0.0
 20
0.0
  0
CIRCLE
  5
29F
100
AcDbEntity
  8
PART_HOLES_LAYER_TOP
100
AcDbCircle
 10
71.0
 20
24.5
 30
0.0
 40
0.4
  0
HATCH
  5
2A0
100
AcDbEntity
  8
PART_HOLES_LAYER_TOP
100
AcDbHatch
 10
0.0
 20
0.0
 30
0.0
210
0.0
220
0.0
230
1.0
  2
SOLID
 70
         1
 71
         1
 91
        1
 92
        1
 93
        1
 72
         2
 10
71.0
 20
24.5
 40
0.4
 50
0.0
 51
360.0
 73
         1
 97
        1
330
29F
 75
         0
 76
         1
 98
        1
 10
0.0
 20
0.0
  0
CIRCLE
  5
2A1
100
AcDbEntity
  8
PART_HOLES_LAYER_TOP
100
AcDbCircle
 10
73.0
 20
26.5
 30
0.0
 40
0.4
  0
HATCH
  5
2A2
100
AcDbEntity
  8
PART_HOLES_LAYER_TOP
100
AcDbHatch
 10
0.0
 20
0.0
 30
0.0
210
0.0
220
0.0
230
1.0
  2
SOLID
 70
         1
 71
         1
 91
        1
 92
        1
 93
        1
 72
         2
 10
73.0
 20
26.5
 40
0.4
 50
0.0
 51
360.0
 73
         1
 97
        1
330
2A1
 75
         0
 76
         1
 98
        1
 10
0.0
 20
0.0
  0
CIRCLE
  5
2A3
100
AcDbEntity
  8
PART_HOLES_LAYER_TOP
100
AcDbCircle
 10
71.0
 20
26.5
 30
0.0
 40
0.4
  0
HATCH
  5
2A4
100
AcDbEntity
  8
PART_HOLES_LAYER_TOP
100
AcDbHatch
 10
0.0
 20
0.0
 30
0.0
210
0.0
220
0.0
230
1.0
  2
SOLID
 70
         1
 71
         1
 91
        1
 92
        1
 93
        1
 72
         2
 10
71.0
 20
26.5
 40
0.4
 50
0.0
 51
360.0
 73
         1
 97
        1
330
2A3
 75
         0
 76
         1
 98
        1
 10
0.0
 20
0.0
  0
CIRCLE
  5
2A5
100
AcDbEntity
  8
PART_HOLES_LAYER_TOP
100
AcDbCircle
 10
73.0
 20
28.5
 30
0.0
 40
0.4
  0
HATCH
  5
2A6
100
AcDbEntity
  8
PART_HOLES_LAYER_TOP
100
AcDbHatch
 10
0.0
 20
0.0
 30
0.0
210
0.0
220
0.0
230
1.0
  2
SOLID
 70
         1
 71
         1
 91
        1
 92
        1
 93
        1
 72
         2
 10
73.0
 20
28.5
 40
0.4
 50
0.0
 51
360.0
 73
         1
 97
        1
330
2A5
 75
         0
 76
         1
 98
        1
 10
0.0
 20
0.0
  0
CIRCLE
  5
2A7
100
AcDbEntity
  8
PART_HOLES_LAYER_TOP
100
AcDbCircle
 10
71.0
 20
28.5
 30
0.0
 40
0.4
  0
HATCH
  5
2A8
100
AcDbEntity
  8
PART_HOLES_LAYER_TOP
100
AcDbHatch
 10
0.0
 20
0.0
 30
0.0
210
0.0
220
0.0
230
1.0
  2
SOLID
 70
         1
 71
         1
 91
        1
 92
        1
 93
        1
 72
         2
 10
71.0
 20
28.5
 40
0.4
 50
0.0
 51
360.0
 73
         1
 97
        1
330
2A7
 75
         0
 76
         1
 98
        1
 10
0.0
 20
0.0
  0
CIRCLE
  5
2A9
100
AcDbEntity
  8
PART_HOLES_LAYER_TOP
100
AcDbCircle
 10
73.0
 20
30.5
 30
0.0
 40
0.4
  0
HATCH
  5
2AA
100
AcDbEntity
  8
PART_HOLES_LAYER_TOP
100
AcDbHatch
 10
0.0
 20
0.0
 30
0.0
210
0.0
220
0.0
230
1.0
  2
SOLID
 70
         1
 71
         1
 91
        1
 92
        1
 93
        1
 72
         2
 10
73.0
 20
30.5
 40
0.4
 50
0.0
 51
360.0
 73
         1
 97
        1
330
2A9
 75
         0
 76
         1
 98
        1
 10
0.0
 20
0.0
  0
CIRCLE
  5
2AB
100
AcDbEntity
  8
PART_HOLES_LAYER_TOP
100
AcDbCircle
 10
71.0
 20
30.5
 30
0.0
 40
0.4
  0
HATCH
  5
2AC
100
AcDbEntity
  8
PART_HOLES_LAYER_TOP
100
AcDbHatch
 10
0.0
 20
0.0
 30
0.0
210
0.0
220
0.0
230
1.0
  2
SOLID
 70
         1
 71
         1
 91
        1
 92
        1
 93
        1
 72
         2
 10
71.0
 20
30.5
 40
0.4
 50
0.0
 51
360.0
 73
         1
 97
        1
330
2AB
 75
         0
 76
         1
 98
        1
 10
0.0
 20
0.0
  0
CIRCLE
  5
2AD
100
AcDbEntity
  8
PART_HOLES_LAYER_TOP
100
AcDbCircle
 10
73.0
 20
32.5
 30
0.0
 40
0.4
  0
HATCH
  5
2AE
100
AcDbEntity
  8
PART_HOLES_LAYER_TOP
100
AcDbHatch
 10
0.0
 20
0.0
 30
0.0
210
0.0
220
0.0
230
1.0
  2
SOLID
 70
         1
 71
         1
 91
        1
 92
        1
 93
        1
 72
         2
 10
73.0
 20
32.5
 40
0.4
 50
0.0
 51
360.0
 73
         1
 97
        1
330
2AD
 75
         0
 76
         1
 98
        1
 10
0.0
 20
0.0
  0
CIRCLE
  5
2AF
100
AcDbEntity
  8
PART_HOLES_LAYER_TOP
100
AcDbCircle
 10
71.0
 20
32.5
 30
0.0
 40
0.4
  0
HATCH
  5
2B0
100
AcDbEntity
  8
PART_HOLES_LAYER_TOP
100
AcDbHatch
 10
0.0
 20
0.0
 30
0.0
210
0.0
220
0.0
230
1.0
  2
SOLID
 70
         1
 71
         1
 91
        1
 92
        1
 93
        1
 72
         2
 10
71.0
 20
32.5
 40
0.4
 50
0.0
 51
360.0
 73
         1
 97
        1
330
2AF
 75
         0
 76
         1
 98
        1
 10
0.0
 20
0.0
  0
CIRCLE
  5
2B1
100
AcDbEntity
  8
PART_HOLES_LAYER_TOP
100
AcDbCircle
 10
73.0
 20
34.5
 30
0.0
 40
0.4
  0
HATCH
  5
2B2
100
AcDbEntity
  8
PART_HOLES_LAYER_TOP
100
AcDbHatch
 10
0.0
 20
0.0
 30
0.0
210
0.0
220
0.0
230
1.0
  2
SOLID
 70
         1
 71
         1
 91
        1
 92
        1
 93
        1
 72
         2
 10
73.0
 20
34.5
 40
0.4
 50
0.0
 51
360.0
 73
         1
 97
        1
330
2B1
 75
         0
 76
         1
 98
        1
 10
0.0
 20
0.0
  0
CIRCLE
  5
2B3
100
AcDbEntity
  8
PART_HOLES_LAYER_TOP
100
AcDbCircle
 10
71.0
 20
34.5
 30
0.0
 40
0.4
  0
HATCH
  5
2B4
100
AcDbEntity
  8
PART_HOLES_LAYER_TOP
100
AcDbHatch
 10
0.0
 20
0.0
 30
0.0
210
0.0
220
0.0
230
1.0
  2
SOLID
 70
         1
 71
         1
 91
        1
 92
        1
 93
        1
 72
         2
 10
71.0
 20
34.5
 40
0.4
 50
0.0
 51
360.0
 73
         1
 97
        1
330
2B3
 75
         0
 76
         1
 98
        1
 10
0.0
 20
0.0
  0
CIRCLE
  5
2B5
100
AcDbEntity
  8
PART_HOLES_LAYER_TOP
100
AcDbCircle
 10
73.0
 20
36.5
 30
0.0
 40
0.4
  0
HATCH
  5
2B6
100
AcDbEntity
  8
PART_HOLES_LAYER_TOP
100
AcDbHatch
 10
0.0
 20
0.0
 30
0.0
210
0.0
220
0.0
230
1.0
  2
SOLID
 70
         1
 71
         1
 91
        1
 92
        1
 93
        1
 72
         2
 10
73.0
 20
36.5
 40
0.4
 50
0.0
 51
360.0
 73
         1
 97
        1
330
2B5
 75
         0
 76
         1
 98
        1
 10
0.0
 20
0.0
  0
CIRCLE
  5
2B7
100
AcDbEntity
  8
PART_HOLES_LAYER_TOP
100
AcDbCircle
 10
71.0
 20
36.5
 30
0.0
 40
0.4
  0
HATCH
  5
2B8
100
AcDbEntity
  8
PART_HOLES_LAYER_TOP
100
AcDbHatch
 10
0.0
 20
0.0
 30
0.0
210
0.0
220
0.0
230
1.0
  2
SOLID
 70
         1
 71
         1
 91
        1
 92
        1
 93
        1
 72
         2
 10
71.0
 20
36.5
 40
0.4
 50
0.0
 51
360.0
 73
         1
 97
        1
330
2B7
 75
         0
 76
         1
 98
        1
 10
0.0
 20
0.0
  0
CIRCLE
  5
2B9
100
AcDbEntity
  8
PART_HOLES_LAYER_TOP
100
AcDbCircle
 10
73.0
 20
38.5
 30
0.0
 40
0.4
  0
HATCH
  5
2BA
100
AcDbEntity
  8
PART_HOLES_LAYER_TOP
100
AcDbHatch
 10
0.0
 20
0.0
 30
0.0
210
0.0
220
0.0
230
1.0
  2
SOLID
 70
         1
 71
         1
 91
        1
 92
        1
 93
        1
 72
         2
 10
73.0
 20
38.5
 40
0.4
 50
0.0
 51
360.0
 73
         1
 97
        1
330
2B9
 75
         0
 76
         1
 98
        1
 10
0.0
 20
0.0
  0
CIRCLE
  5
2BB
100
AcDbEntity
  8
PART_HOLES_LAYER_TOP
100
AcDbCircle
 10
71.0
 20
38.5
 30
0.0
 40
0.4
  0
HATCH
  5
2BC
100
AcDbEntity
  8
PART_HOLES_LAYER_TOP
100
AcDbHatch
 10
0.0
 20
0.0
 30
0.0
210
0.0
220
0.0
230
1.0
  2
SOLID
 70
         1
 71
         1
 91
        1
 92
        1
 93
        1
 72
         2
 10
71.0
 20
38.5
 40
0.4
 50
0.0
 51
360.0
 73
         1
 97
        1
330
2BB
 75
         0
 76
         1
 98
        1
 10
0.0
 20
0.0
  0
CIRCLE
  5
2BD
100
AcDbEntity
  8
PART_HOLES_LAYER_TOP
100
AcDbCircle
 10
73.0
 20
40.5
 30
0.0
 40
0.4
  0
HATCH
  5
2BE
100
AcDbEntity
  8
PART_HOLES_LAYER_TOP
100
AcDbHatch
 10
0.0
 20
0.0
 30
0.0
210
0.0
220
0.0
230
1.0
  2
SOLID
 70
         1
 71
         1
 91
        1
 92
        1
 93
        1
 72
         2
 10
73.0
 20
40.5
 40
0.4
 50
0.0
 51
360.0
 73
         1
 97
        1
330
2BD
 75
         0
 76
         1
 98
        1
 10
0.0
 20
0.0
  0
CIRCLE
  5
2BF
100
AcDbEntity
  8
PART_HOLES_LAYER_TOP
100
AcDbCircle
 10
71.0
 20
40.5
 30
0.0
 40
0.4
  0
HATCH
  5
2C0
100
AcDbEntity
  8
PART_HOLES_LAYER_TOP
100
AcDbHatch
 10
0.0
 20
0.0
 30
0.0
210
0.0
220
0.0
230
1.0
  2
SOLID
 70
         1
 71
         1
 91
        1
 92
        1
 93
        1
 72
         2
 10
71.0
 20
40.5
 40
0.4
 50
0.0
 51
360.0
 73
         1
 97
        1
330
2BF
 75
         0
 76
         1
 98
        1
 10
0.0
 20
0.0
  0
CIRCLE
  5
2C1
100
AcDbEntity
  8
PART_HOLES_LAYER_TOP
100
AcDbCircle
 10
73.0
 20
42.5
 30
0.0
 40
0.4
  0
HATCH
  5
2C2
100
AcDbEntity
  8
PART_HOLES_LAYER_TOP
100
AcDbHatch
 10
0.0
 20
0.0
 30
0.0
210
0.0
220
0.0
230
1.0
  2
SOLID
 70
         1
 71
         1
 91
        1
 92
        1
 93
        1
 72
         2
 10
73.0
 20
42.5
 40
0.4
 50
0.0
 51
360.0
 73
         1
 97
        1
330
2C1
 75
         0
 76
         1
 98
        1
 10
0.0
 20
0.0
  0
CIRCLE
  5
2C3
100
AcDbEntity
  8
PART_HOLES_LAYER_TOP
100
AcDbCircle
 10
71.0
 20
42.5
 30
0.0
 40
0.4
  0
HATCH
  5
2C4
100
AcDbEntity
  8
PART_HOLES_LAYER_TOP
100
AcDbHatch
 10
0.0
 20
0.0
 30
0.0
210
0.0
220
0.0
230
1.0
  2
SOLID
 70
         1
 71
         1
 91
        1
 92
        1
 93
        1
 72
         2
 10
71.0
 20
42.5
 40
0.4
 50
0.0
 51
360.0
 73
         1
 97
        1
330
2C3
 75
         0
 76
         1
 98
        1
 10
0.0
 20
0.0
  0
CIRCLE
  5
2C5
100
AcDbEntity
  8
PART_HOLES_LAYER_TOP
100
AcDbCircle
 10
73.0
 20
44.5
 30
0.0
 40
0.4
  0
HATCH
  5
2C6
100
AcDbEntity
  8
PART_HOLES_LAYER_TOP
100
AcDbHatch
 10
0.0
 20
0.0
 30
0.0
210
0.0
220
0.0
230
1.0
  2
SOLID
 70
         1
 71
         1
 91
        1
 92
        1
 93
        1
 72
         2
 10
73.0
 20
44.5
 40
0.4
 50
0.0
 51
360.0
 73
         1
 97
        1
330
2C5
 75
         0
 76
         1
 98
        1
 10
0.0
 20
0.0
  0
CIRCLE
  5
2C7
100
AcDbEntity
  8
PART_HOLES_LAYER_TOP
100
AcDbCircle
 10
71.0
 20
44.5
 30
0.0
 40
0.4
  0
HATCH
  5
2C8
100
AcDbEntity
  8
PART_HOLES_LAYER_TOP
100
AcDbHatch
 10
0.0
 20
0.0
 30
0.0
210
0.0
220
0.0
230
1.0
  2
SOLID
 70
         1
 71
         1
 91
        1
 92
        1
 93
        1
 72
         2
 10
71.0
 20
44.5
 40
0.4
 50
0.0
 51
360.0
 73
         1
 97
        1
330
2C7
 75
         0
 76
         1
 98
        1
 10
0.0
 20
0.0
  0
CIRCLE
  5
2C9
100
AcDbEntity
  8
PART_HOLES_LAYER_TOP
100
AcDbCircle
 10
73.0
 20
46.5
 30
0.0
 40
0.4
  0
HATCH
  5
2CA
100
AcDbEntity
  8
PART_HOLES_LAYER_TOP
100
AcDbHatch
 10
0.0
 20
0.0
 30
0.0
210
0.0
220
0.0
230
1.0
  2
SOLID
 70
         1
 71
         1
 91
        1
 92
        1
 93
        1
 72
         2
 10
73.0
 20
46.5
 40
0.4
 50
0.0
 51
360.0
 73
         1
 97
        1
330
2C9
 75
         0
 76
         1
 98
        1
 10
0.0
 20
0.0
  0
CIRCLE
  5
2CB
100
AcDbEntity
  8
PART_HOLES_LAYER_TOP
100
AcDbCircle
 10
71.0
 20
46.5
 30
0.0
 40
0.4
  0
HATCH
  5
2CC
100
AcDbEntity
  8
PART_HOLES_LAYER_TOP
100
AcDbHatch
 10
0.0
 20
0.0
 30
0.0
210
0.0
220
0.0
230
1.0
  2
SOLID
 70
         1
 71
         1
 91
        1
 92
        1
 93
        1
 72
         2
 10
71.0
 20
46.5
 40
0.4
 50
0.0
 51
360.0
 73
         1
 97
        1
330
2CB
 75
         0
 76
         1
 98
        1
 10
0.0
 20
0.0
  0
CIRCLE
  5
2CD
100
AcDbEntity
  8
PART_HOLES_LAYER_TOP
100
AcDbCircle
 10
73.0
 20
48.5
 30
0.0
 40
0.4
  0
HATCH
  5
2CE
100
AcDbEntity
  8
PART_HOLES_LAYER_TOP
100
AcDbHatch
 10
0.0
 20
0.0
 30
0.0
210
0.0
220
0.0
230
1.0
  2
SOLID
 70
         1
 71
         1
 91
        1
 92
        1
 93
        1
 72
         2
 10
73.0
 20
48.5
 40
0.4
 50
0.0
 51
360.0
 73
         1
 97
        1
330
2CD
 75
         0
 76
         1
 98
        1
 10
0.0
 20
0.0
  0
CIRCLE
  5
2CF
100
AcDbEntity
  8
PART_HOLES_LAYER_TOP
100
AcDbCircle
 10
71.0
 20
48.5
 30
0.0
 40
0.4
  0
HATCH
  5
2D0
100
AcDbEntity
  8
PART_HOLES_LAYER_TOP
100
AcDbHatch
 10
0.0
 20
0.0
 30
0.0
210
0.0
220
0.0
230
1.0
  2
SOLID
 70
         1
 71
         1
 91
        1
 92
        1
 93
        1
 72
         2
 10
71.0
 20
48.5
 40
0.4
 50
0.0
 51
360.0
 73
         1
 97
        1
330
2CF
 75
         0
 76
         1
 98
        1
 10
0.0
 20
0.0
  0
CIRCLE
  5
2D1
100
AcDbEntity
  8
PART_HOLES_LAYER_TOP
100
AcDbCircle
 10
73.0
 20
50.5
 30
0.0
 40
0.4
  0
HATCH
  5
2D2
100
AcDbEntity
  8
PART_HOLES_LAYER_TOP
100
AcDbHatch
 10
0.0
 20
0.0
 30
0.0
210
0.0
220
0.0
230
1.0
  2
SOLID
 70
         1
 71
         1
 91
        1
 92
        1
 93
        1
 72
         2
 10
73.0
 20
50.5
 40
0.4
 50
0.0
 51
360.0
 73
         1
 97
        1
330
2D1
 75
         0
 76
         1
 98
        1
 10
0.0
 20
0.0
  0
CIRCLE
  5
2D3
100
AcDbEntity
  8
PART_HOLES_LAYER_TOP
100
AcDbCircle
 10
71.0
 20
50.5
 30
0.0
 40
0.4
  0
HATCH
  5
2D4
100
AcDbEntity
  8
PART_HOLES_LAYER_TOP
100
AcDbHatch
 10
0.0
 20
0.0
 30
0.0
210
0.0
220
0.0
230
1.0
  2
SOLID
 70
         1
 71
         1
 91
        1
 92
        1
 93
        1
 72
         2
 10
71.0
 20
50.5
 40
0.4
 50
0.0
 51
360.0
 73
         1
 97
        1
330
2D3
 75
         0
 76
         1
 98
        1
 10
0.0
 20
0.0
  0
CIRCLE
  5
2D5
100
AcDbEntity
  8
PART_HOLES_LAYER_TOP
100
AcDbCircle
 10
73.0
 20
52.5
 30
0.0
 40
0.4
  0
HATCH
  5
2D6
100
AcDbEntity
  8
PART_HOLES_LAYER_TOP
100
AcDbHatch
 10
0.0
 20
0.0
 30
0.0
210
0.0
220
0.0
230
1.0
  2
SOLID
 70
         1
 71
         1
 91
        1
 92
        1
 93
        1
 72
         2
 10
73.0
 20
52.5
 40
0.4
 50
0.0
 51
360.0
 73
         1
 97
        1
330
2D5
 75
         0
 76
         1
 98
        1
 10
0.0
 20
0.0
  0
CIRCLE
  5
2D7
100
AcDbEntity
  8
PART_HOLES_LAYER_TOP
100
AcDbCircle
 10
71.0
 20
52.5
 30
0.0
 40
0.4
  0
HATCH
  5
2D8
100
AcDbEntity
  8
PART_HOLES_LAYER_TOP
100
AcDbHatch
 10
0.0
 20
0.0
 30
0.0
210
0.0
220
0.0
230
1.0
  2
SOLID
 70
         1
 71
         1
 91
        1
 92
        1
 93
        1
 72
         2
 10
71.0
 20
52.5
 40
0.4
 50
0.0
 51
360.0
 73
         1
 97
        1
330
2D7
 75
         0
 76
         1
 98
        1
 10
0.0
 20
0.0
  0
CIRCLE
  5
2D9
100
AcDbEntity
  8
PART_HOLES_LAYER_TOP
100
AcDbCircle
 10
73.0
 20
54.5
 30
0.0
 40
0.4
  0
HATCH
  5
2DA
100
AcDbEntity
  8
PART_HOLES_LAYER_TOP
100
AcDbHatch
 10
0.0
 20
0.0
 30
0.0
210
0.0
220
0.0
230
1.0
  2
SOLID
 70
         1
 71
         1
 91
        1
 92
        1
 93
        1
 72
         2
 10
73.0
 20
54.5
 40
0.4
 50
0.0
 51
360.0
 73
         1
 97
        1
330
2D9
 75
         0
 76
         1
 98
        1
 10
0.0
 20
0.0
  0
CIRCLE
  5
2DB
100
AcDbEntity
  8
PART_HOLES_LAYER_TOP
100
AcDbCircle
 10
71.0
 20
54.5
 30
0.0
 40
0.4
  0
HATCH
  5
2DC
100
AcDbEntity
  8
PART_HOLES_LAYER_TOP
100
AcDbHatch
 10
0.0
 20
0.0
 30
0.0
210
0.0
220
0.0
230
1.0
  2
SOLID
 70
         1
 71
         1
 91
        1
 92
        1
 93
        1
 72
         2
 10
71.0
 20
54.5
 40
0.4
 50
0.0
 51
360.0
 73
         1
 97
        1
330
2DB
 75
         0
 76
         1
 98
        1
 10
0.0
 20
0.0
  0
CIRCLE
  5
2DD
100
AcDbEntity
  8
PART_HOLES_LAYER_TOP
100
AcDbCircle
 10
82.7
 20
96.9
 30
0.0
 40
0.45
  0
HATCH
  5
2DE
100
AcDbEntity
  8
PART_HOLES_LAYER_TOP
100
AcDbHatch
 10
0.0
 20
0.0
 30
0.0
210
0.0
220
0.0
230
1.0
  2
SOLID
 70
         1
 71
         1
 91
        1
 92
        1
 93
        1
 72
         2
 10
82.700000000000003
 20
96.900000000000006
 40
0.45
 50
0.0
 51
360.0
 73
         1
 97
        1
330
2DD
 75
         0
 76
         1
 98
        1
 10
0.0
 20
0.0
  0
CIRCLE
  5
2DF
100
AcDbEntity
  8
PART_HOLES_LAYER_TOP
100
AcDbCircle
 10
82.7
 20
99.44
 30
0.0
 40
0.45
  0
HATCH
  5
2E0
100
AcDbEntity
  8
PART_HOLES_LAYER_TOP
100
AcDbHatch
 10
0.0
 20
0.0
 30
0.0
210
0.0
220
0.0
230
1.0
  2
SOLID
 70
         1
 71
         1
 91
        1
 92
        1
 93
        1
 72
         2
 10
82.700000000000003
 20
99.439999999999998
 40
0.45
 50
0.0
 51
360.0
 73
         1
 97
        1
330
2DF
 75
         0
 76
         1
 98
        1
 10
0.0
 20
0.0
  0
CIRCLE
  5
2E1
100
AcDbEntity
  8
PART_HOLES_LAYER_TOP
100
AcDbCircle
 10
82.7
 20
101.98
 30
0.0
 40
0.45
  0
HATCH
  5
2E2
100
AcDbEntity
  8
PART_HOLES_LAYER_TOP
100
AcDbHatch
 10
0.0
 20
0.0
 30
0.0
210
0.0
220
0.0
230
1.0
  2
SOLID
 70
         1
 71
         1
 91
        1
 92
        1
 93
        1
 72
         2
 10
82.700000000000003
 20
101.98
 40
0.45
 50
0.0
 51
360.0
 73
         1
 97
        1
330
2E1
 75
         0
 76
         1
 98
        1
 10
0.0
 20
0.0
  0
CIRCLE
  5
2E3
100
AcDbEntity
  8
PART_HOLES_LAYER_TOP
100
AcDbCircle
 10
87.0
 20
93.0
 30
0.0
 40
0.45
  0
HATCH
  5
2E4
100
AcDbEntity
  8
PART_HOLES_LAYER_TOP
100
AcDbHatch
 10
0.0
 20
0.0
 30
0.0
210
0.0
220
0.0
230
1.0
  2
SOLID
 70
         1
 71
         1
 91
        1
 92
        1
 93
        1
 72
         2
 10
87.0
 20
93.0
 40
0.45
 50
0.0
 51
360.0
 73
         1
 97
        1
330
2E3
 75
         0
 76
         1
 98
        1
 10
0.0
 20
0.0
  0
CIRCLE
  5
2E5
100
AcDbEntity
  8
PART_HOLES_LAYER_TOP
100
AcDbCircle
 10
87.0
 20
95.54
 30
0.0
 40
0.45
  0
HATCH
  5
2E6
100
AcDbEntity
  8
PART_HOLES_LAYER_TOP
100
AcDbHatch
 10
0.0
 20
0.0
 30
0.0
210
0.0
220
0.0
230
1.0
  2
SOLID
 70
         1
 71
         1
 91
        1
 92
        1
 93
        1
 72
         2
 10
87.0
 20
95.540000000000006
 40
0.45
 50
0.0
 51
360.0
 73
         1
 97
        1
330
2E5
 75
         0
 76
         1
 98
        1
 10
0.0
 20
0.0
  0
ENDSEC
  0
SECTION
  2
OBJECTS
  0
DICTIONARY
  5
19
100
AcDbDictionary
  3
ACAD_GROUP
350
1A
  3
ACAD_MLINESTYLE
350
1B
  0
DICTIONARY
  5
1A
102
{ACAD_REACTORS
330
19
102
}
100
AcDbDictionary
  0
DICTIONARY
  5
1B
102
{ACAD_REACTORS
330
19
102
}
100
AcDbDictionary
  3
STANDARD
350
1C
  0
MLINESTYLE
  5
1C
102
{ACAD_REACTORS
330
1B
102
}
100
AcDbMlineStyle
  2
STANDARD
 70
         0
  3

 62
         0
 51
90.0
 52
90.0
 71
         2
 49
0.5
 62
       256
  6
BYLAYER
 49
-0.5
 62
       256
  6
BYLAYER
  0
DICTIONARY
  5
22
102
{ACAD_REACTORS
330
19
102
}
100
AcDbDictionary
  0
ENDSEC
  0
EOF
